  0
SECTION
  2
HEADER
  9
$ACADVER
  1
AC1018
  9
$ACADMAINTVER
 70
     0
  9
$DWGCODEPAGE
  3
ASCII
  9
$INSBASE
 10
0.0
 20
0.0
 30
0.0
  9
$EXTMIN
 10
1.000000000000000E+20
 20
1.000000000000000E+20
 30
1.000000000000000E+20
  9
$EXTMAX
 10
-1.000000000000000E+20
 20
-1.000000000000000E+20
 30
-1.000000000000000E+20
  9
$LIMMIN
 10
0.0
 20
0.0
  9
$LIMMAX
 10
12.0
 20
9.0
  9
$ORTHOMODE
 70
     0
  9
$REGENMODE
 70
     1
  9
$FILLMODE
 70
     1
  9
$QTEXTMODE
 70
     0
  9
$MIRRTEXT
 70
     1
  9
$LTSCALE
 40
1.0
  9
$ATTMODE
 70
     1
  9
$TEXTSIZE
 40
0.2
  9
$TRACEWID
 40
0.05
  9
$TEXTSTYLE
  7
Standard
  9
$CLAYER
  8
0
  9
$CELTYPE
  6
ByLayer
  9
$CECOLOR
 62
   256
  9
$CELTSCALE
 40
1.0
  9
$DISPSILH
 70
     0
  9
$DIMSCALE
 40
1.0
  9
$DIMASZ
 40
0.18
  9
$DIMEXO
 40
0.0625
  9
$DIMDLI
 40
0.38
  9
$DIMRND
 40
0.0
  9
$DIMDLE
 40
0.0
  9
$DIMEXE
 40
0.18
  9
$DIMTP
 40
0.0
  9
$DIMTM
 40
0.0
  9
$DIMTXT
 40
0.18
  9
$DIMCEN
 40
0.09
  9
$DIMTSZ
 40
0.0
  9
$DIMTOL
 70
     0
  9
$DIMLIM
 70
     0
  9
$DIMTIH
 70
     1
  9
$DIMTOH
 70
     1
  9
$DIMSE1
 70
     0
  9
$DIMSE2
 70
     0
  9
$DIMTAD
 70
     0
  9
$DIMZIN
 70
     0
  9
$DIMBLK
  1

  9
$DIMASO
 70
     1
  9
$DIMSHO
 70
     1
  9
$DIMPOST
  1

  9
$DIMAPOST
  1

  9
$DIMALT
 70
     0
  9
$DIMALTD
 70
     2
  9
$DIMALTF
 40
25.4
  9
$DIMLFAC
 40
1.0
  9
$DIMTOFL
 70
     0
  9
$DIMTVP
 40
0.0
  9
$DIMTIX
 70
     0
  9
$DIMSOXD
 70
     0
  9
$DIMSAH
 70
     0
  9
$DIMBLK1
  1

  9
$DIMBLK2
  1

  9
$DIMSTYLE
  2
Standard
  9
$DIMCLRD
 70
     0
  9
$DIMCLRE
 70
     0
  9
$DIMCLRT
 70
     0
  9
$DIMTFAC
 40
1.0
  9
$DIMGAP
 40
0.09
  9
$DIMJUST
 70
     0
  9
$DIMSD1
 70
     0
  9
$DIMSD2
 70
     0
  9
$DIMTOLJ
 70
     1
  9
$DIMTZIN
 70
     0
  9
$DIMALTZ
 70
     0
  9
$DIMALTTZ
 70
     0
  9
$DIMUPT
 70
     0
  9
$DIMDEC
 70
     4
  9
$DIMTDEC
 70
     4
  9
$DIMALTU
 70
     2
  9
$DIMALTTD
 70
     2
  9
$DIMTXSTY
  7
Standard
  9
$DIMAUNIT
 70
     0
  9
$DIMADEC
 70
     0
  9
$DIMALTRND
 40
0.0
  9
$DIMAZIN
 70
     0
  9
$DIMDSEP
 70
    46
  9
$DIMATFIT
 70
     3
  9
$DIMFRAC
 70
     0
  9
$DIMLDRBLK
  1

  9
$DIMLUNIT
 70
     2
  9
$DIMLWD
 70
    -2
  9
$DIMLWE
 70
    -2
  9
$DIMTMOVE
 70
     0
  9
$LUNITS
 70
     2
  9
$LUPREC
 70
     4
  9
$SKETCHINC
 40
0.1
  9
$FILLETRAD
 40
0.5
  9
$AUNITS
 70
     0
  9
$AUPREC
 70
     0
  9
$MENU
  1
.
  9
$ELEVATION
 40
0.0
  9
$PELEVATION
 40
0.0
  9
$THICKNESS
 40
0.0
  9
$LIMCHECK
 70
     0
  9
$CHAMFERA
 40
0.5
  9
$CHAMFERB
 40
0.5
  9
$CHAMFERC
 40
1.0
  9
$CHAMFERD
 40
0.0
  9
$SKPOLY
 70
     0
  9
$TDCREATE
 40
2456037.67053647
  9
$TDUCREATE
 40
2456037.29553647
  9
$TDUPDATE
 40
2456037.670536481
  9
$TDUUPDATE
 40
2456037.295536481
  9
$TDINDWG
 40
0.0000000116
  9
$TDUSRTIMER
 40
0.0000000116
  9
$USRTIMER
 70
     1
  9
$ANGBASE
 50
0.0
  9
$ANGDIR
 70
     0
  9
$PDMODE
 70
     0
  9
$PDSIZE
 40
0.0
  9
$PLINEWID
 40
0.0
  9
$SPLFRAME
 70
     0
  9
$SPLINETYPE
 70
     6
  9
$SPLINESEGS
 70
     8
  9
$HANDSEED
  5
65C
  9
$SURFTAB1
 70
     6
  9
$SURFTAB2
 70
     6
  9
$SURFTYPE
 70
     6
  9
$SURFU
 70
     6
  9
$SURFV
 70
     6
  9
$UCSBASE
  2

  9
$UCSNAME
  2

  9
$UCSORG
 10
0.0
 20
0.0
 30
0.0
  9
$UCSXDIR
 10
1.0
 20
0.0
 30
0.0
  9
$UCSYDIR
 10
0.0
 20
1.0
 30
0.0
  9
$UCSORTHOREF
  2

  9
$UCSORTHOVIEW
 70
     0
  9
$UCSORGTOP
 10
0.0
 20
0.0
 30
0.0
  9
$UCSORGBOTTOM
 10
0.0
 20
0.0
 30
0.0
  9
$UCSORGLEFT
 10
0.0
 20
0.0
 30
0.0
  9
$UCSORGRIGHT
 10
0.0
 20
0.0
 30
0.0
  9
$UCSORGFRONT
 10
0.0
 20
0.0
 30
0.0
  9
$UCSORGBACK
 10
0.0
 20
0.0
 30
0.0
  9
$PUCSBASE
  2

  9
$PUCSNAME
  2

  9
$PUCSORG
 10
0.0
 20
0.0
 30
0.0
  9
$PUCSXDIR
 10
1.0
 20
0.0
 30
0.0
  9
$PUCSYDIR
 10
0.0
 20
1.0
 30
0.0
  9
$PUCSORTHOREF
  2

  9
$PUCSORTHOVIEW
 70
     0
  9
$PUCSORGTOP
 10
0.0
 20
0.0
 30
0.0
  9
$PUCSORGBOTTOM
 10
0.0
 20
0.0
 30
0.0
  9
$PUCSORGLEFT
 10
0.0
 20
0.0
 30
0.0
  9
$PUCSORGRIGHT
 10
0.0
 20
0.0
 30
0.0
  9
$PUCSORGFRONT
 10
0.0
 20
0.0
 30
0.0
  9
$PUCSORGBACK
 10
0.0
 20
0.0
 30
0.0
  9
$USERI1
 70
     0
  9
$USERI2
 70
     0
  9
$USERI3
 70
     0
  9
$USERI4
 70
     0
  9
$USERI5
 70
     0
  9
$USERR1
 40
0.0
  9
$USERR2
 40
0.0
  9
$USERR3
 40
0.0
  9
$USERR4
 40
0.0
  9
$USERR5
 40
0.0
  9
$WORLDVIEW
 70
     1
  9
$SHADEDGE
 70
     3
  9
$SHADEDIF
 70
    70
  9
$TILEMODE
 70
     1
  9
$MAXACTVP
 70
    64
  9
$PINSBASE
 10
0.0
 20
0.0
 30
0.0
  9
$PLIMCHECK
 70
     0
  9
$PEXTMIN
 10
1.000000000000000E+20
 20
1.000000000000000E+20
 30
1.000000000000000E+20
  9
$PEXTMAX
 10
-1.000000000000000E+20
 20
-1.000000000000000E+20
 30
-1.000000000000000E+20
  9
$PLIMMIN
 10
0.0
 20
0.0
  9
$PLIMMAX
 10
12.0
 20
9.0
  9
$UNITMODE
 70
     0
  9
$VISRETAIN
 70
     1
  9
$PLINEGEN
 70
     0
  9
$PSLTSCALE
 70
     1
  9
$TREEDEPTH
 70
  3020
  9
$CMLSTYLE
  2
Standard
  9
$CMLJUST
 70
     0
  9
$CMLSCALE
 40
1.0
  9
$PROXYGRAPHICS
 70
     1
  9
$MEASUREMENT
 70
     0
  9
$CELWEIGHT
370
    -1
  9
$ENDCAPS
280
     0
  9
$JOINSTYLE
280
     0
  9
$LWDISPLAY
290
     1
  9
$INSUNITS
 70
     1
  9
$HYPERLINKBASE
  1

  9
$STYLESHEET
  1

  9
$XEDIT
290
     1
  9
$CEPSNTYPE
380
     0
  9
$PSTYLEMODE
290
     1
  9
$FINGERPRINTGUID
  2
{B081000C-31EE-4ABE-9AE3-7B6B0BBFF3D2}
  9
$VERSIONGUID
  2
{FAEB1C32-E019-11D5-929B-00C0DF256EC4}
  9
$EXTNAMES
290
     1
  9
$PSVPSCALE
 40
0.0
  9
$OLESTARTUP
290
     0
  9
$SORTENTS
280
   127
  9
$INDEXCTL
280
     0
  9
$HIDETEXT
280
     1
  9
$XCLIPFRAME
290
     0
  9
$HALOGAP
280
     0
  9
$OBSCOLOR
 70
   257
  9
$OBSLTYPE
280
     0
  9
$INTERSECTIONDISPLAY
280
     0
  9
$INTERSECTIONCOLOR
 70
   257
  9
$DIMASSOC
280
     2
  9
$PROJECTNAME
  1

  0
ENDSEC
  0
SECTION
  2
CLASSES
  0
CLASS
  1
ACDBDICTIONARYWDFLT
  2
AcDbDictionaryWithDefault
  3
ObjectDBX Classes
 90
        0
 91
        3
280
     0
281
     0
  0
CLASS
  1
VISUALSTYLE
  2
AcDbVisualStyle
  3
ObjectDBX Classes
 90
     4095
 91
        3
280
     0
281
     0
  0
ENDSEC
  0
SECTION
  2
TABLES
  0
TABLE
  2
VPORT
  5
8
330
0
100
AcDbSymbolTable
 70
     1
  0
VPORT
  5
29
330
8
100
AcDbSymbolTableRecord
100
AcDbViewportTableRecord
  2
*Active
 70
     0
 10
0.0
 20
0.0
 11
1.0
 21
1.0
 12
0.0
 22
0.0
 13
0.0
 23
0.0
 14
0.5
 24
0.5
 15
0.5
 25
0.5
 16
0.0
 26
0.0
 36
1.0
 17
637.0
 27
453.5
 37
0.0
 40
907.0
 41
1.404630650496141
 42
50.0
 43
0.0
 44
0.0
 50
0.0
 51
0.0
 71
     0
 72
   100
 73
     1
 74
     3
 75
     0
 76
     0
 77
     0
 78
     0
281
     0
 65
     1
110
0.0
120
0.0
130
0.0
111
1.0
121
0.0
131
0.0
112
0.0
122
1.0
132
0.0
 79
     0
146
0.0
  0
ENDTAB
  0
TABLE
  2
LTYPE
  5
5
330
0
100
AcDbSymbolTable
 70
    15
  0
LTYPE
  5
14
330
5
100
AcDbSymbolTableRecord
100
AcDbLinetypeTableRecord
  2
ByBlock
 70
     0
  3

 72
    65
 73
     0
 40
0.0
  0
LTYPE
  5
15
330
5
100
AcDbSymbolTableRecord
100
AcDbLinetypeTableRecord
  2
ByLayer
 70
     0
  3

 72
    65
 73
     0
 40
0.0
  0
LTYPE
  5
16
330
5
100
AcDbSymbolTableRecord
100
AcDbLinetypeTableRecord
  2
Continuous
 70
     0
  3
Solid line
 72
    65
 73
     0
 40
0.0
  0
LTYPE
  5
5A
330
5
100
AcDbSymbolTableRecord
100
AcDbLinetypeTableRecord
  2
AI-Linetype-1
 70
     0
  3
Adobe Illustrator Linetype No. 1
 72
    65
 73
     4
 40
4.339999973773956
 49
1.952999949455261
 74
     0
 49
-0.9760000109672546
 74
     0
 49
0.4350000023841858
 74
     0
 49
-0.9760000109672546
 74
     0
  0
LTYPE
  5
119
330
5
100
AcDbSymbolTableRecord
100
AcDbLinetypeTableRecord
  2
AI-Linetype-2
 70
     0
  3
Adobe Illustrator Linetype No. 2
 72
    65
 73
     4
 40
4.339999973773956
 49
1.952999949455261
 74
     0
 49
-0.9760000109672546
 74
     0
 49
0.4350000023841858
 74
     0
 49
-0.9760000109672546
 74
     0
  0
LTYPE
  5
1E3
330
5
100
AcDbSymbolTableRecord
100
AcDbLinetypeTableRecord
  2
AI-Linetype-3
 70
     0
  3
Adobe Illustrator Linetype No. 3
 72
    65
 73
     4
 40
4.339999973773956
 49
1.952999949455261
 74
     0
 49
-0.9760000109672546
 74
     0
 49
0.4350000023841858
 74
     0
 49
-0.9760000109672546
 74
     0
  0
LTYPE
  5
270
330
5
100
AcDbSymbolTableRecord
100
AcDbLinetypeTableRecord
  2
AI-Linetype-4
 70
     0
  3
Adobe Illustrator Linetype No. 4
 72
    65
 73
     4
 40
4.339999973773956
 49
1.952999949455261
 74
     0
 49
-0.9760000109672546
 74
     0
 49
0.4350000023841858
 74
     0
 49
-0.9760000109672546
 74
     0
  0
LTYPE
  5
279
330
5
100
AcDbSymbolTableRecord
100
AcDbLinetypeTableRecord
  2
AI-Linetype-5
 70
     0
  3
Adobe Illustrator Linetype No. 5
 72
    65
 73
     4
 40
4.339999973773956
 49
1.952999949455261
 74
     0
 49
-0.9760000109672546
 74
     0
 49
0.4350000023841858
 74
     0
 49
-0.9760000109672546
 74
     0
  0
LTYPE
  5
286
330
5
100
AcDbSymbolTableRecord
100
AcDbLinetypeTableRecord
  2
AI-Linetype-6
 70
     0
  3
Adobe Illustrator Linetype No. 6
 72
    65
 73
     4
 40
4.339999973773956
 49
1.952999949455261
 74
     0
 49
-0.9760000109672546
 74
     0
 49
0.4350000023841858
 74
     0
 49
-0.9760000109672546
 74
     0
  0
LTYPE
  5
33A
330
5
100
AcDbSymbolTableRecord
100
AcDbLinetypeTableRecord
  2
AI-Linetype-7
 70
     0
  3
Adobe Illustrator Linetype No. 7
 72
    65
 73
     4
 40
4.339999973773956
 49
1.952999949455261
 74
     0
 49
-0.9760000109672546
 74
     0
 49
0.4350000023841858
 74
     0
 49
-0.9760000109672546
 74
     0
  0
LTYPE
  5
347
330
5
100
AcDbSymbolTableRecord
100
AcDbLinetypeTableRecord
  2
AI-Linetype-8
 70
     0
  3
Adobe Illustrator Linetype No. 8
 72
    65
 73
     4
 40
4.339999973773956
 49
1.952999949455261
 74
     0
 49
-0.9760000109672546
 74
     0
 49
0.4350000023841858
 74
     0
 49
-0.9760000109672546
 74
     0
  0
LTYPE
  5
34C
330
5
100
AcDbSymbolTableRecord
100
AcDbLinetypeTableRecord
  2
AI-Linetype-9
 70
     0
  3
Adobe Illustrator Linetype No. 9
 72
    65
 73
     4
 40
4.339999973773956
 49
1.952999949455261
 74
     0
 49
-0.9760000109672546
 74
     0
 49
0.4350000023841858
 74
     0
 49
-0.9760000109672546
 74
     0
  0
LTYPE
  5
41D
330
5
100
AcDbSymbolTableRecord
100
AcDbLinetypeTableRecord
  2
AI-Linetype-10
 70
     0
  3
Adobe Illustrator Linetype No. 10
 72
    65
 73
     4
 40
4.339999973773956
 49
1.952999949455261
 74
     0
 49
-0.9760000109672546
 74
     0
 49
0.4350000023841858
 74
     0
 49
-0.9760000109672546
 74
     0
  0
LTYPE
  5
4E1
330
5
100
AcDbSymbolTableRecord
100
AcDbLinetypeTableRecord
  2
AI-Linetype-11
 70
     0
  3
Adobe Illustrator Linetype No. 11
 72
    65
 73
     4
 40
4.339999973773956
 49
1.952999949455261
 74
     0
 49
-0.9760000109672546
 74
     0
 49
0.4350000023841858
 74
     0
 49
-0.9760000109672546
 74
     0
  0
LTYPE
  5
4EE
330
5
100
AcDbSymbolTableRecord
100
AcDbLinetypeTableRecord
  2
AI-Linetype-12
 70
     0
  3
Adobe Illustrator Linetype No. 12
 72
    65
 73
     4
 40
4.339999973773956
 49
1.952999949455261
 74
     0
 49
-0.9760000109672546
 74
     0
 49
0.4350000023841858
 74
     0
 49
-0.9760000109672546
 74
     0
  0
LTYPE
  5
4F3
330
5
100
AcDbSymbolTableRecord
100
AcDbLinetypeTableRecord
  2
AI-Linetype-13
 70
     0
  3
Adobe Illustrator Linetype No. 13
 72
    65
 73
     4
 40
4.339999973773956
 49
1.952999949455261
 74
     0
 49
-0.9760000109672546
 74
     0
 49
0.4350000023841858
 74
     0
 49
-0.9760000109672546
 74
     0
  0
LTYPE
  5
5B8
330
5
100
AcDbSymbolTableRecord
100
AcDbLinetypeTableRecord
  2
AI-Linetype-14
 70
     0
  3
Adobe Illustrator Linetype No. 14
 72
    65
 73
     4
 40
4.339999973773956
 49
1.952999949455261
 74
     0
 49
-0.9760000109672546
 74
     0
 49
0.4350000023841858
 74
     0
 49
-0.9760000109672546
 74
     0
  0
ENDTAB
  0
TABLE
  2
LAYER
  5
2
330
0
100
AcDbSymbolTable
 70
     2
  0
LAYER
  5
10
330
2
100
AcDbSymbolTableRecord
100
AcDbLayerTableRecord
  2
0
 70
     0
 62
     7
  6
Continuous
370
    -3
390
F
  0
LAYER
  5
3B
330
2
100
AcDbSymbolTableRecord
100
AcDbLayerTableRecord
  2
\U+30EC\U+30A4\U+30E4\U+30FC 1
 70
     0
 62
     7
  6
Continuous
370
    -3
390
F
  0
ENDTAB
  0
TABLE
  2
STYLE
  5
3
330
0
100
AcDbSymbolTable
 70
     1
  0
STYLE
  5
11
330
3
100
AcDbSymbolTableRecord
100
AcDbTextStyleTableRecord
  2
Standard
 70
     0
 40
0.0
 41
1.0
 50
0.0
 71
     0
 42
0.2
  3
txt
  4

  0
ENDTAB
  0
TABLE
  2
VIEW
  5
6
330
0
100
AcDbSymbolTable
 70
     0
  0
ENDTAB
  0
TABLE
  2
UCS
  5
7
330
0
100
AcDbSymbolTable
 70
     0
  0
ENDTAB
  0
TABLE
  2
APPID
  5
9
330
0
100
AcDbSymbolTable
 70
     1
  0
APPID
  5
12
330
9
100
AcDbSymbolTableRecord
100
AcDbRegAppTableRecord
  2
ACAD
 70
     0
  0
ENDTAB
  0
TABLE
  2
DIMSTYLE
  5
A
330
0
100
AcDbSymbolTable
 70
     1
100
AcDbDimStyleTable
  0
DIMSTYLE
105
27
330
A
100
AcDbSymbolTableRecord
100
AcDbDimStyleTableRecord
  2
Standard
 70
     0
340
11
  0
ENDTAB
  0
TABLE
  2
BLOCK_RECORD
  5
1
330
0
100
AcDbSymbolTable
 70
     5
  0
BLOCK_RECORD
  5
1F
330
1
100
AcDbSymbolTableRecord
100
AcDbBlockTableRecord
  2
*Model_Space
340
22
  0
BLOCK_RECORD
  5
1B
330
1
100
AcDbSymbolTableRecord
100
AcDbBlockTableRecord
  2
*Paper_Space
340
1E
  0
BLOCK_RECORD
  5
23
330
1
100
AcDbSymbolTableRecord
100
AcDbBlockTableRecord
  2
*Paper_Space0
340
26
  0
BLOCK_RECORD
  5
15A
330
1
100
AcDbSymbolTableRecord
100
AcDbBlockTableRecord
  2
block 2
340
0
102
{BLKREFS
331
15B
102
}
  0
BLOCK_RECORD
  5
18C
330
1
100
AcDbSymbolTableRecord
100
AcDbBlockTableRecord
  2
block 3
340
0
102
{BLKREFS
331
18D
102
}
  0
BLOCK_RECORD
  5
30F
330
1
100
AcDbSymbolTableRecord
100
AcDbBlockTableRecord
  2
block 4
340
0
102
{BLKREFS
331
310
102
}
  0
BLOCK_RECORD
  5
4B6
330
1
100
AcDbSymbolTableRecord
100
AcDbBlockTableRecord
  2
block 5
340
0
102
{BLKREFS
331
4B7
102
}
  0
ENDTAB
  0
ENDSEC
  0
SECTION
  2
BLOCKS
  0
BLOCK
  5
20
330
1F
100
AcDbEntity
  8
0
100
AcDbBlockBegin
  2
*Model_Space
 70
     0
 71
     0
 10
0.0
 20
0.0
 30
0.0
  3
*Model_Space
  1

  0
ENDBLK
  5
21
330
1F
100
AcDbEntity
  8
0
100
AcDbBlockEnd
  0
BLOCK
  5
1C
330
1B
100
AcDbEntity
 67
     1
  8
0
100
AcDbBlockBegin
  2
*Paper_Space
 70
     0
 71
     0
 10
0.0
 20
0.0
 30
0.0
  3
*Paper_Space
  1

  0
ENDBLK
  5
1D
330
1B
100
AcDbEntity
 67
     1
  8
0
100
AcDbBlockEnd
  0
BLOCK
  5
24
330
23
100
AcDbEntity
  8
0
100
AcDbBlockBegin
  2
*Paper_Space0
 70
     0
 71
     0
 10
0.0
 20
0.0
 30
0.0
  3
*Paper_Space0
  1

  0
ENDBLK
  5
25
330
23
100
AcDbEntity
  8
0
100
AcDbBlockEnd
  0
BLOCK
  5
15C
330
15A
100
AcDbEntity
  8
0
100
AcDbBlockBegin
  2
block 2
 70
     0
 71
     0
 10
0.0
 20
0.0
 30
0.0
  3
block 2
  1

  0
POLYLINE
  5
15E
330
15A
100
AcDbEntity
  8
\U+30EC\U+30A4\U+30E4\U+30FC 1
370
     0
100
AcDb2dPolyline
 66
     1
 10
0.0
 20
0.0
 30
0.0
  0
VERTEX
  5
15F
330
15E
100
AcDbEntity
  8
\U+30EC\U+30A4\U+30E4\U+30FC 1
370
     0
100
AcDbVertex
100
AcDb2dVertex
 10
0.0
 20
907.0
 30
0.0
  0
VERTEX
  5
160
330
15E
100
AcDbEntity
  8
\U+30EC\U+30A4\U+30E4\U+30FC 1
370
     0
100
AcDbVertex
100
AcDb2dVertex
 10
1274.0
 20
907.0
 30
0.0
  0
VERTEX
  5
161
330
15E
100
AcDbEntity
  8
\U+30EC\U+30A4\U+30E4\U+30FC 1
370
     0
100
AcDbVertex
100
AcDb2dVertex
 10
1274.0
 20
0.0
 30
0.0
  0
VERTEX
  5
162
330
15E
100
AcDbEntity
  8
\U+30EC\U+30A4\U+30E4\U+30FC 1
370
     0
100
AcDbVertex
100
AcDb2dVertex
 10
0.0
 20
0.0
 30
0.0
  0
VERTEX
  5
163
330
15E
100
AcDbEntity
  8
\U+30EC\U+30A4\U+30E4\U+30FC 1
370
     0
100
AcDbVertex
100
AcDb2dVertex
 10
0.0
 20
907.0
 30
0.0
  0
SEQEND
  5
164
330
15E
100
AcDbEntity
  8
\U+30EC\U+30A4\U+30E4\U+30FC 1
370
     0
  0
SPLINE
  5
165
330
15A
100
AcDbEntity
  8
\U+30EC\U+30A4\U+30E4\U+30FC 1
 62
   250
420
  2234388
370
     9
100
AcDbSpline
210
0.0
220
0.0
230
1.0
 70
    11
 71
     3
 72
    17
 73
    13
 74
     0
 42
0.0000000001
 43
0.0000000001
 40
0.0
 40
0.0
 40
0.0
 40
0.0
 40
1.0
 40
1.0
 40
1.0
 40
2.0
 40
2.0
 40
2.0
 40
3.0
 40
3.0
 40
3.0
 40
4.0
 40
4.0
 40
4.0
 40
4.0
 10
819.1904296875
 20
608.56396484375
 30
0.0
 10
819.1904296875
 20
608.6357421875
 30
0.0
 10
819.1328125
 20
608.69189453125
 30
0.0
 10
819.064453125
 20
608.69189453125
 30
0.0
 10
818.9892578125
 20
608.69189453125
 30
0.0
 10
818.9384765625
 20
608.6357421875
 30
0.0
 10
818.9384765625
 20
608.56396484375
 30
0.0
 10
818.9384765625
 20
608.4970703125
 30
0.0
 10
818.9892578125
 20
608.43896484375
 30
0.0
 10
819.064453125
 20
608.43896484375
 30
0.0
 10
819.1328125
 20
608.43896484375
 30
0.0
 10
819.1904296875
 20
608.4970703125
 30
0.0
 10
819.1904296875
 20
608.56396484375
 30
0.0
  0
POLYLINE
  5
166
330
15A
100
AcDbEntity
  8
\U+30EC\U+30A4\U+30E4\U+30FC 1
 62
   250
420
  2234388
370
     9
100
AcDb2dPolyline
 66
     1
 10
0.0
 20
0.0
 30
0.0
  0
VERTEX
  5
167
330
166
100
AcDbEntity
  8
\U+30EC\U+30A4\U+30E4\U+30FC 1
 62
   250
420
  2234388
370
     9
100
AcDbVertex
100
AcDb2dVertex
 10
819.31640625
 20
608.56396484375
 30
0.0
  0
VERTEX
  5
168
330
166
100
AcDbEntity
  8
\U+30EC\U+30A4\U+30E4\U+30FC 1
 62
   250
420
  2234388
370
     9
100
AcDbVertex
100
AcDb2dVertex
 10
819.5673828125
 20
608.56396484375
 30
0.0
  0
SEQEND
  5
169
330
166
100
AcDbEntity
  8
\U+30EC\U+30A4\U+30E4\U+30FC 1
370
     9
  0
POLYLINE
  5
16A
330
15A
100
AcDbEntity
  8
\U+30EC\U+30A4\U+30E4\U+30FC 1
 62
   250
420
  2234388
370
     9
100
AcDb2dPolyline
 66
     1
 10
0.0
 20
0.0
 30
0.0
  0
VERTEX
  5
16B
330
16A
100
AcDbEntity
  8
\U+30EC\U+30A4\U+30E4\U+30FC 1
 62
   250
420
  2234388
370
     9
100
AcDbVertex
100
AcDb2dVertex
 10
806.4560546875
 20
698.92626953125
 30
0.0
  0
VERTEX
  5
16C
330
16A
100
AcDbEntity
  8
\U+30EC\U+30A4\U+30E4\U+30FC 1
 62
   250
420
  2234388
370
     9
100
AcDbVertex
100
AcDb2dVertex
 10
806.4560546875
 20
704.205078125
 30
0.0
  0
SEQEND
  5
16D
330
16A
100
AcDbEntity
  8
\U+30EC\U+30A4\U+30E4\U+30FC 1
370
     9
  0
POLYLINE
  5
16E
330
15A
100
AcDbEntity
  8
\U+30EC\U+30A4\U+30E4\U+30FC 1
 62
   250
420
  2234388
370
     9
100
AcDb2dPolyline
 66
     1
 10
0.0
 20
0.0
 30
0.0
  0
VERTEX
  5
16F
330
16E
100
AcDbEntity
  8
\U+30EC\U+30A4\U+30E4\U+30FC 1
 62
   250
420
  2234388
370
     9
100
AcDbVertex
100
AcDb2dVertex
 10
816.79296875
 20
692.74658203125
 30
0.0
  0
VERTEX
  5
170
330
16E
100
AcDbEntity
  8
\U+30EC\U+30A4\U+30E4\U+30FC 1
 62
   250
420
  2234388
370
     9
100
AcDbVertex
100
AcDb2dVertex
 10
816.79296875
 20
704.20556640625
 30
0.0
  0
SEQEND
  5
171
330
16E
100
AcDbEntity
  8
\U+30EC\U+30A4\U+30E4\U+30FC 1
370
     9
  0
POLYLINE
  5
172
330
15A
100
AcDbEntity
  8
\U+30EC\U+30A4\U+30E4\U+30FC 1
 62
   250
420
  2234388
370
     9
100
AcDb2dPolyline
 66
     1
 10
0.0
 20
0.0
 30
0.0
  0
VERTEX
  5
173
330
172
100
AcDbEntity
  8
\U+30EC\U+30A4\U+30E4\U+30FC 1
 62
   250
420
  2234388
370
     9
100
AcDbVertex
100
AcDb2dVertex
 10
798.1279296875
 20
701.68603515625
 30
0.0
  0
VERTEX
  5
174
330
172
100
AcDbEntity
  8
\U+30EC\U+30A4\U+30E4\U+30FC 1
 62
   250
420
  2234388
370
     9
100
AcDbVertex
100
AcDb2dVertex
 10
825.1650390625
 20
701.68603515625
 30
0.0
  0
SEQEND
  5
175
330
172
100
AcDbEntity
  8
\U+30EC\U+30A4\U+30E4\U+30FC 1
370
     9
  0
POLYLINE
  5
176
330
15A
100
AcDbEntity
  8
\U+30EC\U+30A4\U+30E4\U+30FC 1
 62
   250
420
  2234388
370
     9
100
AcDb2dPolyline
 66
     1
 10
0.0
 20
0.0
 30
0.0
  0
VERTEX
  5
177
330
176
100
AcDbEntity
  8
\U+30EC\U+30A4\U+30E4\U+30FC 1
 62
   250
420
  2234388
370
     9
100
AcDbVertex
100
AcDb2dVertex
 10
806.4560546875
 20
617.20166015625
 30
0.0
  0
VERTEX
  5
178
330
176
100
AcDbEntity
  8
\U+30EC\U+30A4\U+30E4\U+30FC 1
 62
   250
420
  2234388
370
     9
100
AcDbVertex
100
AcDb2dVertex
 10
806.4560546875
 20
606.0439453125
 30
0.0
  0
SEQEND
  5
179
330
176
100
AcDbEntity
  8
\U+30EC\U+30A4\U+30E4\U+30FC 1
370
     9
  0
POLYLINE
  5
17A
330
15A
100
AcDbEntity
  8
\U+30EC\U+30A4\U+30E4\U+30FC 1
 62
   250
420
  2234388
370
     9
100
AcDb2dPolyline
 66
     1
 10
0.0
 20
0.0
 30
0.0
  0
VERTEX
  5
17B
330
17A
100
AcDbEntity
  8
\U+30EC\U+30A4\U+30E4\U+30FC 1
 62
   250
420
  2234388
370
     9
100
AcDbVertex
100
AcDb2dVertex
 10
819.064453125
 20
617.20166015625
 30
0.0
  0
VERTEX
  5
17C
330
17A
100
AcDbEntity
  8
\U+30EC\U+30A4\U+30E4\U+30FC 1
 62
   250
420
  2234388
370
     9
100
AcDbVertex
100
AcDb2dVertex
 10
819.064453125
 20
606.0439453125
 30
0.0
  0
SEQEND
  5
17D
330
17A
100
AcDbEntity
  8
\U+30EC\U+30A4\U+30E4\U+30FC 1
370
     9
  0
SPLINE
  5
17E
330
15A
100
AcDbEntity
  8
\U+30EC\U+30A4\U+30E4\U+30FC 1
 62
   250
420
  2234388
370
     9
100
AcDbSpline
210
0.0
220
0.0
230
1.0
 70
    11
 71
     3
 72
    17
 73
    13
 74
     0
 42
0.0000000001
 43
0.0000000001
 40
0.0
 40
0.0
 40
0.0
 40
0.0
 40
1.0
 40
1.0
 40
1.0
 40
2.0
 40
2.0
 40
2.0
 40
3.0
 40
3.0
 40
3.0
 40
4.0
 40
4.0
 40
4.0
 40
4.0
 10
818.9384765625
 20
608.56396484375
 30
0.0
 10
818.9384765625
 20
608.4970703125
 30
0.0
 10
818.9892578125
 20
608.43896484375
 30
0.0
 10
819.064453125
 20
608.43896484375
 30
0.0
 10
819.1328125
 20
608.43896484375
 30
0.0
 10
819.1904296875
 20
608.4970703125
 30
0.0
 10
819.1904296875
 20
608.56396484375
 30
0.0
 10
819.1904296875
 20
608.6357421875
 30
0.0
 10
819.1328125
 20
608.69189453125
 30
0.0
 10
819.064453125
 20
608.69189453125
 30
0.0
 10
818.9892578125
 20
608.69189453125
 30
0.0
 10
818.9384765625
 20
608.6357421875
 30
0.0
 10
818.9384765625
 20
608.56396484375
 30
0.0
  0
POLYLINE
  5
17F
330
15A
100
AcDbEntity
  8
\U+30EC\U+30A4\U+30E4\U+30FC 1
 62
   250
420
  2234388
370
     9
100
AcDb2dPolyline
 66
     1
 10
0.0
 20
0.0
 30
0.0
  0
VERTEX
  5
180
330
17F
100
AcDbEntity
  8
\U+30EC\U+30A4\U+30E4\U+30FC 1
 62
   250
420
  2234388
370
     9
100
AcDbVertex
100
AcDb2dVertex
 10
818.8125
 20
608.56396484375
 30
0.0
  0
VERTEX
  5
181
330
17F
100
AcDbEntity
  8
\U+30EC\U+30A4\U+30E4\U+30FC 1
 62
   250
420
  2234388
370
     9
100
AcDbVertex
100
AcDb2dVertex
 10
818.5576171875
 20
608.56396484375
 30
0.0
  0
SEQEND
  5
182
330
17F
100
AcDbEntity
  8
\U+30EC\U+30A4\U+30E4\U+30FC 1
370
     9
  0
POLYLINE
  5
183
330
15A
100
AcDbEntity
  8
\U+30EC\U+30A4\U+30E4\U+30FC 1
 62
   250
420
  2234388
370
     9
100
AcDb2dPolyline
 66
     1
 10
0.0
 20
0.0
 30
0.0
  0
VERTEX
  5
184
330
183
100
AcDbEntity
  8
\U+30EC\U+30A4\U+30E4\U+30FC 1
 62
   250
420
  2234388
370
     9
100
AcDbVertex
100
AcDb2dVertex
 10
790.28515625
 20
608.56396484375
 30
0.0
  0
VERTEX
  5
185
330
183
100
AcDbEntity
  8
\U+30EC\U+30A4\U+30E4\U+30FC 1
 62
   250
420
  2234388
370
     9
100
AcDbVertex
100
AcDb2dVertex
 10
844.08203125
 20
608.56396484375
 30
0.0
  0
SEQEND
  5
186
330
183
100
AcDbEntity
  8
\U+30EC\U+30A4\U+30E4\U+30FC 1
370
     9
  0
ENDBLK
  5
15D
330
15A
100
AcDbEntity
  8
0
100
AcDbBlockEnd
  0
BLOCK
  5
18E
330
18C
100
AcDbEntity
  8
0
100
AcDbBlockBegin
  2
block 3
 70
     0
 71
     0
 10
0.0
 20
0.0
 30
0.0
  3
block 3
  1

  0
POLYLINE
  5
190
330
18C
100
AcDbEntity
  8
\U+30EC\U+30A4\U+30E4\U+30FC 1
370
     0
100
AcDb2dPolyline
 66
     1
 10
0.0
 20
0.0
 30
0.0
  0
VERTEX
  5
191
330
190
100
AcDbEntity
  8
\U+30EC\U+30A4\U+30E4\U+30FC 1
370
     0
100
AcDbVertex
100
AcDb2dVertex
 10
0.0
 20
907.0
 30
0.0
  0
VERTEX
  5
192
330
190
100
AcDbEntity
  8
\U+30EC\U+30A4\U+30E4\U+30FC 1
370
     0
100
AcDbVertex
100
AcDb2dVertex
 10
1274.0
 20
907.0
 30
0.0
  0
VERTEX
  5
193
330
190
100
AcDbEntity
  8
\U+30EC\U+30A4\U+30E4\U+30FC 1
370
     0
100
AcDbVertex
100
AcDb2dVertex
 10
1274.0
 20
0.0
 30
0.0
  0
VERTEX
  5
194
330
190
100
AcDbEntity
  8
\U+30EC\U+30A4\U+30E4\U+30FC 1
370
     0
100
AcDbVertex
100
AcDb2dVertex
 10
0.0
 20
0.0
 30
0.0
  0
VERTEX
  5
195
330
190
100
AcDbEntity
  8
\U+30EC\U+30A4\U+30E4\U+30FC 1
370
     0
100
AcDbVertex
100
AcDb2dVertex
 10
0.0
 20
907.0
 30
0.0
  0
SEQEND
  5
196
330
190
100
AcDbEntity
  8
\U+30EC\U+30A4\U+30E4\U+30FC 1
370
     0
  0
POLYLINE
  5
197
330
18C
100
AcDbEntity
  8
\U+30EC\U+30A4\U+30E4\U+30FC 1
 62
   250
420
  2234388
370
     9
100
AcDb2dPolyline
 66
     1
 10
0.0
 20
0.0
 30
0.0
  0
VERTEX
  5
198
330
197
100
AcDbEntity
  8
\U+30EC\U+30A4\U+30E4\U+30FC 1
 62
   250
420
  2234388
370
     9
100
AcDbVertex
100
AcDb2dVertex
 10
825.5859375
 20
686.44384765625
 30
0.0
  0
VERTEX
  5
199
330
197
100
AcDbEntity
  8
\U+30EC\U+30A4\U+30E4\U+30FC 1
 62
   250
420
  2234388
370
     9
100
AcDbVertex
100
AcDb2dVertex
 10
828.31640625
 20
689.169921875
 30
0.0
  0
SEQEND
  5
19A
330
197
100
AcDbEntity
  8
\U+30EC\U+30A4\U+30E4\U+30FC 1
370
     9
  0
POLYLINE
  5
19B
330
18C
100
AcDbEntity
  8
\U+30EC\U+30A4\U+30E4\U+30FC 1
 62
   250
420
  2234388
370
     9
100
AcDb2dPolyline
 66
     1
 10
0.0
 20
0.0
 30
0.0
  0
VERTEX
  5
19C
330
19B
100
AcDbEntity
  8
\U+30EC\U+30A4\U+30E4\U+30FC 1
 62
   250
420
  2234388
370
     9
100
AcDbVertex
100
AcDb2dVertex
 10
822.01953125
 20
686.44384765625
 30
0.0
  0
VERTEX
  5
19D
330
19B
100
AcDbEntity
  8
\U+30EC\U+30A4\U+30E4\U+30FC 1
 62
   250
420
  2234388
370
     9
100
AcDbVertex
100
AcDb2dVertex
 10
825.677734375
 20
690.0986328125
 30
0.0
  0
SEQEND
  5
19E
330
19B
100
AcDbEntity
  8
\U+30EC\U+30A4\U+30E4\U+30FC 1
370
     9
  0
POLYLINE
  5
19F
330
18C
100
AcDbEntity
  8
\U+30EC\U+30A4\U+30E4\U+30FC 1
 62
   250
420
  2234388
370
     9
100
AcDb2dPolyline
 66
     1
 10
0.0
 20
0.0
 30
0.0
  0
VERTEX
  5
1A0
330
19F
100
AcDbEntity
  8
\U+30EC\U+30A4\U+30E4\U+30FC 1
 62
   250
420
  2234388
370
     9
100
AcDbVertex
100
AcDb2dVertex
 10
818.4521484375
 20
686.44384765625
 30
0.0
  0
VERTEX
  5
1A1
330
19F
100
AcDbEntity
  8
\U+30EC\U+30A4\U+30E4\U+30FC 1
 62
   250
420
  2234388
370
     9
100
AcDbVertex
100
AcDb2dVertex
 10
820.3427734375
 20
688.3330078125
 30
0.0
  0
SEQEND
  5
1A2
330
19F
100
AcDbEntity
  8
\U+30EC\U+30A4\U+30E4\U+30FC 1
370
     9
  0
POLYLINE
  5
1A3
330
18C
100
AcDbEntity
  8
\U+30EC\U+30A4\U+30E4\U+30FC 1
 62
   250
420
  2234388
370
     9
100
AcDb2dPolyline
 66
     1
 10
0.0
 20
0.0
 30
0.0
  0
VERTEX
  5
1A4
330
1A3
100
AcDbEntity
  8
\U+30EC\U+30A4\U+30E4\U+30FC 1
 62
   250
420
  2234388
370
     9
100
AcDbVertex
100
AcDb2dVertex
 10
816.79296875
 20
688.35009765625
 30
0.0
  0
VERTEX
  5
1A5
330
1A3
100
AcDbEntity
  8
\U+30EC\U+30A4\U+30E4\U+30FC 1
 62
   250
420
  2234388
370
     9
100
AcDbVertex
100
AcDb2dVertex
 10
819.064453125
 20
690.6201171875
 30
0.0
  0
SEQEND
  5
1A6
330
1A3
100
AcDbEntity
  8
\U+30EC\U+30A4\U+30E4\U+30FC 1
370
     9
  0
POLYLINE
  5
1A7
330
18C
100
AcDbEntity
  8
\U+30EC\U+30A4\U+30E4\U+30FC 1
 62
   250
420
  2234388
370
     9
100
AcDb2dPolyline
 66
     1
 10
0.0
 20
0.0
 30
0.0
  0
VERTEX
  5
1A8
330
1A7
100
AcDbEntity
  8
\U+30EC\U+30A4\U+30E4\U+30FC 1
 62
   250
420
  2234388
370
     9
100
AcDbVertex
100
AcDb2dVertex
 10
815.1025390625
 20
690.22314453125
 30
0.0
  0
VERTEX
  5
1A9
330
1A7
100
AcDbEntity
  8
\U+30EC\U+30A4\U+30E4\U+30FC 1
 62
   250
420
  2234388
370
     9
100
AcDbVertex
100
AcDb2dVertex
 10
819.064453125
 20
694.18701171875
 30
0.0
  0
SEQEND
  5
1AA
330
1A7
100
AcDbEntity
  8
\U+30EC\U+30A4\U+30E4\U+30FC 1
370
     9
  0
POLYLINE
  5
1AB
330
18C
100
AcDbEntity
  8
\U+30EC\U+30A4\U+30E4\U+30FC 1
 62
   250
420
  2234388
370
     9
100
AcDb2dPolyline
 66
     1
 10
0.0
 20
0.0
 30
0.0
  0
VERTEX
  5
1AC
330
1AB
100
AcDbEntity
  8
\U+30EC\U+30A4\U+30E4\U+30FC 1
 62
   250
420
  2234388
370
     9
100
AcDbVertex
100
AcDb2dVertex
 10
810.396484375
 20
689.09130859375
 30
0.0
  0
VERTEX
  5
1AD
330
1AB
100
AcDbEntity
  8
\U+30EC\U+30A4\U+30E4\U+30FC 1
 62
   250
420
  2234388
370
     9
100
AcDbVertex
100
AcDb2dVertex
 10
818.3876953125
 20
697.0810546875
 30
0.0
  0
SEQEND
  5
1AE
330
1AB
100
AcDbEntity
  8
\U+30EC\U+30A4\U+30E4\U+30FC 1
370
     9
  0
POLYLINE
  5
1AF
330
18C
100
AcDbEntity
  8
\U+30EC\U+30A4\U+30E4\U+30FC 1
 62
   250
420
  2234388
370
     9
100
AcDb2dPolyline
 66
     1
 10
0.0
 20
0.0
 30
0.0
  0
VERTEX
  5
1B0
330
1AF
100
AcDbEntity
  8
\U+30EC\U+30A4\U+30E4\U+30FC 1
 62
   250
420
  2234388
370
     9
100
AcDbVertex
100
AcDb2dVertex
 10
807.3974609375
 20
689.65673828125
 30
0.0
  0
VERTEX
  5
1B1
330
1AF
100
AcDbEntity
  8
\U+30EC\U+30A4\U+30E4\U+30FC 1
 62
   250
420
  2234388
370
     9
100
AcDbVertex
100
AcDb2dVertex
 10
814.90234375
 20
697.16162109375
 30
0.0
  0
SEQEND
  5
1B2
330
1AF
100
AcDbEntity
  8
\U+30EC\U+30A4\U+30E4\U+30FC 1
370
     9
  0
POLYLINE
  5
1B3
330
18C
100
AcDbEntity
  8
\U+30EC\U+30A4\U+30E4\U+30FC 1
 62
   250
420
  2234388
370
     9
100
AcDb2dPolyline
 66
     1
 10
0.0
 20
0.0
 30
0.0
  0
VERTEX
  5
1B4
330
1B3
100
AcDbEntity
  8
\U+30EC\U+30A4\U+30E4\U+30FC 1
 62
   250
420
  2234388
370
     9
100
AcDbVertex
100
AcDb2dVertex
 10
806.4560546875
 20
692.27685546875
 30
0.0
  0
VERTEX
  5
1B5
330
1B3
100
AcDbEntity
  8
\U+30EC\U+30A4\U+30E4\U+30FC 1
 62
   250
420
  2234388
370
     9
100
AcDbVertex
100
AcDb2dVertex
 10
811.3388671875
 20
697.162109375
 30
0.0
  0
SEQEND
  5
1B6
330
1B3
100
AcDbEntity
  8
\U+30EC\U+30A4\U+30E4\U+30FC 1
370
     9
  0
POLYLINE
  5
1B7
330
18C
100
AcDbEntity
  8
\U+30EC\U+30A4\U+30E4\U+30FC 1
 62
   250
420
  2234388
370
     9
100
AcDb2dPolyline
 66
     1
 10
0.0
 20
0.0
 30
0.0
  0
VERTEX
  5
1B8
330
1B7
100
AcDbEntity
  8
\U+30EC\U+30A4\U+30E4\U+30FC 1
 62
   250
420
  2234388
370
     9
100
AcDbVertex
100
AcDb2dVertex
 10
806.4560546875
 20
695.84423828125
 30
0.0
  0
VERTEX
  5
1B9
330
1B7
100
AcDbEntity
  8
\U+30EC\U+30A4\U+30E4\U+30FC 1
 62
   250
420
  2234388
370
     9
100
AcDbVertex
100
AcDb2dVertex
 10
807.76953125
 20
697.1611328125
 30
0.0
  0
SEQEND
  5
1BA
330
1B7
100
AcDbEntity
  8
\U+30EC\U+30A4\U+30E4\U+30FC 1
370
     9
  0
POLYLINE
  5
1BB
330
18C
100
AcDbEntity
  8
\U+30EC\U+30A4\U+30E4\U+30FC 1
 62
   250
420
  2234388
370
     9
100
AcDb2dPolyline
 66
     1
 10
0.0
 20
0.0
 30
0.0
  0
VERTEX
  5
1BC
330
1BB
100
AcDbEntity
  8
\U+30EC\U+30A4\U+30E4\U+30FC 1
 62
   250
420
  2234388
370
     9
100
AcDbVertex
100
AcDb2dVertex
 10
807.2109375
 20
618.97021484375
 30
0.0
  0
VERTEX
  5
1BD
330
1BB
100
AcDbEntity
  8
\U+30EC\U+30A4\U+30E4\U+30FC 1
 62
   250
420
  2234388
370
     9
100
AcDbVertex
100
AcDb2dVertex
 10
818.3095703125
 20
618.97021484375
 30
0.0
  0
SEQEND
  5
1BE
330
1BB
100
AcDbEntity
  8
\U+30EC\U+30A4\U+30E4\U+30FC 1
370
     9
  0
POLYLINE
  5
1BF
330
18C
100
AcDbEntity
  8
\U+30EC\U+30A4\U+30E4\U+30FC 1
 62
   250
420
  2234388
370
     9
100
AcDb2dPolyline
 66
     1
 10
0.0
 20
0.0
 30
0.0
  0
VERTEX
  5
1C0
330
1BF
100
AcDbEntity
  8
\U+30EC\U+30A4\U+30E4\U+30FC 1
 62
   250
420
  2234388
370
     9
100
AcDbVertex
100
AcDb2dVertex
 10
807.2109375
 20
697.16162109375
 30
0.0
  0
VERTEX
  5
1C1
330
1BF
100
AcDbEntity
  8
\U+30EC\U+30A4\U+30E4\U+30FC 1
 62
   250
420
  2234388
370
     9
100
AcDbVertex
100
AcDb2dVertex
 10
818.3095703125
 20
697.16162109375
 30
0.0
  0
SEQEND
  5
1C2
330
1BF
100
AcDbEntity
  8
\U+30EC\U+30A4\U+30E4\U+30FC 1
370
     9
  0
POLYLINE
  5
1C3
330
18C
100
AcDbEntity
  8
\U+30EC\U+30A4\U+30E4\U+30FC 1
 62
   250
420
  2234388
370
     9
100
AcDb2dPolyline
 66
     1
 10
0.0
 20
0.0
 30
0.0
  0
VERTEX
  5
1C4
330
1C3
100
AcDbEntity
  8
\U+30EC\U+30A4\U+30E4\U+30FC 1
 62
   250
420
  2234388
370
     9
100
AcDbVertex
100
AcDb2dVertex
 10
827.384765625
 20
690.09912109375
 30
0.0
  0
VERTEX
  5
1C5
330
1C3
100
AcDbEntity
  8
\U+30EC\U+30A4\U+30E4\U+30FC 1
 62
   250
420
  2234388
370
     9
100
AcDbVertex
100
AcDb2dVertex
 10
823.478515625
 20
690.09912109375
 30
0.0
  0
SEQEND
  5
1C6
330
1C3
100
AcDbEntity
  8
\U+30EC\U+30A4\U+30E4\U+30FC 1
370
     9
  0
POLYLINE
  5
1C7
330
18C
100
AcDbEntity
  8
\U+30EC\U+30A4\U+30E4\U+30FC 1
 62
   250
420
  2234388
370
     9
100
AcDb2dPolyline
 66
     1
 10
0.0
 20
0.0
 30
0.0
  0
VERTEX
  5
1C8
330
1C7
100
AcDbEntity
  8
\U+30EC\U+30A4\U+30E4\U+30FC 1
 62
   250
420
  2234388
370
     9
100
AcDbVertex
100
AcDb2dVertex
 10
829.150390625
 20
686.44384765625
 30
0.0
  0
VERTEX
  5
1C9
330
1C7
100
AcDbEntity
  8
\U+30EC\U+30A4\U+30E4\U+30FC 1
 62
   250
420
  2234388
370
     9
100
AcDbVertex
100
AcDb2dVertex
 10
816.79296875
 20
686.44384765625
 30
0.0
  0
SEQEND
  5
1CA
330
1C7
100
AcDbEntity
  8
\U+30EC\U+30A4\U+30E4\U+30FC 1
370
     9
  0
POLYLINE
  5
1CB
330
18C
100
AcDbEntity
  8
\U+30EC\U+30A4\U+30E4\U+30FC 1
 62
   250
420
  2234388
370
     9
100
AcDb2dPolyline
 66
     1
 10
0.0
 20
0.0
 30
0.0
  0
VERTEX
  5
1CC
330
1CB
100
AcDbEntity
  8
\U+30EC\U+30A4\U+30E4\U+30FC 1
 62
   250
420
  2234388
370
     9
100
AcDbVertex
100
AcDb2dVertex
 10
829.150390625
 20
688.33251953125
 30
0.0
  0
VERTEX
  5
1CD
330
1CB
100
AcDbEntity
  8
\U+30EC\U+30A4\U+30E4\U+30FC 1
 62
   250
420
  2234388
370
     9
100
AcDbVertex
100
AcDb2dVertex
 10
829.150390625
 20
627.79736328125
 30
0.0
  0
SEQEND
  5
1CE
330
1CB
100
AcDbEntity
  8
\U+30EC\U+30A4\U+30E4\U+30FC 1
370
     9
  0
POLYLINE
  5
1CF
330
18C
100
AcDbEntity
  8
\U+30EC\U+30A4\U+30E4\U+30FC 1
 62
   250
420
  2234388
370
     9
100
AcDb2dPolyline
 66
     1
 10
0.0
 20
0.0
 30
0.0
  0
VERTEX
  5
1D0
330
1CF
100
AcDbEntity
  8
\U+30EC\U+30A4\U+30E4\U+30FC 1
 62
   250
420
  2234388
370
     9
100
AcDbVertex
100
AcDb2dVertex
 10
819.064453125
 20
696.40576171875
 30
0.0
  0
VERTEX
  5
1D1
330
1CF
100
AcDbEntity
  8
\U+30EC\U+30A4\U+30E4\U+30FC 1
 62
   250
420
  2234388
370
     9
100
AcDbVertex
100
AcDb2dVertex
 10
819.064453125
 20
688.3330078125
 30
0.0
  0
SEQEND
  5
1D2
330
1CF
100
AcDbEntity
  8
\U+30EC\U+30A4\U+30E4\U+30FC 1
370
     9
  0
POLYLINE
  5
1D3
330
18C
100
AcDbEntity
  8
\U+30EC\U+30A4\U+30E4\U+30FC 1
 62
   250
420
  2234388
370
     9
100
AcDb2dPolyline
 66
     1
 10
0.0
 20
0.0
 30
0.0
  0
VERTEX
  5
1D4
330
1D3
100
AcDbEntity
  8
\U+30EC\U+30A4\U+30E4\U+30FC 1
 62
   250
420
  2234388
370
     9
100
AcDbVertex
100
AcDb2dVertex
 10
806.4560546875
 20
696.40576171875
 30
0.0
  0
VERTEX
  5
1D5
330
1D3
100
AcDbEntity
  8
\U+30EC\U+30A4\U+30E4\U+30FC 1
 62
   250
420
  2234388
370
     9
100
AcDbVertex
100
AcDb2dVertex
 10
806.4560546875
 20
619.7255859375
 30
0.0
  0
SEQEND
  5
1D6
330
1D3
100
AcDbEntity
  8
\U+30EC\U+30A4\U+30E4\U+30FC 1
370
     9
  0
POLYLINE
  5
1D7
330
18C
100
AcDbEntity
  8
\U+30EC\U+30A4\U+30E4\U+30FC 1
 62
   250
420
  2234388
370
     9
100
AcDb2dPolyline
 66
     1
 10
0.0
 20
0.0
 30
0.0
  0
VERTEX
  5
1D8
330
1D7
100
AcDbEntity
  8
\U+30EC\U+30A4\U+30E4\U+30FC 1
 62
   250
420
  2234388
370
     9
100
AcDbVertex
100
AcDb2dVertex
 10
816.79296875
 20
690.22314453125
 30
0.0
  0
VERTEX
  5
1D9
330
1D7
100
AcDbEntity
  8
\U+30EC\U+30A4\U+30E4\U+30FC 1
 62
   250
420
  2234388
370
     9
100
AcDbVertex
100
AcDb2dVertex
 10
816.79296875
 20
686.44384765625
 30
0.0
  0
SEQEND
  5
1DA
330
1D7
100
AcDbEntity
  8
\U+30EC\U+30A4\U+30E4\U+30FC 1
370
     9
  0
POLYLINE
  5
1DB
330
18C
100
AcDbEntity
  8
\U+30EC\U+30A4\U+30E4\U+30FC 1
 62
   250
420
  2234388
370
     9
100
AcDb2dPolyline
 66
     1
 10
0.0
 20
0.0
 30
0.0
  0
VERTEX
  5
1DC
330
1DB
100
AcDbEntity
  8
\U+30EC\U+30A4\U+30E4\U+30FC 1
 62
   250
420
  2234388
370
     9
100
AcDbVertex
100
AcDb2dVertex
 10
807.9658203125
 20
689.09130859375
 30
0.0
  0
VERTEX
  5
1DD
330
1DB
100
AcDbEntity
  8
\U+30EC\U+30A4\U+30E4\U+30FC 1
 62
   250
420
  2234388
370
     9
100
AcDbVertex
100
AcDb2dVertex
 10
813.1376953125
 20
689.09130859375
 30
0.0
  0
SEQEND
  5
1DE
330
1DB
100
AcDbEntity
  8
\U+30EC\U+30A4\U+30E4\U+30FC 1
370
     9
  0
POLYLINE
  5
1DF
330
18C
100
AcDbEntity
  8
\U+30EC\U+30A4\U+30E4\U+30FC 1
  6
AI-Linetype-3
 62
   250
420
  2234388
370
     9
100
AcDb2dPolyline
 66
     1
 10
0.0
 20
0.0
 30
0.0
  0
VERTEX
  5
1E0
330
1DF
100
AcDbEntity
  8
\U+30EC\U+30A4\U+30E4\U+30FC 1
  6
AI-Linetype-3
 62
   250
420
  2234388
370
     9
100
AcDbVertex
100
AcDb2dVertex
 10
814.14453125
 20
690.09912109375
 30
0.0
  0
VERTEX
  5
1E1
330
1DF
100
AcDbEntity
  8
\U+30EC\U+30A4\U+30E4\U+30FC 1
  6
AI-Linetype-3
 62
   250
420
  2234388
370
     9
100
AcDbVertex
100
AcDb2dVertex
 10
806.9560546875
 20
690.09912109375
 30
0.0
  0
SEQEND
  5
1E2
330
1DF
100
AcDbEntity
  8
\U+30EC\U+30A4\U+30E4\U+30FC 1
  6
AI-Linetype-3
370
     9
  0
POLYLINE
  5
1E4
330
18C
100
AcDbEntity
  8
\U+30EC\U+30A4\U+30E4\U+30FC 1
 62
   250
420
  2234388
370
     9
100
AcDb2dPolyline
 66
     1
 10
0.0
 20
0.0
 30
0.0
  0
VERTEX
  5
1E5
330
1E4
100
AcDbEntity
  8
\U+30EC\U+30A4\U+30E4\U+30FC 1
 62
   250
420
  2234388
370
     9
100
AcDbVertex
100
AcDb2dVertex
 10
819.064453125
 20
688.33251953125
 30
0.0
  0
VERTEX
  5
1E6
330
1E4
100
AcDbEntity
  8
\U+30EC\U+30A4\U+30E4\U+30FC 1
 62
   250
420
  2234388
370
     9
100
AcDbVertex
100
AcDb2dVertex
 10
821.712890625
 20
688.33251953125
 30
0.0
  0
SEQEND
  5
1E7
330
1E4
100
AcDbEntity
  8
\U+30EC\U+30A4\U+30E4\U+30FC 1
370
     9
  0
POLYLINE
  5
1E8
330
18C
100
AcDbEntity
  8
\U+30EC\U+30A4\U+30E4\U+30FC 1
 62
   250
420
  2234388
370
     9
100
AcDb2dPolyline
 66
     1
 10
0.0
 20
0.0
 30
0.0
  0
VERTEX
  5
1E9
330
1E8
100
AcDbEntity
  8
\U+30EC\U+30A4\U+30E4\U+30FC 1
 62
   250
420
  2234388
370
     9
100
AcDbVertex
100
AcDb2dVertex
 10
816.79296875
 20
690.22314453125
 30
0.0
  0
VERTEX
  5
1EA
330
1E8
100
AcDbEntity
  8
\U+30EC\U+30A4\U+30E4\U+30FC 1
 62
   250
420
  2234388
370
     9
100
AcDbVertex
100
AcDb2dVertex
 10
814.26953125
 20
690.22314453125
 30
0.0
  0
SEQEND
  5
1EB
330
1E8
100
AcDbEntity
  8
\U+30EC\U+30A4\U+30E4\U+30FC 1
370
     9
  0
POLYLINE
  5
1EC
330
18C
100
AcDbEntity
  8
\U+30EC\U+30A4\U+30E4\U+30FC 1
 62
   250
420
  2234388
370
     9
100
AcDb2dPolyline
 66
     1
 10
0.0
 20
0.0
 30
0.0
  0
VERTEX
  5
1ED
330
1EC
100
AcDbEntity
  8
\U+30EC\U+30A4\U+30E4\U+30FC 1
 62
   250
420
  2234388
370
     9
100
AcDbVertex
100
AcDb2dVertex
 10
819.064453125
 20
658.06591796875
 30
0.0
  0
VERTEX
  5
1EE
330
1EC
100
AcDbEntity
  8
\U+30EC\U+30A4\U+30E4\U+30FC 1
 62
   250
420
  2234388
370
     9
100
AcDbVertex
100
AcDb2dVertex
 10
819.064453125
 20
619.72607421875
 30
0.0
  0
SEQEND
  5
1EF
330
1EC
100
AcDbEntity
  8
\U+30EC\U+30A4\U+30E4\U+30FC 1
370
     9
  0
POLYLINE
  5
1F0
330
18C
100
AcDbEntity
  8
\U+30EC\U+30A4\U+30E4\U+30FC 1
 62
   250
420
  2234388
370
     9
100
AcDb2dPolyline
 66
     1
 10
0.0
 20
0.0
 30
0.0
  0
VERTEX
  5
1F1
330
1F0
100
AcDbEntity
  8
\U+30EC\U+30A4\U+30E4\U+30FC 1
 62
   250
420
  2234388
370
     9
100
AcDbVertex
100
AcDb2dVertex
 10
807.2109375
 20
697.16162109375
 30
0.0
  0
VERTEX
  5
1F2
330
1F0
100
AcDbEntity
  8
\U+30EC\U+30A4\U+30E4\U+30FC 1
 62
   250
420
  2234388
370
     9
100
AcDbVertex
100
AcDb2dVertex
 10
806.4560546875
 20
696.40576171875
 30
0.0
  0
SEQEND
  5
1F3
330
1F0
100
AcDbEntity
  8
\U+30EC\U+30A4\U+30E4\U+30FC 1
370
     9
  0
POLYLINE
  5
1F4
330
18C
100
AcDbEntity
  8
\U+30EC\U+30A4\U+30E4\U+30FC 1
 62
   250
420
  2234388
370
     9
100
AcDb2dPolyline
 66
     1
 10
0.0
 20
0.0
 30
0.0
  0
VERTEX
  5
1F5
330
1F4
100
AcDbEntity
  8
\U+30EC\U+30A4\U+30E4\U+30FC 1
 62
   250
420
  2234388
370
     9
100
AcDbVertex
100
AcDb2dVertex
 10
819.064453125
 20
696.40576171875
 30
0.0
  0
VERTEX
  5
1F6
330
1F4
100
AcDbEntity
  8
\U+30EC\U+30A4\U+30E4\U+30FC 1
 62
   250
420
  2234388
370
     9
100
AcDbVertex
100
AcDb2dVertex
 10
818.3095703125
 20
697.16162109375
 30
0.0
  0
SEQEND
  5
1F7
330
1F4
100
AcDbEntity
  8
\U+30EC\U+30A4\U+30E4\U+30FC 1
370
     9
  0
POLYLINE
  5
1F8
330
18C
100
AcDbEntity
  8
\U+30EC\U+30A4\U+30E4\U+30FC 1
 62
   250
420
  2234388
370
     9
100
AcDb2dPolyline
 66
     1
 10
0.0
 20
0.0
 30
0.0
  0
VERTEX
  5
1F9
330
1F8
100
AcDbEntity
  8
\U+30EC\U+30A4\U+30E4\U+30FC 1
 62
   250
420
  2234388
370
     9
100
AcDbVertex
100
AcDb2dVertex
 10
818.3095703125
 20
619.11572265625
 30
0.0
  0
VERTEX
  5
1FA
330
1F8
100
AcDbEntity
  8
\U+30EC\U+30A4\U+30E4\U+30FC 1
 62
   250
420
  2234388
370
     9
100
AcDbVertex
100
AcDb2dVertex
 10
807.2109375
 20
619.11572265625
 30
0.0
  0
SEQEND
  5
1FB
330
1F8
100
AcDbEntity
  8
\U+30EC\U+30A4\U+30E4\U+30FC 1
370
     9
  0
POLYLINE
  5
1FC
330
18C
100
AcDbEntity
  8
\U+30EC\U+30A4\U+30E4\U+30FC 1
 62
   250
420
  2234388
370
     9
100
AcDb2dPolyline
 66
     1
 10
0.0
 20
0.0
 30
0.0
  0
VERTEX
  5
1FD
330
1FC
100
AcDbEntity
  8
\U+30EC\U+30A4\U+30E4\U+30FC 1
 62
   250
420
  2234388
370
     9
100
AcDbVertex
100
AcDb2dVertex
 10
818.3095703125
 20
619.41748046875
 30
0.0
  0
VERTEX
  5
1FE
330
1FC
100
AcDbEntity
  8
\U+30EC\U+30A4\U+30E4\U+30FC 1
 62
   250
420
  2234388
370
     9
100
AcDbVertex
100
AcDb2dVertex
 10
807.2109375
 20
619.41748046875
 30
0.0
  0
SEQEND
  5
1FF
330
1FC
100
AcDbEntity
  8
\U+30EC\U+30A4\U+30E4\U+30FC 1
370
     9
  0
POLYLINE
  5
200
330
18C
100
AcDbEntity
  8
\U+30EC\U+30A4\U+30E4\U+30FC 1
 62
   250
420
  2234388
370
     9
100
AcDb2dPolyline
 66
     1
 10
0.0
 20
0.0
 30
0.0
  0
VERTEX
  5
201
330
200
100
AcDbEntity
  8
\U+30EC\U+30A4\U+30E4\U+30FC 1
 62
   250
420
  2234388
370
     9
100
AcDbVertex
100
AcDb2dVertex
 10
818.3095703125
 20
619.87451171875
 30
0.0
  0
VERTEX
  5
202
330
200
100
AcDbEntity
  8
\U+30EC\U+30A4\U+30E4\U+30FC 1
 62
   250
420
  2234388
370
     9
100
AcDbVertex
100
AcDb2dVertex
 10
807.2109375
 20
619.87451171875
 30
0.0
  0
SEQEND
  5
203
330
200
100
AcDbEntity
  8
\U+30EC\U+30A4\U+30E4\U+30FC 1
370
     9
  0
POLYLINE
  5
204
330
18C
100
AcDbEntity
  8
\U+30EC\U+30A4\U+30E4\U+30FC 1
 62
   250
420
  2234388
370
     9
100
AcDb2dPolyline
 66
     1
 10
0.0
 20
0.0
 30
0.0
  0
VERTEX
  5
205
330
204
100
AcDbEntity
  8
\U+30EC\U+30A4\U+30E4\U+30FC 1
 62
   250
420
  2234388
370
     9
100
AcDbVertex
100
AcDb2dVertex
 10
818.3095703125
 20
620.49658203125
 30
0.0
  0
VERTEX
  5
206
330
204
100
AcDbEntity
  8
\U+30EC\U+30A4\U+30E4\U+30FC 1
 62
   250
420
  2234388
370
     9
100
AcDbVertex
100
AcDb2dVertex
 10
807.2109375
 20
620.49658203125
 30
0.0
  0
SEQEND
  5
207
330
204
100
AcDbEntity
  8
\U+30EC\U+30A4\U+30E4\U+30FC 1
370
     9
  0
POLYLINE
  5
208
330
18C
100
AcDbEntity
  8
\U+30EC\U+30A4\U+30E4\U+30FC 1
 62
   250
420
  2234388
370
     9
100
AcDb2dPolyline
 66
     1
 10
0.0
 20
0.0
 30
0.0
  0
VERTEX
  5
209
330
208
100
AcDbEntity
  8
\U+30EC\U+30A4\U+30E4\U+30FC 1
 62
   250
420
  2234388
370
     9
100
AcDbVertex
100
AcDb2dVertex
 10
818.3095703125
 20
621.27197265625
 30
0.0
  0
VERTEX
  5
20A
330
208
100
AcDbEntity
  8
\U+30EC\U+30A4\U+30E4\U+30FC 1
 62
   250
420
  2234388
370
     9
100
AcDbVertex
100
AcDb2dVertex
 10
807.2109375
 20
621.27197265625
 30
0.0
  0
SEQEND
  5
20B
330
208
100
AcDbEntity
  8
\U+30EC\U+30A4\U+30E4\U+30FC 1
370
     9
  0
POLYLINE
  5
20C
330
18C
100
AcDbEntity
  8
\U+30EC\U+30A4\U+30E4\U+30FC 1
 62
   250
420
  2234388
370
     9
100
AcDb2dPolyline
 66
     1
 10
0.0
 20
0.0
 30
0.0
  0
VERTEX
  5
20D
330
20C
100
AcDbEntity
  8
\U+30EC\U+30A4\U+30E4\U+30FC 1
 62
   250
420
  2234388
370
     9
100
AcDbVertex
100
AcDb2dVertex
 10
818.3095703125
 20
622.20166015625
 30
0.0
  0
VERTEX
  5
20E
330
20C
100
AcDbEntity
  8
\U+30EC\U+30A4\U+30E4\U+30FC 1
 62
   250
420
  2234388
370
     9
100
AcDbVertex
100
AcDb2dVertex
 10
807.2109375
 20
622.20166015625
 30
0.0
  0
SEQEND
  5
20F
330
20C
100
AcDbEntity
  8
\U+30EC\U+30A4\U+30E4\U+30FC 1
370
     9
  0
POLYLINE
  5
210
330
18C
100
AcDbEntity
  8
\U+30EC\U+30A4\U+30E4\U+30FC 1
 62
   250
420
  2234388
370
     9
100
AcDb2dPolyline
 66
     1
 10
0.0
 20
0.0
 30
0.0
  0
VERTEX
  5
211
330
210
100
AcDbEntity
  8
\U+30EC\U+30A4\U+30E4\U+30FC 1
 62
   250
420
  2234388
370
     9
100
AcDbVertex
100
AcDb2dVertex
 10
818.3095703125
 20
623.27783203125
 30
0.0
  0
VERTEX
  5
212
330
210
100
AcDbEntity
  8
\U+30EC\U+30A4\U+30E4\U+30FC 1
 62
   250
420
  2234388
370
     9
100
AcDbVertex
100
AcDb2dVertex
 10
807.2109375
 20
623.27783203125
 30
0.0
  0
SEQEND
  5
213
330
210
100
AcDbEntity
  8
\U+30EC\U+30A4\U+30E4\U+30FC 1
370
     9
  0
POLYLINE
  5
214
330
18C
100
AcDbEntity
  8
\U+30EC\U+30A4\U+30E4\U+30FC 1
 62
   250
420
  2234388
370
     9
100
AcDb2dPolyline
 66
     1
 10
0.0
 20
0.0
 30
0.0
  0
VERTEX
  5
215
330
214
100
AcDbEntity
  8
\U+30EC\U+30A4\U+30E4\U+30FC 1
 62
   250
420
  2234388
370
     9
100
AcDbVertex
100
AcDb2dVertex
 10
818.3095703125
 20
624.50439453125
 30
0.0
  0
VERTEX
  5
216
330
214
100
AcDbEntity
  8
\U+30EC\U+30A4\U+30E4\U+30FC 1
 62
   250
420
  2234388
370
     9
100
AcDbVertex
100
AcDb2dVertex
 10
807.2109375
 20
624.50439453125
 30
0.0
  0
SEQEND
  5
217
330
214
100
AcDbEntity
  8
\U+30EC\U+30A4\U+30E4\U+30FC 1
370
     9
  0
POLYLINE
  5
218
330
18C
100
AcDbEntity
  8
\U+30EC\U+30A4\U+30E4\U+30FC 1
 62
   250
420
  2234388
370
     9
100
AcDb2dPolyline
 66
     1
 10
0.0
 20
0.0
 30
0.0
  0
VERTEX
  5
219
330
218
100
AcDbEntity
  8
\U+30EC\U+30A4\U+30E4\U+30FC 1
 62
   250
420
  2234388
370
     9
100
AcDbVertex
100
AcDb2dVertex
 10
818.3095703125
 20
625.86572265625
 30
0.0
  0
VERTEX
  5
21A
330
218
100
AcDbEntity
  8
\U+30EC\U+30A4\U+30E4\U+30FC 1
 62
   250
420
  2234388
370
     9
100
AcDbVertex
100
AcDb2dVertex
 10
807.2109375
 20
625.86572265625
 30
0.0
  0
SEQEND
  5
21B
330
218
100
AcDbEntity
  8
\U+30EC\U+30A4\U+30E4\U+30FC 1
370
     9
  0
POLYLINE
  5
21C
330
18C
100
AcDbEntity
  8
\U+30EC\U+30A4\U+30E4\U+30FC 1
 62
   250
420
  2234388
370
     9
100
AcDb2dPolyline
 66
     1
 10
0.0
 20
0.0
 30
0.0
  0
VERTEX
  5
21D
330
21C
100
AcDbEntity
  8
\U+30EC\U+30A4\U+30E4\U+30FC 1
 62
   250
420
  2234388
370
     9
100
AcDbVertex
100
AcDb2dVertex
 10
818.3095703125
 20
627.36181640625
 30
0.0
  0
VERTEX
  5
21E
330
21C
100
AcDbEntity
  8
\U+30EC\U+30A4\U+30E4\U+30FC 1
 62
   250
420
  2234388
370
     9
100
AcDbVertex
100
AcDb2dVertex
 10
807.2109375
 20
627.36181640625
 30
0.0
  0
SEQEND
  5
21F
330
21C
100
AcDbEntity
  8
\U+30EC\U+30A4\U+30E4\U+30FC 1
370
     9
  0
POLYLINE
  5
220
330
18C
100
AcDbEntity
  8
\U+30EC\U+30A4\U+30E4\U+30FC 1
 62
   250
420
  2234388
370
     9
100
AcDb2dPolyline
 66
     1
 10
0.0
 20
0.0
 30
0.0
  0
VERTEX
  5
221
330
220
100
AcDbEntity
  8
\U+30EC\U+30A4\U+30E4\U+30FC 1
 62
   250
420
  2234388
370
     9
100
AcDbVertex
100
AcDb2dVertex
 10
818.3095703125
 20
628.98583984375
 30
0.0
  0
VERTEX
  5
222
330
220
100
AcDbEntity
  8
\U+30EC\U+30A4\U+30E4\U+30FC 1
 62
   250
420
  2234388
370
     9
100
AcDbVertex
100
AcDb2dVertex
 10
807.2109375
 20
628.98583984375
 30
0.0
  0
SEQEND
  5
223
330
220
100
AcDbEntity
  8
\U+30EC\U+30A4\U+30E4\U+30FC 1
370
     9
  0
POLYLINE
  5
224
330
18C
100
AcDbEntity
  8
\U+30EC\U+30A4\U+30E4\U+30FC 1
 62
   250
420
  2234388
370
     9
100
AcDb2dPolyline
 66
     1
 10
0.0
 20
0.0
 30
0.0
  0
VERTEX
  5
225
330
224
100
AcDbEntity
  8
\U+30EC\U+30A4\U+30E4\U+30FC 1
 62
   250
420
  2234388
370
     9
100
AcDbVertex
100
AcDb2dVertex
 10
818.3095703125
 20
630.73193359375
 30
0.0
  0
VERTEX
  5
226
330
224
100
AcDbEntity
  8
\U+30EC\U+30A4\U+30E4\U+30FC 1
 62
   250
420
  2234388
370
     9
100
AcDbVertex
100
AcDb2dVertex
 10
807.2109375
 20
630.73193359375
 30
0.0
  0
SEQEND
  5
227
330
224
100
AcDbEntity
  8
\U+30EC\U+30A4\U+30E4\U+30FC 1
370
     9
  0
POLYLINE
  5
228
330
18C
100
AcDbEntity
  8
\U+30EC\U+30A4\U+30E4\U+30FC 1
 62
   250
420
  2234388
370
     9
100
AcDb2dPolyline
 66
     1
 10
0.0
 20
0.0
 30
0.0
  0
VERTEX
  5
229
330
228
100
AcDbEntity
  8
\U+30EC\U+30A4\U+30E4\U+30FC 1
 62
   250
420
  2234388
370
     9
100
AcDbVertex
100
AcDb2dVertex
 10
818.3095703125
 20
632.59228515625
 30
0.0
  0
VERTEX
  5
22A
330
228
100
AcDbEntity
  8
\U+30EC\U+30A4\U+30E4\U+30FC 1
 62
   250
420
  2234388
370
     9
100
AcDbVertex
100
AcDb2dVertex
 10
807.2109375
 20
632.59228515625
 30
0.0
  0
SEQEND
  5
22B
330
228
100
AcDbEntity
  8
\U+30EC\U+30A4\U+30E4\U+30FC 1
370
     9
  0
POLYLINE
  5
22C
330
18C
100
AcDbEntity
  8
\U+30EC\U+30A4\U+30E4\U+30FC 1
 62
   250
420
  2234388
370
     9
100
AcDb2dPolyline
 66
     1
 10
0.0
 20
0.0
 30
0.0
  0
VERTEX
  5
22D
330
22C
100
AcDbEntity
  8
\U+30EC\U+30A4\U+30E4\U+30FC 1
 62
   250
420
  2234388
370
     9
100
AcDbVertex
100
AcDb2dVertex
 10
818.3095703125
 20
634.55419921875
 30
0.0
  0
VERTEX
  5
22E
330
22C
100
AcDbEntity
  8
\U+30EC\U+30A4\U+30E4\U+30FC 1
 62
   250
420
  2234388
370
     9
100
AcDbVertex
100
AcDb2dVertex
 10
807.2109375
 20
634.55419921875
 30
0.0
  0
SEQEND
  5
22F
330
22C
100
AcDbEntity
  8
\U+30EC\U+30A4\U+30E4\U+30FC 1
370
     9
  0
POLYLINE
  5
230
330
18C
100
AcDbEntity
  8
\U+30EC\U+30A4\U+30E4\U+30FC 1
 62
   250
420
  2234388
370
     9
100
AcDb2dPolyline
 66
     1
 10
0.0
 20
0.0
 30
0.0
  0
VERTEX
  5
231
330
230
100
AcDbEntity
  8
\U+30EC\U+30A4\U+30E4\U+30FC 1
 62
   250
420
  2234388
370
     9
100
AcDbVertex
100
AcDb2dVertex
 10
818.3095703125
 20
636.61962890625
 30
0.0
  0
VERTEX
  5
232
330
230
100
AcDbEntity
  8
\U+30EC\U+30A4\U+30E4\U+30FC 1
 62
   250
420
  2234388
370
     9
100
AcDbVertex
100
AcDb2dVertex
 10
807.2109375
 20
636.61962890625
 30
0.0
  0
SEQEND
  5
233
330
230
100
AcDbEntity
  8
\U+30EC\U+30A4\U+30E4\U+30FC 1
370
     9
  0
POLYLINE
  5
234
330
18C
100
AcDbEntity
  8
\U+30EC\U+30A4\U+30E4\U+30FC 1
 62
   250
420
  2234388
370
     9
100
AcDb2dPolyline
 66
     1
 10
0.0
 20
0.0
 30
0.0
  0
VERTEX
  5
235
330
234
100
AcDbEntity
  8
\U+30EC\U+30A4\U+30E4\U+30FC 1
 62
   250
420
  2234388
370
     9
100
AcDbVertex
100
AcDb2dVertex
 10
818.3095703125
 20
638.77001953125
 30
0.0
  0
VERTEX
  5
236
330
234
100
AcDbEntity
  8
\U+30EC\U+30A4\U+30E4\U+30FC 1
 62
   250
420
  2234388
370
     9
100
AcDbVertex
100
AcDb2dVertex
 10
807.2109375
 20
638.77001953125
 30
0.0
  0
SEQEND
  5
237
330
234
100
AcDbEntity
  8
\U+30EC\U+30A4\U+30E4\U+30FC 1
370
     9
  0
POLYLINE
  5
238
330
18C
100
AcDbEntity
  8
\U+30EC\U+30A4\U+30E4\U+30FC 1
 62
   250
420
  2234388
370
     9
100
AcDb2dPolyline
 66
     1
 10
0.0
 20
0.0
 30
0.0
  0
VERTEX
  5
239
330
238
100
AcDbEntity
  8
\U+30EC\U+30A4\U+30E4\U+30FC 1
 62
   250
420
  2234388
370
     9
100
AcDbVertex
100
AcDb2dVertex
 10
818.3095703125
 20
641.00146484375
 30
0.0
  0
VERTEX
  5
23A
330
238
100
AcDbEntity
  8
\U+30EC\U+30A4\U+30E4\U+30FC 1
 62
   250
420
  2234388
370
     9
100
AcDbVertex
100
AcDb2dVertex
 10
807.2109375
 20
641.00146484375
 30
0.0
  0
SEQEND
  5
23B
330
238
100
AcDbEntity
  8
\U+30EC\U+30A4\U+30E4\U+30FC 1
370
     9
  0
POLYLINE
  5
23C
330
18C
100
AcDbEntity
  8
\U+30EC\U+30A4\U+30E4\U+30FC 1
 62
   250
420
  2234388
370
     9
100
AcDb2dPolyline
 66
     1
 10
0.0
 20
0.0
 30
0.0
  0
VERTEX
  5
23D
330
23C
100
AcDbEntity
  8
\U+30EC\U+30A4\U+30E4\U+30FC 1
 62
   250
420
  2234388
370
     9
100
AcDbVertex
100
AcDb2dVertex
 10
818.3095703125
 20
643.30615234375
 30
0.0
  0
VERTEX
  5
23E
330
23C
100
AcDbEntity
  8
\U+30EC\U+30A4\U+30E4\U+30FC 1
 62
   250
420
  2234388
370
     9
100
AcDbVertex
100
AcDb2dVertex
 10
807.2109375
 20
643.30615234375
 30
0.0
  0
SEQEND
  5
23F
330
23C
100
AcDbEntity
  8
\U+30EC\U+30A4\U+30E4\U+30FC 1
370
     9
  0
POLYLINE
  5
240
330
18C
100
AcDbEntity
  8
\U+30EC\U+30A4\U+30E4\U+30FC 1
 62
   250
420
  2234388
370
     9
100
AcDb2dPolyline
 66
     1
 10
0.0
 20
0.0
 30
0.0
  0
VERTEX
  5
241
330
240
100
AcDbEntity
  8
\U+30EC\U+30A4\U+30E4\U+30FC 1
 62
   250
420
  2234388
370
     9
100
AcDbVertex
100
AcDb2dVertex
 10
818.3095703125
 20
645.67138671875
 30
0.0
  0
VERTEX
  5
242
330
240
100
AcDbEntity
  8
\U+30EC\U+30A4\U+30E4\U+30FC 1
 62
   250
420
  2234388
370
     9
100
AcDbVertex
100
AcDb2dVertex
 10
807.2109375
 20
645.67138671875
 30
0.0
  0
SEQEND
  5
243
330
240
100
AcDbEntity
  8
\U+30EC\U+30A4\U+30E4\U+30FC 1
370
     9
  0
POLYLINE
  5
244
330
18C
100
AcDbEntity
  8
\U+30EC\U+30A4\U+30E4\U+30FC 1
 62
   250
420
  2234388
370
     9
100
AcDb2dPolyline
 66
     1
 10
0.0
 20
0.0
 30
0.0
  0
VERTEX
  5
245
330
244
100
AcDbEntity
  8
\U+30EC\U+30A4\U+30E4\U+30FC 1
 62
   250
420
  2234388
370
     9
100
AcDbVertex
100
AcDb2dVertex
 10
807.2109375
 20
647.93603515625
 30
0.0
  0
VERTEX
  5
246
330
244
100
AcDbEntity
  8
\U+30EC\U+30A4\U+30E4\U+30FC 1
 62
   250
420
  2234388
370
     9
100
AcDbVertex
100
AcDb2dVertex
 10
818.3095703125
 20
647.93603515625
 30
0.0
  0
SEQEND
  5
247
330
244
100
AcDbEntity
  8
\U+30EC\U+30A4\U+30E4\U+30FC 1
370
     9
  0
POLYLINE
  5
248
330
18C
100
AcDbEntity
  8
\U+30EC\U+30A4\U+30E4\U+30FC 1
 62
   250
420
  2234388
370
     9
100
AcDb2dPolyline
 66
     1
 10
0.0
 20
0.0
 30
0.0
  0
VERTEX
  5
249
330
248
100
AcDbEntity
  8
\U+30EC\U+30A4\U+30E4\U+30FC 1
 62
   250
420
  2234388
370
     9
100
AcDbVertex
100
AcDb2dVertex
 10
818.3095703125
 20
650.54638671875
 30
0.0
  0
VERTEX
  5
24A
330
248
100
AcDbEntity
  8
\U+30EC\U+30A4\U+30E4\U+30FC 1
 62
   250
420
  2234388
370
     9
100
AcDbVertex
100
AcDb2dVertex
 10
807.2109375
 20
650.54638671875
 30
0.0
  0
SEQEND
  5
24B
330
248
100
AcDbEntity
  8
\U+30EC\U+30A4\U+30E4\U+30FC 1
370
     9
  0
POLYLINE
  5
24C
330
18C
100
AcDbEntity
  8
\U+30EC\U+30A4\U+30E4\U+30FC 1
 62
   250
420
  2234388
370
     9
100
AcDb2dPolyline
 66
     1
 10
0.0
 20
0.0
 30
0.0
  0
VERTEX
  5
24D
330
24C
100
AcDbEntity
  8
\U+30EC\U+30A4\U+30E4\U+30FC 1
 62
   250
420
  2234388
370
     9
100
AcDbVertex
100
AcDb2dVertex
 10
818.3095703125
 20
653.00244140625
 30
0.0
  0
VERTEX
  5
24E
330
24C
100
AcDbEntity
  8
\U+30EC\U+30A4\U+30E4\U+30FC 1
 62
   250
420
  2234388
370
     9
100
AcDbVertex
100
AcDb2dVertex
 10
807.2109375
 20
653.00244140625
 30
0.0
  0
SEQEND
  5
24F
330
24C
100
AcDbEntity
  8
\U+30EC\U+30A4\U+30E4\U+30FC 1
370
     9
  0
POLYLINE
  5
250
330
18C
100
AcDbEntity
  8
\U+30EC\U+30A4\U+30E4\U+30FC 1
 62
   250
420
  2234388
370
     9
100
AcDb2dPolyline
 66
     1
 10
0.0
 20
0.0
 30
0.0
  0
VERTEX
  5
251
330
250
100
AcDbEntity
  8
\U+30EC\U+30A4\U+30E4\U+30FC 1
 62
   250
420
  2234388
370
     9
100
AcDbVertex
100
AcDb2dVertex
 10
818.3095703125
 20
655.54443359375
 30
0.0
  0
VERTEX
  5
252
330
250
100
AcDbEntity
  8
\U+30EC\U+30A4\U+30E4\U+30FC 1
 62
   250
420
  2234388
370
     9
100
AcDbVertex
100
AcDb2dVertex
 10
807.2109375
 20
655.54443359375
 30
0.0
  0
SEQEND
  5
253
330
250
100
AcDbEntity
  8
\U+30EC\U+30A4\U+30E4\U+30FC 1
370
     9
  0
POLYLINE
  5
254
330
18C
100
AcDbEntity
  8
\U+30EC\U+30A4\U+30E4\U+30FC 1
 62
   250
420
  2234388
370
     9
100
AcDb2dPolyline
 66
     1
 10
0.0
 20
0.0
 30
0.0
  0
VERTEX
  5
255
330
254
100
AcDbEntity
  8
\U+30EC\U+30A4\U+30E4\U+30FC 1
 62
   250
420
  2234388
370
     9
100
AcDbVertex
100
AcDb2dVertex
 10
806.4560546875
 20
619.72607421875
 30
0.0
  0
VERTEX
  5
256
330
254
100
AcDbEntity
  8
\U+30EC\U+30A4\U+30E4\U+30FC 1
 62
   250
420
  2234388
370
     9
100
AcDbVertex
100
AcDb2dVertex
 10
807.2109375
 20
618.97021484375
 30
0.0
  0
SEQEND
  5
257
330
254
100
AcDbEntity
  8
\U+30EC\U+30A4\U+30E4\U+30FC 1
370
     9
  0
POLYLINE
  5
258
330
18C
100
AcDbEntity
  8
\U+30EC\U+30A4\U+30E4\U+30FC 1
 62
   250
420
  2234388
370
     9
100
AcDb2dPolyline
 66
     1
 10
0.0
 20
0.0
 30
0.0
  0
VERTEX
  5
259
330
258
100
AcDbEntity
  8
\U+30EC\U+30A4\U+30E4\U+30FC 1
 62
   250
420
  2234388
370
     9
100
AcDbVertex
100
AcDb2dVertex
 10
818.3095703125
 20
618.97021484375
 30
0.0
  0
VERTEX
  5
25A
330
258
100
AcDbEntity
  8
\U+30EC\U+30A4\U+30E4\U+30FC 1
 62
   250
420
  2234388
370
     9
100
AcDbVertex
100
AcDb2dVertex
 10
819.064453125
 20
619.72607421875
 30
0.0
  0
SEQEND
  5
25B
330
258
100
AcDbEntity
  8
\U+30EC\U+30A4\U+30E4\U+30FC 1
370
     9
  0
POLYLINE
  5
25C
330
18C
100
AcDbEntity
  8
\U+30EC\U+30A4\U+30E4\U+30FC 1
 62
   250
420
  2234388
370
     9
100
AcDb2dPolyline
 66
     1
 10
0.0
 20
0.0
 30
0.0
  0
VERTEX
  5
25D
330
25C
100
AcDbEntity
  8
\U+30EC\U+30A4\U+30E4\U+30FC 1
 62
   250
420
  2234388
370
     9
100
AcDbVertex
100
AcDb2dVertex
 10
807.2109375
 20
658.06591796875
 30
0.0
  0
VERTEX
  5
25E
330
25C
100
AcDbEntity
  8
\U+30EC\U+30A4\U+30E4\U+30FC 1
 62
   250
420
  2234388
370
     9
100
AcDbVertex
100
AcDb2dVertex
 10
807.2109375
 20
618.9697265625
 30
0.0
  0
SEQEND
  5
25F
330
25C
100
AcDbEntity
  8
\U+30EC\U+30A4\U+30E4\U+30FC 1
370
     9
  0
POLYLINE
  5
260
330
18C
100
AcDbEntity
  8
\U+30EC\U+30A4\U+30E4\U+30FC 1
 62
   250
420
  2234388
370
     9
100
AcDb2dPolyline
 66
     1
 10
0.0
 20
0.0
 30
0.0
  0
VERTEX
  5
261
330
260
100
AcDbEntity
  8
\U+30EC\U+30A4\U+30E4\U+30FC 1
 62
   250
420
  2234388
370
     9
100
AcDbVertex
100
AcDb2dVertex
 10
818.3095703125
 20
618.97021484375
 30
0.0
  0
VERTEX
  5
262
330
260
100
AcDbEntity
  8
\U+30EC\U+30A4\U+30E4\U+30FC 1
 62
   250
420
  2234388
370
     9
100
AcDbVertex
100
AcDb2dVertex
 10
818.3095703125
 20
658.06640625
 30
0.0
  0
SEQEND
  5
263
330
260
100
AcDbEntity
  8
\U+30EC\U+30A4\U+30E4\U+30FC 1
370
     9
  0
POLYLINE
  5
264
330
18C
100
AcDbEntity
  8
\U+30EC\U+30A4\U+30E4\U+30FC 1
 62
   250
420
  2234388
370
     9
100
AcDb2dPolyline
 66
     1
 10
0.0
 20
0.0
 30
0.0
  0
VERTEX
  5
265
330
264
100
AcDbEntity
  8
\U+30EC\U+30A4\U+30E4\U+30FC 1
 62
   250
420
  2234388
370
     9
100
AcDbVertex
100
AcDb2dVertex
 10
816.79296875
 20
686.44384765625
 30
0.0
  0
VERTEX
  5
266
330
264
100
AcDbEntity
  8
\U+30EC\U+30A4\U+30E4\U+30FC 1
 62
   250
420
  2234388
370
     9
100
AcDbVertex
100
AcDb2dVertex
 10
816.79296875
 20
658.06591796875
 30
0.0
  0
SEQEND
  5
267
330
264
100
AcDbEntity
  8
\U+30EC\U+30A4\U+30E4\U+30FC 1
370
     9
  0
POLYLINE
  5
268
330
18C
100
AcDbEntity
  8
\U+30EC\U+30A4\U+30E4\U+30FC 1
 62
   250
420
  2234388
370
     9
100
AcDb2dPolyline
 66
     1
 10
0.0
 20
0.0
 30
0.0
  0
VERTEX
  5
269
330
268
100
AcDbEntity
  8
\U+30EC\U+30A4\U+30E4\U+30FC 1
 62
   250
420
  2234388
370
     9
100
AcDbVertex
100
AcDb2dVertex
 10
814.26953125
 20
658.06591796875
 30
0.0
  0
VERTEX
  5
26A
330
268
100
AcDbEntity
  8
\U+30EC\U+30A4\U+30E4\U+30FC 1
 62
   250
420
  2234388
370
     9
100
AcDbVertex
100
AcDb2dVertex
 10
814.26953125
 20
690.22265625
 30
0.0
  0
SEQEND
  5
26B
330
268
100
AcDbEntity
  8
\U+30EC\U+30A4\U+30E4\U+30FC 1
370
     9
  0
POLYLINE
  5
26C
330
18C
100
AcDbEntity
  8
\U+30EC\U+30A4\U+30E4\U+30FC 1
  6
AI-Linetype-4
 62
   250
420
  2234388
370
     9
100
AcDb2dPolyline
 66
     1
 10
0.0
 20
0.0
 30
0.0
  0
VERTEX
  5
26D
330
26C
100
AcDbEntity
  8
\U+30EC\U+30A4\U+30E4\U+30FC 1
  6
AI-Linetype-4
 62
   250
420
  2234388
370
     9
100
AcDbVertex
100
AcDb2dVertex
 10
828.3955078125
 20
689.09130859375
 30
0.0
  0
VERTEX
  5
26E
330
26C
100
AcDbEntity
  8
\U+30EC\U+30A4\U+30E4\U+30FC 1
  6
AI-Linetype-4
 62
   250
420
  2234388
370
     9
100
AcDbVertex
100
AcDb2dVertex
 10
822.4677734375
 20
689.09130859375
 30
0.0
  0
SEQEND
  5
26F
330
26C
100
AcDbEntity
  8
\U+30EC\U+30A4\U+30E4\U+30FC 1
  6
AI-Linetype-4
370
     9
  0
POLYLINE
  5
271
330
18C
100
AcDbEntity
  8
\U+30EC\U+30A4\U+30E4\U+30FC 1
 62
   250
420
  2234388
370
     9
100
AcDb2dPolyline
 66
     1
 10
0.0
 20
0.0
 30
0.0
  0
VERTEX
  5
272
330
271
100
AcDbEntity
  8
\U+30EC\U+30A4\U+30E4\U+30FC 1
 62
   250
420
  2234388
370
     9
100
AcDbVertex
100
AcDb2dVertex
 10
827.384765625
 20
626.03271484375
 30
0.0
  0
VERTEX
  5
273
330
271
100
AcDbEntity
  8
\U+30EC\U+30A4\U+30E4\U+30FC 1
 62
   250
420
  2234388
370
     9
100
AcDbVertex
100
AcDb2dVertex
 10
823.478515625
 20
626.03271484375
 30
0.0
  0
SEQEND
  5
274
330
271
100
AcDbEntity
  8
\U+30EC\U+30A4\U+30E4\U+30FC 1
370
     9
  0
POLYLINE
  5
275
330
18C
100
AcDbEntity
  8
\U+30EC\U+30A4\U+30E4\U+30FC 1
  6
AI-Linetype-5
 62
   250
420
  2234388
370
     9
100
AcDb2dPolyline
 66
     1
 10
0.0
 20
0.0
 30
0.0
  0
VERTEX
  5
276
330
275
100
AcDbEntity
  8
\U+30EC\U+30A4\U+30E4\U+30FC 1
  6
AI-Linetype-5
 62
   250
420
  2234388
370
     9
100
AcDbVertex
100
AcDb2dVertex
 10
828.3955078125
 20
627.03857421875
 30
0.0
  0
VERTEX
  5
277
330
275
100
AcDbEntity
  8
\U+30EC\U+30A4\U+30E4\U+30FC 1
  6
AI-Linetype-5
 62
   250
420
  2234388
370
     9
100
AcDbVertex
100
AcDb2dVertex
 10
822.4677734375
 20
627.03857421875
 30
0.0
  0
SEQEND
  5
278
330
275
100
AcDbEntity
  8
\U+30EC\U+30A4\U+30E4\U+30FC 1
  6
AI-Linetype-5
370
     9
  0
POLYLINE
  5
27A
330
18C
100
AcDbEntity
  8
\U+30EC\U+30A4\U+30E4\U+30FC 1
 62
   250
420
  2234388
370
     9
100
AcDb2dPolyline
 66
     1
 10
0.0
 20
0.0
 30
0.0
  0
VERTEX
  5
27B
330
27A
100
AcDbEntity
  8
\U+30EC\U+30A4\U+30E4\U+30FC 1
 62
   250
420
  2234388
370
     9
100
AcDbVertex
100
AcDb2dVertex
 10
819.064453125
 20
627.79736328125
 30
0.0
  0
VERTEX
  5
27C
330
27A
100
AcDbEntity
  8
\U+30EC\U+30A4\U+30E4\U+30FC 1
 62
   250
420
  2234388
370
     9
100
AcDbVertex
100
AcDb2dVertex
 10
821.712890625
 20
627.79736328125
 30
0.0
  0
SEQEND
  5
27D
330
27A
100
AcDbEntity
  8
\U+30EC\U+30A4\U+30E4\U+30FC 1
370
     9
  0
POLYLINE
  5
27E
330
18C
100
AcDbEntity
  8
\U+30EC\U+30A4\U+30E4\U+30FC 1
 62
   250
420
  2234388
370
     9
100
AcDb2dPolyline
 66
     1
 10
0.0
 20
0.0
 30
0.0
  0
VERTEX
  5
27F
330
27E
100
AcDbEntity
  8
\U+30EC\U+30A4\U+30E4\U+30FC 1
 62
   250
420
  2234388
370
     9
100
AcDbVertex
100
AcDb2dVertex
 10
821.712890625
 20
658.06591796875
 30
0.0
  0
VERTEX
  5
280
330
27E
100
AcDbEntity
  8
\U+30EC\U+30A4\U+30E4\U+30FC 1
 62
   250
420
  2234388
370
     9
100
AcDbVertex
100
AcDb2dVertex
 10
821.712890625
 20
627.796875
 30
0.0
  0
SEQEND
  5
281
330
27E
100
AcDbEntity
  8
\U+30EC\U+30A4\U+30E4\U+30FC 1
370
     9
  0
POLYLINE
  5
282
330
18C
100
AcDbEntity
  8
\U+30EC\U+30A4\U+30E4\U+30FC 1
  6
AI-Linetype-6
 62
   250
420
  2234388
370
     9
100
AcDb2dPolyline
 66
     1
 10
0.0
 20
0.0
 30
0.0
  0
VERTEX
  5
283
330
282
100
AcDbEntity
  8
\U+30EC\U+30A4\U+30E4\U+30FC 1
  6
AI-Linetype-6
 62
   250
420
  2234388
370
     9
100
AcDbVertex
100
AcDb2dVertex
 10
803.40234375
 20
658.06591796875
 30
0.0
  0
VERTEX
  5
284
330
282
100
AcDbEntity
  8
\U+30EC\U+30A4\U+30E4\U+30FC 1
  6
AI-Linetype-6
 62
   250
420
  2234388
370
     9
100
AcDbVertex
100
AcDb2dVertex
 10
831.67578125
 20
658.06591796875
 30
0.0
  0
SEQEND
  5
285
330
282
100
AcDbEntity
  8
\U+30EC\U+30A4\U+30E4\U+30FC 1
  6
AI-Linetype-6
370
     9
  0
POLYLINE
  5
287
330
18C
100
AcDbEntity
  8
\U+30EC\U+30A4\U+30E4\U+30FC 1
 62
   250
420
  2234388
370
     9
100
AcDb2dPolyline
 66
     1
 10
0.0
 20
0.0
 30
0.0
  0
VERTEX
  5
288
330
287
100
AcDbEntity
  8
\U+30EC\U+30A4\U+30E4\U+30FC 1
 62
   250
420
  2234388
370
     9
100
AcDbVertex
100
AcDb2dVertex
 10
821.712890625
 20
627.79736328125
 30
0.0
  0
VERTEX
  5
289
330
287
100
AcDbEntity
  8
\U+30EC\U+30A4\U+30E4\U+30FC 1
 62
   250
420
  2234388
370
     9
100
AcDbVertex
100
AcDb2dVertex
 10
823.478515625
 20
626.0322265625
 30
0.0
  0
SEQEND
  5
28A
330
287
100
AcDbEntity
  8
\U+30EC\U+30A4\U+30E4\U+30FC 1
370
     9
  0
POLYLINE
  5
28B
330
18C
100
AcDbEntity
  8
\U+30EC\U+30A4\U+30E4\U+30FC 1
 62
   250
420
  2234388
370
     9
100
AcDb2dPolyline
 66
     1
 10
0.0
 20
0.0
 30
0.0
  0
VERTEX
  5
28C
330
28B
100
AcDbEntity
  8
\U+30EC\U+30A4\U+30E4\U+30FC 1
 62
   250
420
  2234388
370
     9
100
AcDbVertex
100
AcDb2dVertex
 10
827.384765625
 20
626.03271484375
 30
0.0
  0
VERTEX
  5
28D
330
28B
100
AcDbEntity
  8
\U+30EC\U+30A4\U+30E4\U+30FC 1
 62
   250
420
  2234388
370
     9
100
AcDbVertex
100
AcDb2dVertex
 10
829.150390625
 20
627.7978515625
 30
0.0
  0
SEQEND
  5
28E
330
28B
100
AcDbEntity
  8
\U+30EC\U+30A4\U+30E4\U+30FC 1
370
     9
  0
POLYLINE
  5
28F
330
18C
100
AcDbEntity
  8
\U+30EC\U+30A4\U+30E4\U+30FC 1
 62
   250
420
  2234388
370
     9
100
AcDb2dPolyline
 66
     1
 10
0.0
 20
0.0
 30
0.0
  0
VERTEX
  5
290
330
28F
100
AcDbEntity
  8
\U+30EC\U+30A4\U+30E4\U+30FC 1
 62
   250
420
  2234388
370
     9
100
AcDbVertex
100
AcDb2dVertex
 10
821.712890625
 20
688.33251953125
 30
0.0
  0
VERTEX
  5
291
330
28F
100
AcDbEntity
  8
\U+30EC\U+30A4\U+30E4\U+30FC 1
 62
   250
420
  2234388
370
     9
100
AcDbVertex
100
AcDb2dVertex
 10
823.478515625
 20
690.099609375
 30
0.0
  0
SEQEND
  5
292
330
28F
100
AcDbEntity
  8
\U+30EC\U+30A4\U+30E4\U+30FC 1
370
     9
  0
POLYLINE
  5
293
330
18C
100
AcDbEntity
  8
\U+30EC\U+30A4\U+30E4\U+30FC 1
 62
   250
420
  2234388
370
     9
100
AcDb2dPolyline
 66
     1
 10
0.0
 20
0.0
 30
0.0
  0
VERTEX
  5
294
330
293
100
AcDbEntity
  8
\U+30EC\U+30A4\U+30E4\U+30FC 1
 62
   250
420
  2234388
370
     9
100
AcDbVertex
100
AcDb2dVertex
 10
829.150390625
 20
688.33251953125
 30
0.0
  0
VERTEX
  5
295
330
293
100
AcDbEntity
  8
\U+30EC\U+30A4\U+30E4\U+30FC 1
 62
   250
420
  2234388
370
     9
100
AcDbVertex
100
AcDb2dVertex
 10
827.384765625
 20
690.099609375
 30
0.0
  0
SEQEND
  5
296
330
293
100
AcDbEntity
  8
\U+30EC\U+30A4\U+30E4\U+30FC 1
370
     9
  0
POLYLINE
  5
297
330
18C
100
AcDbEntity
  8
\U+30EC\U+30A4\U+30E4\U+30FC 1
 62
   250
420
  2234388
370
     9
100
AcDb2dPolyline
 66
     1
 10
0.0
 20
0.0
 30
0.0
  0
VERTEX
  5
298
330
297
100
AcDbEntity
  8
\U+30EC\U+30A4\U+30E4\U+30FC 1
 62
   250
420
  2234388
370
     9
100
AcDbVertex
100
AcDb2dVertex
 10
813.1376953125
 20
689.09130859375
 30
0.0
  0
VERTEX
  5
299
330
297
100
AcDbEntity
  8
\U+30EC\U+30A4\U+30E4\U+30FC 1
 62
   250
420
  2234388
370
     9
100
AcDbVertex
100
AcDb2dVertex
 10
814.26953125
 20
690.22314453125
 30
0.0
  0
SEQEND
  5
29A
330
297
100
AcDbEntity
  8
\U+30EC\U+30A4\U+30E4\U+30FC 1
370
     9
  0
POLYLINE
  5
29B
330
18C
100
AcDbEntity
  8
\U+30EC\U+30A4\U+30E4\U+30FC 1
 62
   250
420
  2234388
370
     9
100
AcDb2dPolyline
 66
     1
 10
0.0
 20
0.0
 30
0.0
  0
VERTEX
  5
29C
330
29B
100
AcDbEntity
  8
\U+30EC\U+30A4\U+30E4\U+30FC 1
 62
   250
420
  2234388
370
     9
100
AcDbVertex
100
AcDb2dVertex
 10
806.4560546875
 20
690.60400390625
 30
0.0
  0
VERTEX
  5
29D
330
29B
100
AcDbEntity
  8
\U+30EC\U+30A4\U+30E4\U+30FC 1
 62
   250
420
  2234388
370
     9
100
AcDbVertex
100
AcDb2dVertex
 10
807.9658203125
 20
689.0908203125
 30
0.0
  0
SEQEND
  5
29E
330
29B
100
AcDbEntity
  8
\U+30EC\U+30A4\U+30E4\U+30FC 1
370
     9
  0
POLYLINE
  5
29F
330
18C
100
AcDbEntity
  8
\U+30EC\U+30A4\U+30E4\U+30FC 1
370
     0
100
AcDb2dPolyline
 66
     1
 10
0.0
 20
0.0
 30
0.0
  0
VERTEX
  5
2A0
330
29F
100
AcDbEntity
  8
\U+30EC\U+30A4\U+30E4\U+30FC 1
370
     0
100
AcDbVertex
100
AcDb2dVertex
 10
795.5810546875
 20
694.9169921875
 30
0.0
  0
VERTEX
  5
2A1
330
29F
100
AcDbEntity
  8
\U+30EC\U+30A4\U+30E4\U+30FC 1
370
     0
100
AcDbVertex
100
AcDb2dVertex
 10
794.6318359375
 20
695.27783203125
 30
0.0
  0
VERTEX
  5
2A2
330
29F
100
AcDbEntity
  8
\U+30EC\U+30A4\U+30E4\U+30FC 1
370
     0
100
AcDbVertex
100
AcDb2dVertex
 10
793.681640625
 20
694.9169921875
 30
0.0
  0
VERTEX
  5
2A3
330
29F
100
AcDbEntity
  8
\U+30EC\U+30A4\U+30E4\U+30FC 1
370
     0
100
AcDbVertex
100
AcDb2dVertex
 10
794.6318359375
 20
696.81494140625
 30
0.0
  0
VERTEX
  5
2A4
330
29F
100
AcDbEntity
  8
\U+30EC\U+30A4\U+30E4\U+30FC 1
370
     0
100
AcDbVertex
100
AcDb2dVertex
 10
795.5810546875
 20
694.9169921875
 30
0.0
  0
SEQEND
  5
2A5
330
29F
100
AcDbEntity
  8
\U+30EC\U+30A4\U+30E4\U+30FC 1
370
     0
  0
HATCH
  5
2A6
330
18C
100
AcDbEntity
  8
\U+30EC\U+30A4\U+30E4\U+30FC 1
 62
   250
420
  2234388
100
AcDbHatch
 10
0.0
 20
0.0
 30
0.0
210
0.0
220
0.0
230
1.0
  2
SOLID
 70
     1
 71
     0
 91
        1
 92
        1
 93
        4
 72
     1
 10
795.5810546875
 20
694.9169921875
 11
794.6318359375
 21
695.27783203125
 72
     1
 10
794.6318359375
 20
695.27783203125
 11
793.681640625
 21
694.9169921875
 72
     1
 10
793.681640625
 20
694.9169921875
 11
794.6318359375
 21
696.81494140625
 72
     1
 10
794.6318359375
 20
696.81494140625
 11
795.5810546875
 21
694.9169921875
 97
        0
 75
     2
 76
     1
 98
        0
  0
POLYLINE
  5
2A7
330
18C
100
AcDbEntity
  8
\U+30EC\U+30A4\U+30E4\U+30FC 1
370
     0
100
AcDb2dPolyline
 66
     1
 10
0.0
 20
0.0
 30
0.0
  0
VERTEX
  5
2A8
330
2A7
100
AcDbEntity
  8
\U+30EC\U+30A4\U+30E4\U+30FC 1
370
     0
100
AcDbVertex
100
AcDb2dVertex
 10
793.681640625
 20
621.166015625
 30
0.0
  0
VERTEX
  5
2A9
330
2A7
100
AcDbEntity
  8
\U+30EC\U+30A4\U+30E4\U+30FC 1
370
     0
100
AcDbVertex
100
AcDb2dVertex
 10
794.6318359375
 20
620.80517578125
 30
0.0
  0
VERTEX
  5
2AA
330
2A7
100
AcDbEntity
  8
\U+30EC\U+30A4\U+30E4\U+30FC 1
370
     0
100
AcDbVertex
100
AcDb2dVertex
 10
795.580078125
 20
621.166015625
 30
0.0
  0
VERTEX
  5
2AB
330
2A7
100
AcDbEntity
  8
\U+30EC\U+30A4\U+30E4\U+30FC 1
370
     0
100
AcDbVertex
100
AcDb2dVertex
 10
794.6318359375
 20
619.26904296875
 30
0.0
  0
VERTEX
  5
2AC
330
2A7
100
AcDbEntity
  8
\U+30EC\U+30A4\U+30E4\U+30FC 1
370
     0
100
AcDbVertex
100
AcDb2dVertex
 10
793.681640625
 20
621.166015625
 30
0.0
  0
SEQEND
  5
2AD
330
2A7
100
AcDbEntity
  8
\U+30EC\U+30A4\U+30E4\U+30FC 1
370
     0
  0
HATCH
  5
2AE
330
18C
100
AcDbEntity
  8
\U+30EC\U+30A4\U+30E4\U+30FC 1
 62
   250
420
  2234388
100
AcDbHatch
 10
0.0
 20
0.0
 30
0.0
210
0.0
220
0.0
230
1.0
  2
SOLID
 70
     1
 71
     0
 91
        1
 92
        1
 93
        4
 72
     1
 10
793.681640625
 20
621.166015625
 11
794.6318359375
 21
620.80517578125
 72
     1
 10
794.6318359375
 20
620.80517578125
 11
795.580078125
 21
621.166015625
 72
     1
 10
795.580078125
 20
621.166015625
 11
794.6318359375
 21
619.26904296875
 72
     1
 10
794.6318359375
 20
619.26904296875
 11
793.681640625
 21
621.166015625
 97
        0
 75
     2
 76
     1
 98
        0
  0
POLYLINE
  5
2AF
330
18C
100
AcDbEntity
  8
\U+30EC\U+30A4\U+30E4\U+30FC 1
370
     0
100
AcDb2dPolyline
 66
     1
 10
0.0
 20
0.0
 30
0.0
  0
VERTEX
  5
2B0
330
2AF
100
AcDbEntity
  8
\U+30EC\U+30A4\U+30E4\U+30FC 1
370
     0
100
AcDbVertex
100
AcDb2dVertex
 10
804.357421875
 20
700.74951171875
 30
0.0
  0
VERTEX
  5
2B1
330
2AF
100
AcDbEntity
  8
\U+30EC\U+30A4\U+30E4\U+30FC 1
370
     0
100
AcDbVertex
100
AcDb2dVertex
 10
804.716796875
 20
701.6982421875
 30
0.0
  0
VERTEX
  5
2B2
330
2AF
100
AcDbEntity
  8
\U+30EC\U+30A4\U+30E4\U+30FC 1
370
     0
100
AcDbVertex
100
AcDb2dVertex
 10
804.357421875
 20
702.6455078125
 30
0.0
  0
VERTEX
  5
2B3
330
2AF
100
AcDbEntity
  8
\U+30EC\U+30A4\U+30E4\U+30FC 1
370
     0
100
AcDbVertex
100
AcDb2dVertex
 10
806.25
 20
701.6982421875
 30
0.0
  0
VERTEX
  5
2B4
330
2AF
100
AcDbEntity
  8
\U+30EC\U+30A4\U+30E4\U+30FC 1
370
     0
100
AcDbVertex
100
AcDb2dVertex
 10
804.357421875
 20
700.74951171875
 30
0.0
  0
SEQEND
  5
2B5
330
2AF
100
AcDbEntity
  8
\U+30EC\U+30A4\U+30E4\U+30FC 1
370
     0
  0
HATCH
  5
2B6
330
18C
100
AcDbEntity
  8
\U+30EC\U+30A4\U+30E4\U+30FC 1
 62
   250
420
  2234388
100
AcDbHatch
 10
0.0
 20
0.0
 30
0.0
210
0.0
220
0.0
230
1.0
  2
SOLID
 70
     1
 71
     0
 91
        1
 92
        1
 93
        4
 72
     1
 10
804.357421875
 20
700.74951171875
 11
804.716796875
 21
701.6982421875
 72
     1
 10
804.716796875
 20
701.6982421875
 11
804.357421875
 21
702.6455078125
 72
     1
 10
804.357421875
 20
702.6455078125
 11
806.25
 21
701.6982421875
 72
     1
 10
806.25
 20
701.6982421875
 11
804.357421875
 21
700.74951171875
 97
        0
 75
     2
 76
     1
 98
        0
  0
POLYLINE
  5
2B7
330
18C
100
AcDbEntity
  8
\U+30EC\U+30A4\U+30E4\U+30FC 1
370
     0
100
AcDb2dPolyline
 66
     1
 10
0.0
 20
0.0
 30
0.0
  0
VERTEX
  5
2B8
330
2B7
100
AcDbEntity
  8
\U+30EC\U+30A4\U+30E4\U+30FC 1
370
     0
100
AcDbVertex
100
AcDb2dVertex
 10
819.00390625
 20
702.642578125
 30
0.0
  0
VERTEX
  5
2B9
330
2B7
100
AcDbEntity
  8
\U+30EC\U+30A4\U+30E4\U+30FC 1
370
     0
100
AcDbVertex
100
AcDb2dVertex
 10
818.6435546875
 20
701.6953125
 30
0.0
  0
VERTEX
  5
2BA
330
2B7
100
AcDbEntity
  8
\U+30EC\U+30A4\U+30E4\U+30FC 1
370
     0
100
AcDbVertex
100
AcDb2dVertex
 10
819.00390625
 20
700.74658203125
 30
0.0
  0
VERTEX
  5
2BB
330
2B7
100
AcDbEntity
  8
\U+30EC\U+30A4\U+30E4\U+30FC 1
370
     0
100
AcDbVertex
100
AcDb2dVertex
 10
817.109375
 20
701.6953125
 30
0.0
  0
VERTEX
  5
2BC
330
2B7
100
AcDbEntity
  8
\U+30EC\U+30A4\U+30E4\U+30FC 1
370
     0
100
AcDbVertex
100
AcDb2dVertex
 10
819.00390625
 20
702.642578125
 30
0.0
  0
SEQEND
  5
2BD
330
2B7
100
AcDbEntity
  8
\U+30EC\U+30A4\U+30E4\U+30FC 1
370
     0
  0
HATCH
  5
2BE
330
18C
100
AcDbEntity
  8
\U+30EC\U+30A4\U+30E4\U+30FC 1
 62
   250
420
  2234388
100
AcDbHatch
 10
0.0
 20
0.0
 30
0.0
210
0.0
220
0.0
230
1.0
  2
SOLID
 70
     1
 71
     0
 91
        1
 92
        1
 93
        4
 72
     1
 10
819.00390625
 20
702.642578125
 11
818.6435546875
 21
701.6953125
 72
     1
 10
818.6435546875
 20
701.6953125
 11
819.00390625
 21
700.74658203125
 72
     1
 10
819.00390625
 20
700.74658203125
 11
817.109375
 21
701.6953125
 72
     1
 10
817.109375
 20
701.6953125
 11
819.00390625
 21
702.642578125
 97
        0
 75
     2
 76
     1
 98
        0
  0
POLYLINE
  5
2BF
330
18C
100
AcDbEntity
  8
\U+30EC\U+30A4\U+30E4\U+30FC 1
370
     0
100
AcDb2dPolyline
 66
     1
 10
0.0
 20
0.0
 30
0.0
  0
VERTEX
  5
2C0
330
2BF
100
AcDbEntity
  8
\U+30EC\U+30A4\U+30E4\U+30FC 1
370
     0
100
AcDbVertex
100
AcDb2dVertex
 10
804.07421875
 20
607.61669921875
 30
0.0
  0
VERTEX
  5
2C1
330
2BF
100
AcDbEntity
  8
\U+30EC\U+30A4\U+30E4\U+30FC 1
370
     0
100
AcDbVertex
100
AcDb2dVertex
 10
804.43359375
 20
608.564453125
 30
0.0
  0
VERTEX
  5
2C2
330
2BF
100
AcDbEntity
  8
\U+30EC\U+30A4\U+30E4\U+30FC 1
370
     0
100
AcDbVertex
100
AcDb2dVertex
 10
804.07421875
 20
609.5126953125
 30
0.0
  0
VERTEX
  5
2C3
330
2BF
100
AcDbEntity
  8
\U+30EC\U+30A4\U+30E4\U+30FC 1
370
     0
100
AcDbVertex
100
AcDb2dVertex
 10
805.966796875
 20
608.564453125
 30
0.0
  0
VERTEX
  5
2C4
330
2BF
100
AcDbEntity
  8
\U+30EC\U+30A4\U+30E4\U+30FC 1
370
     0
100
AcDbVertex
100
AcDb2dVertex
 10
804.07421875
 20
607.61669921875
 30
0.0
  0
SEQEND
  5
2C5
330
2BF
100
AcDbEntity
  8
\U+30EC\U+30A4\U+30E4\U+30FC 1
370
     0
  0
HATCH
  5
2C6
330
18C
100
AcDbEntity
  8
\U+30EC\U+30A4\U+30E4\U+30FC 1
 62
   250
420
  2234388
100
AcDbHatch
 10
0.0
 20
0.0
 30
0.0
210
0.0
220
0.0
230
1.0
  2
SOLID
 70
     1
 71
     0
 91
        1
 92
        1
 93
        4
 72
     1
 10
804.07421875
 20
607.61669921875
 11
804.43359375
 21
608.564453125
 72
     1
 10
804.43359375
 20
608.564453125
 11
804.07421875
 21
609.5126953125
 72
     1
 10
804.07421875
 20
609.5126953125
 11
805.966796875
 21
608.564453125
 72
     1
 10
805.966796875
 20
608.564453125
 11
804.07421875
 21
607.61669921875
 97
        0
 75
     2
 76
     1
 98
        0
  0
POLYLINE
  5
2C7
330
18C
100
AcDbEntity
  8
\U+30EC\U+30A4\U+30E4\U+30FC 1
370
     0
100
AcDb2dPolyline
 66
     1
 10
0.0
 20
0.0
 30
0.0
  0
VERTEX
  5
2C8
330
2C7
100
AcDbEntity
  8
\U+30EC\U+30A4\U+30E4\U+30FC 1
370
     0
100
AcDbVertex
100
AcDb2dVertex
 10
831.560546875
 20
609.50927734375
 30
0.0
  0
VERTEX
  5
2C9
330
2C7
100
AcDbEntity
  8
\U+30EC\U+30A4\U+30E4\U+30FC 1
370
     0
100
AcDbVertex
100
AcDb2dVertex
 10
831.19921875
 20
608.56103515625
 30
0.0
  0
VERTEX
  5
2CA
330
2C7
100
AcDbEntity
  8
\U+30EC\U+30A4\U+30E4\U+30FC 1
370
     0
100
AcDbVertex
100
AcDb2dVertex
 10
831.560546875
 20
607.61328125
 30
0.0
  0
VERTEX
  5
2CB
330
2C7
100
AcDbEntity
  8
\U+30EC\U+30A4\U+30E4\U+30FC 1
370
     0
100
AcDbVertex
100
AcDb2dVertex
 10
829.6650390625
 20
608.56103515625
 30
0.0
  0
VERTEX
  5
2CC
330
2C7
100
AcDbEntity
  8
\U+30EC\U+30A4\U+30E4\U+30FC 1
370
     0
100
AcDbVertex
100
AcDb2dVertex
 10
831.560546875
 20
609.50927734375
 30
0.0
  0
SEQEND
  5
2CD
330
2C7
100
AcDbEntity
  8
\U+30EC\U+30A4\U+30E4\U+30FC 1
370
     0
  0
HATCH
  5
2CE
330
18C
100
AcDbEntity
  8
\U+30EC\U+30A4\U+30E4\U+30FC 1
 62
   250
420
  2234388
100
AcDbHatch
 10
0.0
 20
0.0
 30
0.0
210
0.0
220
0.0
230
1.0
  2
SOLID
 70
     1
 71
     0
 91
        1
 92
        1
 93
        4
 72
     1
 10
831.560546875
 20
609.50927734375
 11
831.19921875
 21
608.56103515625
 72
     1
 10
831.19921875
 20
608.56103515625
 11
831.560546875
 21
607.61328125
 72
     1
 10
831.560546875
 20
607.61328125
 11
829.6650390625
 21
608.56103515625
 72
     1
 10
829.6650390625
 20
608.56103515625
 11
831.560546875
 21
609.50927734375
 97
        0
 75
     2
 76
     1
 98
        0
  0
POLYLINE
  5
2CF
330
18C
100
AcDbEntity
  8
\U+30EC\U+30A4\U+30E4\U+30FC 1
370
     0
100
AcDb2dPolyline
 66
     1
 10
0.0
 20
0.0
 30
0.0
  0
VERTEX
  5
2D0
330
2CF
100
AcDbEntity
  8
\U+30EC\U+30A4\U+30E4\U+30FC 1
370
     0
100
AcDbVertex
100
AcDb2dVertex
 10
808.892578125
 20
597.32568359375
 30
0.0
  0
VERTEX
  5
2D1
330
2CF
100
AcDbEntity
  8
\U+30EC\U+30A4\U+30E4\U+30FC 1
370
     0
100
AcDbVertex
100
AcDb2dVertex
 10
808.5322265625
 20
596.37744140625
 30
0.0
  0
VERTEX
  5
2D2
330
2CF
100
AcDbEntity
  8
\U+30EC\U+30A4\U+30E4\U+30FC 1
370
     0
100
AcDbVertex
100
AcDb2dVertex
 10
808.892578125
 20
595.4296875
 30
0.0
  0
VERTEX
  5
2D3
330
2CF
100
AcDbEntity
  8
\U+30EC\U+30A4\U+30E4\U+30FC 1
370
     0
100
AcDbVertex
100
AcDb2dVertex
 10
806.998046875
 20
596.37744140625
 30
0.0
  0
VERTEX
  5
2D4
330
2CF
100
AcDbEntity
  8
\U+30EC\U+30A4\U+30E4\U+30FC 1
370
     0
100
AcDbVertex
100
AcDb2dVertex
 10
808.892578125
 20
597.32568359375
 30
0.0
  0
SEQEND
  5
2D5
330
2CF
100
AcDbEntity
  8
\U+30EC\U+30A4\U+30E4\U+30FC 1
370
     0
  0
HATCH
  5
2D6
330
18C
100
AcDbEntity
  8
\U+30EC\U+30A4\U+30E4\U+30FC 1
 62
   250
420
  2234388
100
AcDbHatch
 10
0.0
 20
0.0
 30
0.0
210
0.0
220
0.0
230
1.0
  2
SOLID
 70
     1
 71
     0
 91
        1
 92
        1
 93
        4
 72
     1
 10
808.892578125
 20
597.32568359375
 11
808.5322265625
 21
596.37744140625
 72
     1
 10
808.5322265625
 20
596.37744140625
 11
808.892578125
 21
595.4296875
 72
     1
 10
808.892578125
 20
595.4296875
 11
806.998046875
 21
596.37744140625
 72
     1
 10
806.998046875
 20
596.37744140625
 11
808.892578125
 21
597.32568359375
 97
        0
 75
     2
 76
     1
 98
        0
  0
POLYLINE
  5
2D7
330
18C
100
AcDbEntity
  8
\U+30EC\U+30A4\U+30E4\U+30FC 1
370
     0
100
AcDb2dPolyline
 66
     1
 10
0.0
 20
0.0
 30
0.0
  0
VERTEX
  5
2D8
330
2D7
100
AcDbEntity
  8
\U+30EC\U+30A4\U+30E4\U+30FC 1
370
     0
100
AcDbVertex
100
AcDb2dVertex
 10
826.783203125
 20
595.42919921875
 30
0.0
  0
VERTEX
  5
2D9
330
2D7
100
AcDbEntity
  8
\U+30EC\U+30A4\U+30E4\U+30FC 1
370
     0
100
AcDbVertex
100
AcDb2dVertex
 10
827.14453125
 20
596.376953125
 30
0.0
  0
VERTEX
  5
2DA
330
2D7
100
AcDbEntity
  8
\U+30EC\U+30A4\U+30E4\U+30FC 1
370
     0
100
AcDbVertex
100
AcDb2dVertex
 10
826.783203125
 20
597.3251953125
 30
0.0
  0
VERTEX
  5
2DB
330
2D7
100
AcDbEntity
  8
\U+30EC\U+30A4\U+30E4\U+30FC 1
370
     0
100
AcDbVertex
100
AcDb2dVertex
 10
828.6796875
 20
596.376953125
 30
0.0
  0
VERTEX
  5
2DC
330
2D7
100
AcDbEntity
  8
\U+30EC\U+30A4\U+30E4\U+30FC 1
370
     0
100
AcDbVertex
100
AcDb2dVertex
 10
826.783203125
 20
595.42919921875
 30
0.0
  0
SEQEND
  5
2DD
330
2D7
100
AcDbEntity
  8
\U+30EC\U+30A4\U+30E4\U+30FC 1
370
     0
  0
HATCH
  5
2DE
330
18C
100
AcDbEntity
  8
\U+30EC\U+30A4\U+30E4\U+30FC 1
 62
   250
420
  2234388
100
AcDbHatch
 10
0.0
 20
0.0
 30
0.0
210
0.0
220
0.0
230
1.0
  2
SOLID
 70
     1
 71
     0
 91
        1
 92
        1
 93
        4
 72
     1
 10
826.783203125
 20
595.42919921875
 11
827.14453125
 21
596.376953125
 72
     1
 10
827.14453125
 20
596.376953125
 11
826.783203125
 21
597.3251953125
 72
     1
 10
826.783203125
 20
597.3251953125
 11
828.6796875
 21
596.376953125
 72
     1
 10
828.6796875
 20
596.376953125
 11
826.783203125
 21
595.42919921875
 97
        0
 75
     2
 76
     1
 98
        0
  0
POLYLINE
  5
2DF
330
18C
100
AcDbEntity
  8
\U+30EC\U+30A4\U+30E4\U+30FC 1
 62
   250
420
  2234388
370
     9
100
AcDb2dPolyline
 66
     1
 10
0.0
 20
0.0
 30
0.0
  0
VERTEX
  5
2E0
330
2DF
100
AcDbEntity
  8
\U+30EC\U+30A4\U+30E4\U+30FC 1
 62
   250
420
  2234388
370
     9
100
AcDbVertex
100
AcDb2dVertex
 10
895.1591796875
 20
697.16162109375
 30
0.0
  0
VERTEX
  5
2E1
330
2DF
100
AcDbEntity
  8
\U+30EC\U+30A4\U+30E4\U+30FC 1
 62
   250
420
  2234388
370
     9
100
AcDbVertex
100
AcDb2dVertex
 10
882.8935546875
 20
697.16162109375
 30
0.0
  0
SEQEND
  5
2E2
330
2DF
100
AcDbEntity
  8
\U+30EC\U+30A4\U+30E4\U+30FC 1
370
     9
  0
POLYLINE
  5
2E3
330
18C
100
AcDbEntity
  8
\U+30EC\U+30A4\U+30E4\U+30FC 1
 62
   250
420
  2234388
370
     9
100
AcDb2dPolyline
 66
     1
 10
0.0
 20
0.0
 30
0.0
  0
VERTEX
  5
2E4
330
2E3
100
AcDbEntity
  8
\U+30EC\U+30A4\U+30E4\U+30FC 1
 62
   250
420
  2234388
370
     9
100
AcDbVertex
100
AcDb2dVertex
 10
895.1591796875
 20
618.97021484375
 30
0.0
  0
VERTEX
  5
2E5
330
2E3
100
AcDbEntity
  8
\U+30EC\U+30A4\U+30E4\U+30FC 1
 62
   250
420
  2234388
370
     9
100
AcDbVertex
100
AcDb2dVertex
 10
882.8935546875
 20
618.97021484375
 30
0.0
  0
SEQEND
  5
2E6
330
2E3
100
AcDbEntity
  8
\U+30EC\U+30A4\U+30E4\U+30FC 1
370
     9
  0
POLYLINE
  5
2E7
330
18C
100
AcDbEntity
  8
\U+30EC\U+30A4\U+30E4\U+30FC 1
 62
   250
420
  2234388
370
     9
100
AcDb2dPolyline
 66
     1
 10
0.0
 20
0.0
 30
0.0
  0
VERTEX
  5
2E8
330
2E7
100
AcDbEntity
  8
\U+30EC\U+30A4\U+30E4\U+30FC 1
 62
   250
420
  2234388
370
     9
100
AcDbVertex
100
AcDb2dVertex
 10
885.4130859375
 20
697.16162109375
 30
0.0
  0
VERTEX
  5
2E9
330
2E7
100
AcDbEntity
  8
\U+30EC\U+30A4\U+30E4\U+30FC 1
 62
   250
420
  2234388
370
     9
100
AcDbVertex
100
AcDb2dVertex
 10
885.4130859375
 20
620.71240234375
 30
0.0
  0
SEQEND
  5
2EA
330
2E7
100
AcDbEntity
  8
\U+30EC\U+30A4\U+30E4\U+30FC 1
370
     9
  0
POLYLINE
  5
2EB
330
18C
100
AcDbEntity
  8
\U+30EC\U+30A4\U+30E4\U+30FC 1
 62
   250
420
  2234388
370
     9
100
AcDb2dPolyline
 66
     1
 10
0.0
 20
0.0
 30
0.0
  0
VERTEX
  5
2EC
330
2EB
100
AcDbEntity
  8
\U+30EC\U+30A4\U+30E4\U+30FC 1
 62
   250
420
  2234388
370
     9
100
AcDbVertex
100
AcDb2dVertex
 10
896.419921875
 20
617.70654296875
 30
0.0
  0
VERTEX
  5
2ED
330
2EB
100
AcDbEntity
  8
\U+30EC\U+30A4\U+30E4\U+30FC 1
 62
   250
420
  2234388
370
     9
100
AcDbVertex
100
AcDb2dVertex
 10
896.419921875
 20
601.79150390625
 30
0.0
  0
SEQEND
  5
2EE
330
2EB
100
AcDbEntity
  8
\U+30EC\U+30A4\U+30E4\U+30FC 1
370
     9
  0
POLYLINE
  5
2EF
330
18C
100
AcDbEntity
  8
\U+30EC\U+30A4\U+30E4\U+30FC 1
 62
   250
420
  2234388
370
     9
100
AcDb2dPolyline
 66
     1
 10
0.0
 20
0.0
 30
0.0
  0
VERTEX
  5
2F0
330
2EF
100
AcDbEntity
  8
\U+30EC\U+30A4\U+30E4\U+30FC 1
 62
   250
420
  2234388
370
     9
100
AcDbVertex
100
AcDb2dVertex
 10
921.64453125
 20
619.60107421875
 30
0.0
  0
VERTEX
  5
2F1
330
2EF
100
AcDbEntity
  8
\U+30EC\U+30A4\U+30E4\U+30FC 1
 62
   250
420
  2234388
370
     9
100
AcDbVertex
100
AcDb2dVertex
 10
921.64453125
 20
601.791015625
 30
0.0
  0
SEQEND
  5
2F2
330
2EF
100
AcDbEntity
  8
\U+30EC\U+30A4\U+30E4\U+30FC 1
370
     9
  0
POLYLINE
  5
2F3
330
18C
100
AcDbEntity
  8
\U+30EC\U+30A4\U+30E4\U+30FC 1
 62
   250
420
  2234388
370
     9
100
AcDb2dPolyline
 66
     1
 10
0.0
 20
0.0
 30
0.0
  0
VERTEX
  5
2F4
330
2F3
100
AcDbEntity
  8
\U+30EC\U+30A4\U+30E4\U+30FC 1
 62
   250
420
  2234388
370
     9
100
AcDbVertex
100
AcDb2dVertex
 10
896.419921875
 20
610.68994140625
 30
0.0
  0
VERTEX
  5
2F5
330
2F3
100
AcDbEntity
  8
\U+30EC\U+30A4\U+30E4\U+30FC 1
 62
   250
420
  2234388
370
     9
100
AcDbVertex
100
AcDb2dVertex
 10
946.7431640625
 20
610.68994140625
 30
0.0
  0
SEQEND
  5
2F6
330
2F3
100
AcDbEntity
  8
\U+30EC\U+30A4\U+30E4\U+30FC 1
370
     9
  0
POLYLINE
  5
2F7
330
18C
100
AcDbEntity
  8
\U+30EC\U+30A4\U+30E4\U+30FC 1
 62
   250
420
  2234388
370
     9
100
AcDb2dPolyline
 66
     1
 10
0.0
 20
0.0
 30
0.0
  0
VERTEX
  5
2F8
330
2F7
100
AcDbEntity
  8
\U+30EC\U+30A4\U+30E4\U+30FC 1
 62
   250
420
  2234388
370
     9
100
AcDbVertex
100
AcDb2dVertex
 10
896.419921875
 20
617.70654296875
 30
0.0
  0
VERTEX
  5
2F9
330
2F7
100
AcDbEntity
  8
\U+30EC\U+30A4\U+30E4\U+30FC 1
 62
   250
420
  2234388
370
     9
100
AcDbVertex
100
AcDb2dVertex
 10
896.419921875
 20
591.74658203125
 30
0.0
  0
SEQEND
  5
2FA
330
2F7
100
AcDbEntity
  8
\U+30EC\U+30A4\U+30E4\U+30FC 1
370
     9
  0
POLYLINE
  5
2FB
330
18C
100
AcDbEntity
  8
\U+30EC\U+30A4\U+30E4\U+30FC 1
 62
   250
420
  2234388
370
     9
100
AcDb2dPolyline
 66
     1
 10
0.0
 20
0.0
 30
0.0
  0
VERTEX
  5
2FC
330
2FB
100
AcDbEntity
  8
\U+30EC\U+30A4\U+30E4\U+30FC 1
 62
   250
420
  2234388
370
     9
100
AcDbVertex
100
AcDb2dVertex
 10
931.7333984375
 20
625.27392578125
 30
0.0
  0
VERTEX
  5
2FD
330
2FB
100
AcDbEntity
  8
\U+30EC\U+30A4\U+30E4\U+30FC 1
 62
   250
420
  2234388
370
     9
100
AcDbVertex
100
AcDb2dVertex
 10
931.7333984375
 20
591.7470703125
 30
0.0
  0
SEQEND
  5
2FE
330
2FB
100
AcDbEntity
  8
\U+30EC\U+30A4\U+30E4\U+30FC 1
370
     9
  0
POLYLINE
  5
2FF
330
18C
100
AcDbEntity
  8
\U+30EC\U+30A4\U+30E4\U+30FC 1
 62
   250
420
  2234388
370
     9
100
AcDb2dPolyline
 66
     1
 10
0.0
 20
0.0
 30
0.0
  0
VERTEX
  5
300
330
2FF
100
AcDbEntity
  8
\U+30EC\U+30A4\U+30E4\U+30FC 1
 62
   250
420
  2234388
370
     9
100
AcDbVertex
100
AcDb2dVertex
 10
896.419921875
 20
594.27001953125
 30
0.0
  0
VERTEX
  5
301
330
2FF
100
AcDbEntity
  8
\U+30EC\U+30A4\U+30E4\U+30FC 1
 62
   250
420
  2234388
370
     9
100
AcDbVertex
100
AcDb2dVertex
 10
929.8564453125
 20
594.27001953125
 30
0.0
  0
SEQEND
  5
302
330
2FF
100
AcDbEntity
  8
\U+30EC\U+30A4\U+30E4\U+30FC 1
370
     9
  0
POLYLINE
  5
303
330
18C
100
AcDbEntity
  8
\U+30EC\U+30A4\U+30E4\U+30FC 1
 62
   250
420
  2234388
370
     9
100
AcDb2dPolyline
 66
     1
 10
0.0
 20
0.0
 30
0.0
  0
VERTEX
  5
304
330
303
100
AcDbEntity
  8
\U+30EC\U+30A4\U+30E4\U+30FC 1
 62
   250
420
  2234388
370
     9
100
AcDbVertex
100
AcDb2dVertex
 10
921.64453125
 20
619.60107421875
 30
0.0
  0
VERTEX
  5
305
330
303
100
AcDbEntity
  8
\U+30EC\U+30A4\U+30E4\U+30FC 1
 62
   250
420
  2234388
370
     9
100
AcDbVertex
100
AcDb2dVertex
 10
921.64453125
 20
608.1689453125
 30
0.0
  0
SEQEND
  5
306
330
303
100
AcDbEntity
  8
\U+30EC\U+30A4\U+30E4\U+30FC 1
370
     9
  0
POLYLINE
  5
307
330
18C
100
AcDbEntity
  8
\U+30EC\U+30A4\U+30E4\U+30FC 1
 62
   250
420
  2234388
370
     9
100
AcDb2dPolyline
 66
     1
 10
0.0
 20
0.0
 30
0.0
  0
VERTEX
  5
308
330
307
100
AcDbEntity
  8
\U+30EC\U+30A4\U+30E4\U+30FC 1
 62
   250
420
  2234388
370
     9
100
AcDbVertex
100
AcDb2dVertex
 10
931.7333984375
 20
625.27392578125
 30
0.0
  0
VERTEX
  5
309
330
307
100
AcDbEntity
  8
\U+30EC\U+30A4\U+30E4\U+30FC 1
 62
   250
420
  2234388
370
     9
100
AcDbVertex
100
AcDb2dVertex
 10
931.7333984375
 20
601.7919921875
 30
0.0
  0
SEQEND
  5
30A
330
307
100
AcDbEntity
  8
\U+30EC\U+30A4\U+30E4\U+30FC 1
370
     9
  0
ENDBLK
  5
18F
330
18C
100
AcDbEntity
  8
0
100
AcDbBlockEnd
  0
BLOCK
  5
311
330
30F
100
AcDbEntity
  8
0
100
AcDbBlockBegin
  2
block 4
 70
     0
 71
     0
 10
0.0
 20
0.0
 30
0.0
  3
block 4
  1

  0
POLYLINE
  5
313
330
30F
100
AcDbEntity
  8
\U+30EC\U+30A4\U+30E4\U+30FC 1
370
     0
100
AcDb2dPolyline
 66
     1
 10
0.0
 20
0.0
 30
0.0
  0
VERTEX
  5
314
330
313
100
AcDbEntity
  8
\U+30EC\U+30A4\U+30E4\U+30FC 1
370
     0
100
AcDbVertex
100
AcDb2dVertex
 10
0.0
 20
907.0
 30
0.0
  0
VERTEX
  5
315
330
313
100
AcDbEntity
  8
\U+30EC\U+30A4\U+30E4\U+30FC 1
370
     0
100
AcDbVertex
100
AcDb2dVertex
 10
1274.0
 20
907.0
 30
0.0
  0
VERTEX
  5
316
330
313
100
AcDbEntity
  8
\U+30EC\U+30A4\U+30E4\U+30FC 1
370
     0
100
AcDbVertex
100
AcDb2dVertex
 10
1274.0
 20
0.0
 30
0.0
  0
VERTEX
  5
317
330
313
100
AcDbEntity
  8
\U+30EC\U+30A4\U+30E4\U+30FC 1
370
     0
100
AcDbVertex
100
AcDb2dVertex
 10
0.0
 20
0.0
 30
0.0
  0
VERTEX
  5
318
330
313
100
AcDbEntity
  8
\U+30EC\U+30A4\U+30E4\U+30FC 1
370
     0
100
AcDbVertex
100
AcDb2dVertex
 10
0.0
 20
907.0
 30
0.0
  0
SEQEND
  5
319
330
313
100
AcDbEntity
  8
\U+30EC\U+30A4\U+30E4\U+30FC 1
370
     0
  0
POLYLINE
  5
31A
330
30F
100
AcDbEntity
  8
\U+30EC\U+30A4\U+30E4\U+30FC 1
 62
   250
420
  2234388
370
     9
100
AcDb2dPolyline
 66
     1
 10
0.0
 20
0.0
 30
0.0
  0
VERTEX
  5
31B
330
31A
100
AcDbEntity
  8
\U+30EC\U+30A4\U+30E4\U+30FC 1
 62
   250
420
  2234388
370
     9
100
AcDbVertex
100
AcDb2dVertex
 10
904.744140625
 20
689.09130859375
 30
0.0
  0
VERTEX
  5
31C
330
31A
100
AcDbEntity
  8
\U+30EC\U+30A4\U+30E4\U+30FC 1
 62
   250
420
  2234388
370
     9
100
AcDbVertex
100
AcDb2dVertex
 10
906.505859375
 20
690.8564453125
 30
0.0
  0
SEQEND
  5
31D
330
31A
100
AcDbEntity
  8
\U+30EC\U+30A4\U+30E4\U+30FC 1
370
     9
  0
POLYLINE
  5
31E
330
30F
100
AcDbEntity
  8
\U+30EC\U+30A4\U+30E4\U+30FC 1
 62
   250
420
  2234388
370
     9
100
AcDb2dPolyline
 66
     1
 10
0.0
 20
0.0
 30
0.0
  0
VERTEX
  5
31F
330
31E
100
AcDbEntity
  8
\U+30EC\U+30A4\U+30E4\U+30FC 1
 62
   250
420
  2234388
370
     9
100
AcDbVertex
100
AcDb2dVertex
 10
909.0322265625
 20
620.86083984375
 30
0.0
  0
VERTEX
  5
320
330
31E
100
AcDbEntity
  8
\U+30EC\U+30A4\U+30E4\U+30FC 1
 62
   250
420
  2234388
370
     9
100
AcDbVertex
100
AcDb2dVertex
 10
909.0322265625
 20
658.06591796875
 30
0.0
  0
SEQEND
  5
321
330
31E
100
AcDbEntity
  8
\U+30EC\U+30A4\U+30E4\U+30FC 1
370
     9
  0
POLYLINE
  5
322
330
30F
100
AcDbEntity
  8
\U+30EC\U+30A4\U+30E4\U+30FC 1
 62
   250
420
  2234388
370
     9
100
AcDb2dPolyline
 66
     1
 10
0.0
 20
0.0
 30
0.0
  0
VERTEX
  5
323
330
322
100
AcDbEntity
  8
\U+30EC\U+30A4\U+30E4\U+30FC 1
 62
   250
420
  2234388
370
     9
100
AcDbVertex
100
AcDb2dVertex
 10
907.7744140625
 20
697.16162109375
 30
0.0
  0
VERTEX
  5
324
330
322
100
AcDbEntity
  8
\U+30EC\U+30A4\U+30E4\U+30FC 1
 62
   250
420
  2234388
370
     9
100
AcDbVertex
100
AcDb2dVertex
 10
897.6787109375
 20
697.16162109375
 30
0.0
  0
SEQEND
  5
325
330
322
100
AcDbEntity
  8
\U+30EC\U+30A4\U+30E4\U+30FC 1
370
     9
  0
POLYLINE
  5
326
330
30F
100
AcDbEntity
  8
\U+30EC\U+30A4\U+30E4\U+30FC 1
 62
   250
420
  2234388
370
     9
100
AcDb2dPolyline
 66
     1
 10
0.0
 20
0.0
 30
0.0
  0
VERTEX
  5
327
330
326
100
AcDbEntity
  8
\U+30EC\U+30A4\U+30E4\U+30FC 1
 62
   250
420
  2234388
370
     9
100
AcDbVertex
100
AcDb2dVertex
 10
896.419921875
 20
695.90185546875
 30
0.0
  0
VERTEX
  5
328
330
326
100
AcDbEntity
  8
\U+30EC\U+30A4\U+30E4\U+30FC 1
 62
   250
420
  2234388
370
     9
100
AcDbVertex
100
AcDb2dVertex
 10
896.419921875
 20
620.22998046875
 30
0.0
  0
SEQEND
  5
329
330
326
100
AcDbEntity
  8
\U+30EC\U+30A4\U+30E4\U+30FC 1
370
     9
  0
POLYLINE
  5
32A
330
30F
100
AcDbEntity
  8
\U+30EC\U+30A4\U+30E4\U+30FC 1
 62
   250
420
  2234388
370
     9
100
AcDb2dPolyline
 66
     1
 10
0.0
 20
0.0
 30
0.0
  0
VERTEX
  5
32B
330
32A
100
AcDbEntity
  8
\U+30EC\U+30A4\U+30E4\U+30FC 1
 62
   250
420
  2234388
370
     9
100
AcDbVertex
100
AcDb2dVertex
 10
897.6787109375
 20
618.97021484375
 30
0.0
  0
VERTEX
  5
32C
330
32A
100
AcDbEntity
  8
\U+30EC\U+30A4\U+30E4\U+30FC 1
 62
   250
420
  2234388
370
     9
100
AcDbVertex
100
AcDb2dVertex
 10
907.7744140625
 20
618.97021484375
 30
0.0
  0
SEQEND
  5
32D
330
32A
100
AcDbEntity
  8
\U+30EC\U+30A4\U+30E4\U+30FC 1
370
     9
  0
POLYLINE
  5
32E
330
30F
100
AcDbEntity
  8
\U+30EC\U+30A4\U+30E4\U+30FC 1
 62
   250
420
  2234388
370
     9
100
AcDb2dPolyline
 66
     1
 10
0.0
 20
0.0
 30
0.0
  0
VERTEX
  5
32F
330
32E
100
AcDbEntity
  8
\U+30EC\U+30A4\U+30E4\U+30FC 1
 62
   250
420
  2234388
370
     9
100
AcDbVertex
100
AcDb2dVertex
 10
931.7333984375
 20
627.79736328125
 30
0.0
  0
VERTEX
  5
330
330
32E
100
AcDbEntity
  8
\U+30EC\U+30A4\U+30E4\U+30FC 1
 62
   250
420
  2234388
370
     9
100
AcDbVertex
100
AcDb2dVertex
 10
931.7333984375
 20
688.33251953125
 30
0.0
  0
SEQEND
  5
331
330
32E
100
AcDbEntity
  8
\U+30EC\U+30A4\U+30E4\U+30FC 1
370
     9
  0
POLYLINE
  5
332
330
30F
100
AcDbEntity
  8
\U+30EC\U+30A4\U+30E4\U+30FC 1
 62
   250
420
  2234388
370
     9
100
AcDb2dPolyline
 66
     1
 10
0.0
 20
0.0
 30
0.0
  0
VERTEX
  5
333
330
332
100
AcDbEntity
  8
\U+30EC\U+30A4\U+30E4\U+30FC 1
 62
   250
420
  2234388
370
     9
100
AcDbVertex
100
AcDb2dVertex
 10
931.4814453125
 20
686.44384765625
 30
0.0
  0
VERTEX
  5
334
330
332
100
AcDbEntity
  8
\U+30EC\U+30A4\U+30E4\U+30FC 1
 62
   250
420
  2234388
370
     9
100
AcDbVertex
100
AcDb2dVertex
 10
919.373046875
 20
686.44384765625
 30
0.0
  0
SEQEND
  5
335
330
332
100
AcDbEntity
  8
\U+30EC\U+30A4\U+30E4\U+30FC 1
370
     9
  0
POLYLINE
  5
336
330
30F
100
AcDbEntity
  8
\U+30EC\U+30A4\U+30E4\U+30FC 1
  6
AI-Linetype-7
 62
   250
420
  2234388
370
     9
100
AcDb2dPolyline
 66
     1
 10
0.0
 20
0.0
 30
0.0
  0
VERTEX
  5
337
330
336
100
AcDbEntity
  8
\U+30EC\U+30A4\U+30E4\U+30FC 1
  6
AI-Linetype-7
 62
   250
420
  2234388
370
     9
100
AcDbVertex
100
AcDb2dVertex
 10
896.419921875
 20
690.09912109375
 30
0.0
  0
VERTEX
  5
338
330
336
100
AcDbEntity
  8
\U+30EC\U+30A4\U+30E4\U+30FC 1
  6
AI-Linetype-7
 62
   250
420
  2234388
370
     9
100
AcDbVertex
100
AcDb2dVertex
 10
905.75390625
 20
690.09912109375
 30
0.0
  0
SEQEND
  5
339
330
336
100
AcDbEntity
  8
\U+30EC\U+30A4\U+30E4\U+30FC 1
  6
AI-Linetype-7
370
     9
  0
POLYLINE
  5
33B
330
30F
100
AcDbEntity
  8
\U+30EC\U+30A4\U+30E4\U+30FC 1
 62
   250
420
  2234388
370
     9
100
AcDb2dPolyline
 66
     1
 10
0.0
 20
0.0
 30
0.0
  0
VERTEX
  5
33C
330
33B
100
AcDbEntity
  8
\U+30EC\U+30A4\U+30E4\U+30FC 1
 62
   250
420
  2234388
370
     9
100
AcDbVertex
100
AcDb2dVertex
 10
926.0546875
 20
626.03271484375
 30
0.0
  0
VERTEX
  5
33D
330
33B
100
AcDbEntity
  8
\U+30EC\U+30A4\U+30E4\U+30FC 1
 62
   250
420
  2234388
370
     9
100
AcDbVertex
100
AcDb2dVertex
 10
929.96484375
 20
626.03271484375
 30
0.0
  0
SEQEND
  5
33E
330
33B
100
AcDbEntity
  8
\U+30EC\U+30A4\U+30E4\U+30FC 1
370
     9
  0
POLYLINE
  5
33F
330
30F
100
AcDbEntity
  8
\U+30EC\U+30A4\U+30E4\U+30FC 1
 62
   250
420
  2234388
370
     9
100
AcDb2dPolyline
 66
     1
 10
0.0
 20
0.0
 30
0.0
  0
VERTEX
  5
340
330
33F
100
AcDbEntity
  8
\U+30EC\U+30A4\U+30E4\U+30FC 1
 62
   250
420
  2234388
370
     9
100
AcDbVertex
100
AcDb2dVertex
 10
926.0546875
 20
690.09912109375
 30
0.0
  0
VERTEX
  5
341
330
33F
100
AcDbEntity
  8
\U+30EC\U+30A4\U+30E4\U+30FC 1
 62
   250
420
  2234388
370
     9
100
AcDbVertex
100
AcDb2dVertex
 10
929.96484375
 20
690.09912109375
 30
0.0
  0
SEQEND
  5
342
330
33F
100
AcDbEntity
  8
\U+30EC\U+30A4\U+30E4\U+30FC 1
370
     9
  0
POLYLINE
  5
343
330
30F
100
AcDbEntity
  8
\U+30EC\U+30A4\U+30E4\U+30FC 1
  6
AI-Linetype-8
 62
   250
420
  2234388
370
     9
100
AcDb2dPolyline
 66
     1
 10
0.0
 20
0.0
 30
0.0
  0
VERTEX
  5
344
330
343
100
AcDbEntity
  8
\U+30EC\U+30A4\U+30E4\U+30FC 1
  6
AI-Linetype-8
 62
   250
420
  2234388
370
     9
100
AcDbVertex
100
AcDb2dVertex
 10
925.044921875
 20
689.09130859375
 30
0.0
  0
VERTEX
  5
345
330
343
100
AcDbEntity
  8
\U+30EC\U+30A4\U+30E4\U+30FC 1
  6
AI-Linetype-8
 62
   250
420
  2234388
370
     9
100
AcDbVertex
100
AcDb2dVertex
 10
930.974609375
 20
689.09130859375
 30
0.0
  0
SEQEND
  5
346
330
343
100
AcDbEntity
  8
\U+30EC\U+30A4\U+30E4\U+30FC 1
  6
AI-Linetype-8
370
     9
  0
POLYLINE
  5
348
330
30F
100
AcDbEntity
  8
\U+30EC\U+30A4\U+30E4\U+30FC 1
  6
AI-Linetype-9
 62
   250
420
  2234388
370
     9
100
AcDb2dPolyline
 66
     1
 10
0.0
 20
0.0
 30
0.0
  0
VERTEX
  5
349
330
348
100
AcDbEntity
  8
\U+30EC\U+30A4\U+30E4\U+30FC 1
  6
AI-Linetype-9
 62
   250
420
  2234388
370
     9
100
AcDbVertex
100
AcDb2dVertex
 10
925.044921875
 20
627.03857421875
 30
0.0
  0
VERTEX
  5
34A
330
348
100
AcDbEntity
  8
\U+30EC\U+30A4\U+30E4\U+30FC 1
  6
AI-Linetype-9
 62
   250
420
  2234388
370
     9
100
AcDbVertex
100
AcDb2dVertex
 10
930.974609375
 20
627.03857421875
 30
0.0
  0
SEQEND
  5
34B
330
348
100
AcDbEntity
  8
\U+30EC\U+30A4\U+30E4\U+30FC 1
  6
AI-Linetype-9
370
     9
  0
POLYLINE
  5
34D
330
30F
100
AcDbEntity
  8
\U+30EC\U+30A4\U+30E4\U+30FC 1
 62
   250
420
  2234388
370
     9
100
AcDb2dPolyline
 66
     1
 10
0.0
 20
0.0
 30
0.0
  0
VERTEX
  5
34E
330
34D
100
AcDbEntity
  8
\U+30EC\U+30A4\U+30E4\U+30FC 1
 62
   250
420
  2234388
370
     9
100
AcDbVertex
100
AcDb2dVertex
 10
921.64453125
 20
688.33251953125
 30
0.0
  0
VERTEX
  5
34F
330
34D
100
AcDbEntity
  8
\U+30EC\U+30A4\U+30E4\U+30FC 1
 62
   250
420
  2234388
370
     9
100
AcDbVertex
100
AcDb2dVertex
 10
924.2900390625
 20
688.33251953125
 30
0.0
  0
SEQEND
  5
350
330
34D
100
AcDbEntity
  8
\U+30EC\U+30A4\U+30E4\U+30FC 1
370
     9
  0
POLYLINE
  5
351
330
30F
100
AcDbEntity
  8
\U+30EC\U+30A4\U+30E4\U+30FC 1
 62
   250
420
  2234388
370
     9
100
AcDb2dPolyline
 66
     1
 10
0.0
 20
0.0
 30
0.0
  0
VERTEX
  5
352
330
351
100
AcDbEntity
  8
\U+30EC\U+30A4\U+30E4\U+30FC 1
 62
   250
420
  2234388
370
     9
100
AcDbVertex
100
AcDb2dVertex
 10
921.64453125
 20
627.79736328125
 30
0.0
  0
VERTEX
  5
353
330
351
100
AcDbEntity
  8
\U+30EC\U+30A4\U+30E4\U+30FC 1
 62
   250
420
  2234388
370
     9
100
AcDbVertex
100
AcDb2dVertex
 10
924.2900390625
 20
627.79736328125
 30
0.0
  0
SEQEND
  5
354
330
351
100
AcDbEntity
  8
\U+30EC\U+30A4\U+30E4\U+30FC 1
370
     9
  0
POLYLINE
  5
355
330
30F
100
AcDbEntity
  8
\U+30EC\U+30A4\U+30E4\U+30FC 1
 62
   250
420
  2234388
370
     9
100
AcDb2dPolyline
 66
     1
 10
0.0
 20
0.0
 30
0.0
  0
VERTEX
  5
356
330
355
100
AcDbEntity
  8
\U+30EC\U+30A4\U+30E4\U+30FC 1
 62
   250
420
  2234388
370
     9
100
AcDbVertex
100
AcDb2dVertex
 10
924.2900390625
 20
658.06591796875
 30
0.0
  0
VERTEX
  5
357
330
355
100
AcDbEntity
  8
\U+30EC\U+30A4\U+30E4\U+30FC 1
 62
   250
420
  2234388
370
     9
100
AcDbVertex
100
AcDb2dVertex
 10
924.2900390625
 20
627.796875
 30
0.0
  0
SEQEND
  5
358
330
355
100
AcDbEntity
  8
\U+30EC\U+30A4\U+30E4\U+30FC 1
370
     9
  0
POLYLINE
  5
359
330
30F
100
AcDbEntity
  8
\U+30EC\U+30A4\U+30E4\U+30FC 1
 62
   250
420
  2234388
370
     9
100
AcDb2dPolyline
 66
     1
 10
0.0
 20
0.0
 30
0.0
  0
VERTEX
  5
35A
330
359
100
AcDbEntity
  8
\U+30EC\U+30A4\U+30E4\U+30FC 1
 62
   250
420
  2234388
370
     9
100
AcDbVertex
100
AcDb2dVertex
 10
897.93359375
 20
689.09130859375
 30
0.0
  0
VERTEX
  5
35B
330
359
100
AcDbEntity
  8
\U+30EC\U+30A4\U+30E4\U+30FC 1
 62
   250
420
  2234388
370
     9
100
AcDbVertex
100
AcDb2dVertex
 10
904.744140625
 20
689.09130859375
 30
0.0
  0
SEQEND
  5
35C
330
359
100
AcDbEntity
  8
\U+30EC\U+30A4\U+30E4\U+30FC 1
370
     9
  0
POLYLINE
  5
35D
330
30F
100
AcDbEntity
  8
\U+30EC\U+30A4\U+30E4\U+30FC 1
 62
   250
420
  2234388
370
     9
100
AcDb2dPolyline
 66
     1
 10
0.0
 20
0.0
 30
0.0
  0
VERTEX
  5
35E
330
35D
100
AcDbEntity
  8
\U+30EC\U+30A4\U+30E4\U+30FC 1
 62
   250
420
  2234388
370
     9
100
AcDbVertex
100
AcDb2dVertex
 10
897.6787109375
 20
658.06591796875
 30
0.0
  0
VERTEX
  5
35F
330
35D
100
AcDbEntity
  8
\U+30EC\U+30A4\U+30E4\U+30FC 1
 62
   250
420
  2234388
370
     9
100
AcDbVertex
100
AcDb2dVertex
 10
897.6787109375
 20
618.9697265625
 30
0.0
  0
SEQEND
  5
360
330
35D
100
AcDbEntity
  8
\U+30EC\U+30A4\U+30E4\U+30FC 1
370
     9
  0
POLYLINE
  5
361
330
30F
100
AcDbEntity
  8
\U+30EC\U+30A4\U+30E4\U+30FC 1
 62
   250
420
  2234388
370
     9
100
AcDb2dPolyline
 66
     1
 10
0.0
 20
0.0
 30
0.0
  0
VERTEX
  5
362
330
361
100
AcDbEntity
  8
\U+30EC\U+30A4\U+30E4\U+30FC 1
 62
   250
420
  2234388
370
     9
100
AcDbVertex
100
AcDb2dVertex
 10
897.6787109375
 20
655.61083984375
 30
0.0
  0
VERTEX
  5
363
330
361
100
AcDbEntity
  8
\U+30EC\U+30A4\U+30E4\U+30FC 1
 62
   250
420
  2234388
370
     9
100
AcDbVertex
100
AcDb2dVertex
 10
907.7744140625
 20
655.61083984375
 30
0.0
  0
SEQEND
  5
364
330
361
100
AcDbEntity
  8
\U+30EC\U+30A4\U+30E4\U+30FC 1
370
     9
  0
POLYLINE
  5
365
330
30F
100
AcDbEntity
  8
\U+30EC\U+30A4\U+30E4\U+30FC 1
 62
   250
420
  2234388
370
     9
100
AcDb2dPolyline
 66
     1
 10
0.0
 20
0.0
 30
0.0
  0
VERTEX
  5
366
330
365
100
AcDbEntity
  8
\U+30EC\U+30A4\U+30E4\U+30FC 1
 62
   250
420
  2234388
370
     9
100
AcDbVertex
100
AcDb2dVertex
 10
897.6787109375
 20
653.16552734375
 30
0.0
  0
VERTEX
  5
367
330
365
100
AcDbEntity
  8
\U+30EC\U+30A4\U+30E4\U+30FC 1
 62
   250
420
  2234388
370
     9
100
AcDbVertex
100
AcDb2dVertex
 10
907.7744140625
 20
653.16552734375
 30
0.0
  0
SEQEND
  5
368
330
365
100
AcDbEntity
  8
\U+30EC\U+30A4\U+30E4\U+30FC 1
370
     9
  0
POLYLINE
  5
369
330
30F
100
AcDbEntity
  8
\U+30EC\U+30A4\U+30E4\U+30FC 1
 62
   250
420
  2234388
370
     9
100
AcDb2dPolyline
 66
     1
 10
0.0
 20
0.0
 30
0.0
  0
VERTEX
  5
36A
330
369
100
AcDbEntity
  8
\U+30EC\U+30A4\U+30E4\U+30FC 1
 62
   250
420
  2234388
370
     9
100
AcDbVertex
100
AcDb2dVertex
 10
897.6787109375
 20
650.73974609375
 30
0.0
  0
VERTEX
  5
36B
330
369
100
AcDbEntity
  8
\U+30EC\U+30A4\U+30E4\U+30FC 1
 62
   250
420
  2234388
370
     9
100
AcDbVertex
100
AcDb2dVertex
 10
907.7744140625
 20
650.73974609375
 30
0.0
  0
SEQEND
  5
36C
330
369
100
AcDbEntity
  8
\U+30EC\U+30A4\U+30E4\U+30FC 1
370
     9
  0
POLYLINE
  5
36D
330
30F
100
AcDbEntity
  8
\U+30EC\U+30A4\U+30E4\U+30FC 1
 62
   250
420
  2234388
370
     9
100
AcDb2dPolyline
 66
     1
 10
0.0
 20
0.0
 30
0.0
  0
VERTEX
  5
36E
330
36D
100
AcDbEntity
  8
\U+30EC\U+30A4\U+30E4\U+30FC 1
 62
   250
420
  2234388
370
     9
100
AcDbVertex
100
AcDb2dVertex
 10
897.6787109375
 20
648.34228515625
 30
0.0
  0
VERTEX
  5
36F
330
36D
100
AcDbEntity
  8
\U+30EC\U+30A4\U+30E4\U+30FC 1
 62
   250
420
  2234388
370
     9
100
AcDbVertex
100
AcDb2dVertex
 10
907.7744140625
 20
648.34228515625
 30
0.0
  0
SEQEND
  5
370
330
36D
100
AcDbEntity
  8
\U+30EC\U+30A4\U+30E4\U+30FC 1
370
     9
  0
POLYLINE
  5
371
330
30F
100
AcDbEntity
  8
\U+30EC\U+30A4\U+30E4\U+30FC 1
 62
   250
420
  2234388
370
     9
100
AcDb2dPolyline
 66
     1
 10
0.0
 20
0.0
 30
0.0
  0
VERTEX
  5
372
330
371
100
AcDbEntity
  8
\U+30EC\U+30A4\U+30E4\U+30FC 1
 62
   250
420
  2234388
370
     9
100
AcDbVertex
100
AcDb2dVertex
 10
897.6787109375
 20
645.98095703125
 30
0.0
  0
VERTEX
  5
373
330
371
100
AcDbEntity
  8
\U+30EC\U+30A4\U+30E4\U+30FC 1
 62
   250
420
  2234388
370
     9
100
AcDbVertex
100
AcDb2dVertex
 10
907.7744140625
 20
645.98095703125
 30
0.0
  0
SEQEND
  5
374
330
371
100
AcDbEntity
  8
\U+30EC\U+30A4\U+30E4\U+30FC 1
370
     9
  0
POLYLINE
  5
375
330
30F
100
AcDbEntity
  8
\U+30EC\U+30A4\U+30E4\U+30FC 1
 62
   250
420
  2234388
370
     9
100
AcDb2dPolyline
 66
     1
 10
0.0
 20
0.0
 30
0.0
  0
VERTEX
  5
376
330
375
100
AcDbEntity
  8
\U+30EC\U+30A4\U+30E4\U+30FC 1
 62
   250
420
  2234388
370
     9
100
AcDbVertex
100
AcDb2dVertex
 10
897.6787109375
 20
643.67236328125
 30
0.0
  0
VERTEX
  5
377
330
375
100
AcDbEntity
  8
\U+30EC\U+30A4\U+30E4\U+30FC 1
 62
   250
420
  2234388
370
     9
100
AcDbVertex
100
AcDb2dVertex
 10
907.7744140625
 20
643.67236328125
 30
0.0
  0
SEQEND
  5
378
330
375
100
AcDbEntity
  8
\U+30EC\U+30A4\U+30E4\U+30FC 1
370
     9
  0
POLYLINE
  5
379
330
30F
100
AcDbEntity
  8
\U+30EC\U+30A4\U+30E4\U+30FC 1
 62
   250
420
  2234388
370
     9
100
AcDb2dPolyline
 66
     1
 10
0.0
 20
0.0
 30
0.0
  0
VERTEX
  5
37A
330
379
100
AcDbEntity
  8
\U+30EC\U+30A4\U+30E4\U+30FC 1
 62
   250
420
  2234388
370
     9
100
AcDbVertex
100
AcDb2dVertex
 10
897.6787109375
 20
641.41943359375
 30
0.0
  0
VERTEX
  5
37B
330
379
100
AcDbEntity
  8
\U+30EC\U+30A4\U+30E4\U+30FC 1
 62
   250
420
  2234388
370
     9
100
AcDbVertex
100
AcDb2dVertex
 10
907.7744140625
 20
641.41943359375
 30
0.0
  0
SEQEND
  5
37C
330
379
100
AcDbEntity
  8
\U+30EC\U+30A4\U+30E4\U+30FC 1
370
     9
  0
POLYLINE
  5
37D
330
30F
100
AcDbEntity
  8
\U+30EC\U+30A4\U+30E4\U+30FC 1
 62
   250
420
  2234388
370
     9
100
AcDb2dPolyline
 66
     1
 10
0.0
 20
0.0
 30
0.0
  0
VERTEX
  5
37E
330
37D
100
AcDbEntity
  8
\U+30EC\U+30A4\U+30E4\U+30FC 1
 62
   250
420
  2234388
370
     9
100
AcDbVertex
100
AcDb2dVertex
 10
897.6787109375
 20
639.22900390625
 30
0.0
  0
VERTEX
  5
37F
330
37D
100
AcDbEntity
  8
\U+30EC\U+30A4\U+30E4\U+30FC 1
 62
   250
420
  2234388
370
     9
100
AcDbVertex
100
AcDb2dVertex
 10
907.7744140625
 20
639.22900390625
 30
0.0
  0
SEQEND
  5
380
330
37D
100
AcDbEntity
  8
\U+30EC\U+30A4\U+30E4\U+30FC 1
370
     9
  0
POLYLINE
  5
381
330
30F
100
AcDbEntity
  8
\U+30EC\U+30A4\U+30E4\U+30FC 1
 62
   250
420
  2234388
370
     9
100
AcDb2dPolyline
 66
     1
 10
0.0
 20
0.0
 30
0.0
  0
VERTEX
  5
382
330
381
100
AcDbEntity
  8
\U+30EC\U+30A4\U+30E4\U+30FC 1
 62
   250
420
  2234388
370
     9
100
AcDbVertex
100
AcDb2dVertex
 10
897.6787109375
 20
637.11767578125
 30
0.0
  0
VERTEX
  5
383
330
381
100
AcDbEntity
  8
\U+30EC\U+30A4\U+30E4\U+30FC 1
 62
   250
420
  2234388
370
     9
100
AcDbVertex
100
AcDb2dVertex
 10
907.7744140625
 20
637.11767578125
 30
0.0
  0
SEQEND
  5
384
330
381
100
AcDbEntity
  8
\U+30EC\U+30A4\U+30E4\U+30FC 1
370
     9
  0
POLYLINE
  5
385
330
30F
100
AcDbEntity
  8
\U+30EC\U+30A4\U+30E4\U+30FC 1
 62
   250
420
  2234388
370
     9
100
AcDb2dPolyline
 66
     1
 10
0.0
 20
0.0
 30
0.0
  0
VERTEX
  5
386
330
385
100
AcDbEntity
  8
\U+30EC\U+30A4\U+30E4\U+30FC 1
 62
   250
420
  2234388
370
     9
100
AcDbVertex
100
AcDb2dVertex
 10
897.6787109375
 20
635.08642578125
 30
0.0
  0
VERTEX
  5
387
330
385
100
AcDbEntity
  8
\U+30EC\U+30A4\U+30E4\U+30FC 1
 62
   250
420
  2234388
370
     9
100
AcDbVertex
100
AcDb2dVertex
 10
907.7744140625
 20
635.08642578125
 30
0.0
  0
SEQEND
  5
388
330
385
100
AcDbEntity
  8
\U+30EC\U+30A4\U+30E4\U+30FC 1
370
     9
  0
POLYLINE
  5
389
330
30F
100
AcDbEntity
  8
\U+30EC\U+30A4\U+30E4\U+30FC 1
 62
   250
420
  2234388
370
     9
100
AcDb2dPolyline
 66
     1
 10
0.0
 20
0.0
 30
0.0
  0
VERTEX
  5
38A
330
389
100
AcDbEntity
  8
\U+30EC\U+30A4\U+30E4\U+30FC 1
 62
   250
420
  2234388
370
     9
100
AcDbVertex
100
AcDb2dVertex
 10
897.6787109375
 20
633.14306640625
 30
0.0
  0
VERTEX
  5
38B
330
389
100
AcDbEntity
  8
\U+30EC\U+30A4\U+30E4\U+30FC 1
 62
   250
420
  2234388
370
     9
100
AcDbVertex
100
AcDb2dVertex
 10
907.7744140625
 20
633.14306640625
 30
0.0
  0
SEQEND
  5
38C
330
389
100
AcDbEntity
  8
\U+30EC\U+30A4\U+30E4\U+30FC 1
370
     9
  0
POLYLINE
  5
38D
330
30F
100
AcDbEntity
  8
\U+30EC\U+30A4\U+30E4\U+30FC 1
 62
   250
420
  2234388
370
     9
100
AcDb2dPolyline
 66
     1
 10
0.0
 20
0.0
 30
0.0
  0
VERTEX
  5
38E
330
38D
100
AcDbEntity
  8
\U+30EC\U+30A4\U+30E4\U+30FC 1
 62
   250
420
  2234388
370
     9
100
AcDbVertex
100
AcDb2dVertex
 10
897.6787109375
 20
631.30322265625
 30
0.0
  0
VERTEX
  5
38F
330
38D
100
AcDbEntity
  8
\U+30EC\U+30A4\U+30E4\U+30FC 1
 62
   250
420
  2234388
370
     9
100
AcDbVertex
100
AcDb2dVertex
 10
907.7744140625
 20
631.30322265625
 30
0.0
  0
SEQEND
  5
390
330
38D
100
AcDbEntity
  8
\U+30EC\U+30A4\U+30E4\U+30FC 1
370
     9
  0
POLYLINE
  5
391
330
30F
100
AcDbEntity
  8
\U+30EC\U+30A4\U+30E4\U+30FC 1
 62
   250
420
  2234388
370
     9
100
AcDb2dPolyline
 66
     1
 10
0.0
 20
0.0
 30
0.0
  0
VERTEX
  5
392
330
391
100
AcDbEntity
  8
\U+30EC\U+30A4\U+30E4\U+30FC 1
 62
   250
420
  2234388
370
     9
100
AcDbVertex
100
AcDb2dVertex
 10
897.6787109375
 20
629.56396484375
 30
0.0
  0
VERTEX
  5
393
330
391
100
AcDbEntity
  8
\U+30EC\U+30A4\U+30E4\U+30FC 1
 62
   250
420
  2234388
370
     9
100
AcDbVertex
100
AcDb2dVertex
 10
907.7744140625
 20
629.56396484375
 30
0.0
  0
SEQEND
  5
394
330
391
100
AcDbEntity
  8
\U+30EC\U+30A4\U+30E4\U+30FC 1
370
     9
  0
POLYLINE
  5
395
330
30F
100
AcDbEntity
  8
\U+30EC\U+30A4\U+30E4\U+30FC 1
 62
   250
420
  2234388
370
     9
100
AcDb2dPolyline
 66
     1
 10
0.0
 20
0.0
 30
0.0
  0
VERTEX
  5
396
330
395
100
AcDbEntity
  8
\U+30EC\U+30A4\U+30E4\U+30FC 1
 62
   250
420
  2234388
370
     9
100
AcDbVertex
100
AcDb2dVertex
 10
897.6787109375
 20
627.93994140625
 30
0.0
  0
VERTEX
  5
397
330
395
100
AcDbEntity
  8
\U+30EC\U+30A4\U+30E4\U+30FC 1
 62
   250
420
  2234388
370
     9
100
AcDbVertex
100
AcDb2dVertex
 10
907.7744140625
 20
627.93994140625
 30
0.0
  0
SEQEND
  5
398
330
395
100
AcDbEntity
  8
\U+30EC\U+30A4\U+30E4\U+30FC 1
370
     9
  0
POLYLINE
  5
399
330
30F
100
AcDbEntity
  8
\U+30EC\U+30A4\U+30E4\U+30FC 1
 62
   250
420
  2234388
370
     9
100
AcDb2dPolyline
 66
     1
 10
0.0
 20
0.0
 30
0.0
  0
VERTEX
  5
39A
330
399
100
AcDbEntity
  8
\U+30EC\U+30A4\U+30E4\U+30FC 1
 62
   250
420
  2234388
370
     9
100
AcDbVertex
100
AcDb2dVertex
 10
897.6787109375
 20
626.43505859375
 30
0.0
  0
VERTEX
  5
39B
330
399
100
AcDbEntity
  8
\U+30EC\U+30A4\U+30E4\U+30FC 1
 62
   250
420
  2234388
370
     9
100
AcDbVertex
100
AcDb2dVertex
 10
907.7744140625
 20
626.43505859375
 30
0.0
  0
SEQEND
  5
39C
330
399
100
AcDbEntity
  8
\U+30EC\U+30A4\U+30E4\U+30FC 1
370
     9
  0
POLYLINE
  5
39D
330
30F
100
AcDbEntity
  8
\U+30EC\U+30A4\U+30E4\U+30FC 1
 62
   250
420
  2234388
370
     9
100
AcDb2dPolyline
 66
     1
 10
0.0
 20
0.0
 30
0.0
  0
VERTEX
  5
39E
330
39D
100
AcDbEntity
  8
\U+30EC\U+30A4\U+30E4\U+30FC 1
 62
   250
420
  2234388
370
     9
100
AcDbVertex
100
AcDb2dVertex
 10
897.6787109375
 20
625.05322265625
 30
0.0
  0
VERTEX
  5
39F
330
39D
100
AcDbEntity
  8
\U+30EC\U+30A4\U+30E4\U+30FC 1
 62
   250
420
  2234388
370
     9
100
AcDbVertex
100
AcDb2dVertex
 10
907.7744140625
 20
625.05322265625
 30
0.0
  0
SEQEND
  5
3A0
330
39D
100
AcDbEntity
  8
\U+30EC\U+30A4\U+30E4\U+30FC 1
370
     9
  0
POLYLINE
  5
3A1
330
30F
100
AcDbEntity
  8
\U+30EC\U+30A4\U+30E4\U+30FC 1
 62
   250
420
  2234388
370
     9
100
AcDb2dPolyline
 66
     1
 10
0.0
 20
0.0
 30
0.0
  0
VERTEX
  5
3A2
330
3A1
100
AcDbEntity
  8
\U+30EC\U+30A4\U+30E4\U+30FC 1
 62
   250
420
  2234388
370
     9
100
AcDbVertex
100
AcDb2dVertex
 10
897.6787109375
 20
623.80517578125
 30
0.0
  0
VERTEX
  5
3A3
330
3A1
100
AcDbEntity
  8
\U+30EC\U+30A4\U+30E4\U+30FC 1
 62
   250
420
  2234388
370
     9
100
AcDbVertex
100
AcDb2dVertex
 10
907.7744140625
 20
623.80517578125
 30
0.0
  0
SEQEND
  5
3A4
330
3A1
100
AcDbEntity
  8
\U+30EC\U+30A4\U+30E4\U+30FC 1
370
     9
  0
POLYLINE
  5
3A5
330
30F
100
AcDbEntity
  8
\U+30EC\U+30A4\U+30E4\U+30FC 1
 62
   250
420
  2234388
370
     9
100
AcDb2dPolyline
 66
     1
 10
0.0
 20
0.0
 30
0.0
  0
VERTEX
  5
3A6
330
3A5
100
AcDbEntity
  8
\U+30EC\U+30A4\U+30E4\U+30FC 1
 62
   250
420
  2234388
370
     9
100
AcDbVertex
100
AcDb2dVertex
 10
897.6787109375
 20
622.68798828125
 30
0.0
  0
VERTEX
  5
3A7
330
3A5
100
AcDbEntity
  8
\U+30EC\U+30A4\U+30E4\U+30FC 1
 62
   250
420
  2234388
370
     9
100
AcDbVertex
100
AcDb2dVertex
 10
907.7744140625
 20
622.68798828125
 30
0.0
  0
SEQEND
  5
3A8
330
3A5
100
AcDbEntity
  8
\U+30EC\U+30A4\U+30E4\U+30FC 1
370
     9
  0
POLYLINE
  5
3A9
330
30F
100
AcDbEntity
  8
\U+30EC\U+30A4\U+30E4\U+30FC 1
 62
   250
420
  2234388
370
     9
100
AcDb2dPolyline
 66
     1
 10
0.0
 20
0.0
 30
0.0
  0
VERTEX
  5
3AA
330
3A9
100
AcDbEntity
  8
\U+30EC\U+30A4\U+30E4\U+30FC 1
 62
   250
420
  2234388
370
     9
100
AcDbVertex
100
AcDb2dVertex
 10
897.6787109375
 20
621.71435546875
 30
0.0
  0
VERTEX
  5
3AB
330
3A9
100
AcDbEntity
  8
\U+30EC\U+30A4\U+30E4\U+30FC 1
 62
   250
420
  2234388
370
     9
100
AcDbVertex
100
AcDb2dVertex
 10
907.7744140625
 20
621.71435546875
 30
0.0
  0
SEQEND
  5
3AC
330
3A9
100
AcDbEntity
  8
\U+30EC\U+30A4\U+30E4\U+30FC 1
370
     9
  0
POLYLINE
  5
3AD
330
30F
100
AcDbEntity
  8
\U+30EC\U+30A4\U+30E4\U+30FC 1
 62
   250
420
  2234388
370
     9
100
AcDb2dPolyline
 66
     1
 10
0.0
 20
0.0
 30
0.0
  0
VERTEX
  5
3AE
330
3AD
100
AcDbEntity
  8
\U+30EC\U+30A4\U+30E4\U+30FC 1
 62
   250
420
  2234388
370
     9
100
AcDbVertex
100
AcDb2dVertex
 10
897.6787109375
 20
620.88232421875
 30
0.0
  0
VERTEX
  5
3AF
330
3AD
100
AcDbEntity
  8
\U+30EC\U+30A4\U+30E4\U+30FC 1
 62
   250
420
  2234388
370
     9
100
AcDbVertex
100
AcDb2dVertex
 10
907.7744140625
 20
620.88232421875
 30
0.0
  0
SEQEND
  5
3B0
330
3AD
100
AcDbEntity
  8
\U+30EC\U+30A4\U+30E4\U+30FC 1
370
     9
  0
POLYLINE
  5
3B1
330
30F
100
AcDbEntity
  8
\U+30EC\U+30A4\U+30E4\U+30FC 1
 62
   250
420
  2234388
370
     9
100
AcDb2dPolyline
 66
     1
 10
0.0
 20
0.0
 30
0.0
  0
VERTEX
  5
3B2
330
3B1
100
AcDbEntity
  8
\U+30EC\U+30A4\U+30E4\U+30FC 1
 62
   250
420
  2234388
370
     9
100
AcDbVertex
100
AcDb2dVertex
 10
897.6787109375
 20
620.19580078125
 30
0.0
  0
VERTEX
  5
3B3
330
3B1
100
AcDbEntity
  8
\U+30EC\U+30A4\U+30E4\U+30FC 1
 62
   250
420
  2234388
370
     9
100
AcDbVertex
100
AcDb2dVertex
 10
907.7744140625
 20
620.19580078125
 30
0.0
  0
SEQEND
  5
3B4
330
3B1
100
AcDbEntity
  8
\U+30EC\U+30A4\U+30E4\U+30FC 1
370
     9
  0
POLYLINE
  5
3B5
330
30F
100
AcDbEntity
  8
\U+30EC\U+30A4\U+30E4\U+30FC 1
 62
   250
420
  2234388
370
     9
100
AcDb2dPolyline
 66
     1
 10
0.0
 20
0.0
 30
0.0
  0
VERTEX
  5
3B6
330
3B5
100
AcDbEntity
  8
\U+30EC\U+30A4\U+30E4\U+30FC 1
 62
   250
420
  2234388
370
     9
100
AcDbVertex
100
AcDb2dVertex
 10
897.6787109375
 20
619.66064453125
 30
0.0
  0
VERTEX
  5
3B7
330
3B5
100
AcDbEntity
  8
\U+30EC\U+30A4\U+30E4\U+30FC 1
 62
   250
420
  2234388
370
     9
100
AcDbVertex
100
AcDb2dVertex
 10
907.7744140625
 20
619.66064453125
 30
0.0
  0
SEQEND
  5
3B8
330
3B5
100
AcDbEntity
  8
\U+30EC\U+30A4\U+30E4\U+30FC 1
370
     9
  0
POLYLINE
  5
3B9
330
30F
100
AcDbEntity
  8
\U+30EC\U+30A4\U+30E4\U+30FC 1
 62
   250
420
  2234388
370
     9
100
AcDb2dPolyline
 66
     1
 10
0.0
 20
0.0
 30
0.0
  0
VERTEX
  5
3BA
330
3B9
100
AcDbEntity
  8
\U+30EC\U+30A4\U+30E4\U+30FC 1
 62
   250
420
  2234388
370
     9
100
AcDbVertex
100
AcDb2dVertex
 10
897.6787109375
 20
619.27587890625
 30
0.0
  0
VERTEX
  5
3BB
330
3B9
100
AcDbEntity
  8
\U+30EC\U+30A4\U+30E4\U+30FC 1
 62
   250
420
  2234388
370
     9
100
AcDbVertex
100
AcDb2dVertex
 10
907.7744140625
 20
619.27587890625
 30
0.0
  0
SEQEND
  5
3BC
330
3B9
100
AcDbEntity
  8
\U+30EC\U+30A4\U+30E4\U+30FC 1
370
     9
  0
POLYLINE
  5
3BD
330
30F
100
AcDbEntity
  8
\U+30EC\U+30A4\U+30E4\U+30FC 1
 62
   250
420
  2234388
370
     9
100
AcDb2dPolyline
 66
     1
 10
0.0
 20
0.0
 30
0.0
  0
VERTEX
  5
3BE
330
3BD
100
AcDbEntity
  8
\U+30EC\U+30A4\U+30E4\U+30FC 1
 62
   250
420
  2234388
370
     9
100
AcDbVertex
100
AcDb2dVertex
 10
897.6787109375
 20
619.04638671875
 30
0.0
  0
VERTEX
  5
3BF
330
3BD
100
AcDbEntity
  8
\U+30EC\U+30A4\U+30E4\U+30FC 1
 62
   250
420
  2234388
370
     9
100
AcDbVertex
100
AcDb2dVertex
 10
907.7744140625
 20
619.04638671875
 30
0.0
  0
SEQEND
  5
3C0
330
3BD
100
AcDbEntity
  8
\U+30EC\U+30A4\U+30E4\U+30FC 1
370
     9
  0
POLYLINE
  5
3C1
330
30F
100
AcDbEntity
  8
\U+30EC\U+30A4\U+30E4\U+30FC 1
 62
   250
420
  2234388
370
     9
100
AcDb2dPolyline
 66
     1
 10
0.0
 20
0.0
 30
0.0
  0
VERTEX
  5
3C2
330
3C1
100
AcDbEntity
  8
\U+30EC\U+30A4\U+30E4\U+30FC 1
 62
   250
420
  2234388
370
     9
100
AcDbVertex
100
AcDb2dVertex
 10
897.6787109375
 20
697.16162109375
 30
0.0
  0
VERTEX
  5
3C3
330
3C1
100
AcDbEntity
  8
\U+30EC\U+30A4\U+30E4\U+30FC 1
 62
   250
420
  2234388
370
     9
100
AcDbVertex
100
AcDb2dVertex
 10
896.419921875
 20
695.9013671875
 30
0.0
  0
SEQEND
  5
3C4
330
3C1
100
AcDbEntity
  8
\U+30EC\U+30A4\U+30E4\U+30FC 1
370
     9
  0
POLYLINE
  5
3C5
330
30F
100
AcDbEntity
  8
\U+30EC\U+30A4\U+30E4\U+30FC 1
 62
   250
420
  2234388
370
     9
100
AcDb2dPolyline
 66
     1
 10
0.0
 20
0.0
 30
0.0
  0
VERTEX
  5
3C6
330
3C5
100
AcDbEntity
  8
\U+30EC\U+30A4\U+30E4\U+30FC 1
 62
   250
420
  2234388
370
     9
100
AcDbVertex
100
AcDb2dVertex
 10
897.6787109375
 20
618.97021484375
 30
0.0
  0
VERTEX
  5
3C7
330
3C5
100
AcDbEntity
  8
\U+30EC\U+30A4\U+30E4\U+30FC 1
 62
   250
420
  2234388
370
     9
100
AcDbVertex
100
AcDb2dVertex
 10
896.419921875
 20
620.22998046875
 30
0.0
  0
SEQEND
  5
3C8
330
3C5
100
AcDbEntity
  8
\U+30EC\U+30A4\U+30E4\U+30FC 1
370
     9
  0
POLYLINE
  5
3C9
330
30F
100
AcDbEntity
  8
\U+30EC\U+30A4\U+30E4\U+30FC 1
 62
   250
420
  2234388
370
     9
100
AcDb2dPolyline
 66
     1
 10
0.0
 20
0.0
 30
0.0
  0
VERTEX
  5
3CA
330
3C9
100
AcDbEntity
  8
\U+30EC\U+30A4\U+30E4\U+30FC 1
 62
   250
420
  2234388
370
     9
100
AcDbVertex
100
AcDb2dVertex
 10
909.0322265625
 20
695.27099609375
 30
0.0
  0
VERTEX
  5
3CB
330
3C9
100
AcDbEntity
  8
\U+30EC\U+30A4\U+30E4\U+30FC 1
 62
   250
420
  2234388
370
     9
100
AcDbVertex
100
AcDb2dVertex
 10
920.3828125
 20
695.27099609375
 30
0.0
  0
SEQEND
  5
3CC
330
3C9
100
AcDbEntity
  8
\U+30EC\U+30A4\U+30E4\U+30FC 1
370
     9
  0
POLYLINE
  5
3CD
330
30F
100
AcDbEntity
  8
\U+30EC\U+30A4\U+30E4\U+30FC 1
 62
   250
420
  2234388
370
     9
100
AcDb2dPolyline
 66
     1
 10
0.0
 20
0.0
 30
0.0
  0
VERTEX
  5
3CE
330
3CD
100
AcDbEntity
  8
\U+30EC\U+30A4\U+30E4\U+30FC 1
 62
   250
420
  2234388
370
     9
100
AcDbVertex
100
AcDb2dVertex
 10
909.0322265625
 20
695.27099609375
 30
0.0
  0
VERTEX
  5
3CF
330
3CD
100
AcDbEntity
  8
\U+30EC\U+30A4\U+30E4\U+30FC 1
 62
   250
420
  2234388
370
     9
100
AcDbVertex
100
AcDb2dVertex
 10
907.7744140625
 20
697.162109375
 30
0.0
  0
SEQEND
  5
3D0
330
3CD
100
AcDbEntity
  8
\U+30EC\U+30A4\U+30E4\U+30FC 1
370
     9
  0
POLYLINE
  5
3D1
330
30F
100
AcDbEntity
  8
\U+30EC\U+30A4\U+30E4\U+30FC 1
 62
   250
420
  2234388
370
     9
100
AcDb2dPolyline
 66
     1
 10
0.0
 20
0.0
 30
0.0
  0
VERTEX
  5
3D2
330
3D1
100
AcDbEntity
  8
\U+30EC\U+30A4\U+30E4\U+30FC 1
 62
   250
420
  2234388
370
     9
100
AcDbVertex
100
AcDb2dVertex
 10
920.3828125
 20
695.27099609375
 30
0.0
  0
VERTEX
  5
3D3
330
3D1
100
AcDbEntity
  8
\U+30EC\U+30A4\U+30E4\U+30FC 1
 62
   250
420
  2234388
370
     9
100
AcDbVertex
100
AcDb2dVertex
 10
921.64453125
 20
694.005859375
 30
0.0
  0
SEQEND
  5
3D4
330
3D1
100
AcDbEntity
  8
\U+30EC\U+30A4\U+30E4\U+30FC 1
370
     9
  0
POLYLINE
  5
3D5
330
30F
100
AcDbEntity
  8
\U+30EC\U+30A4\U+30E4\U+30FC 1
 62
   250
420
  2234388
370
     9
100
AcDb2dPolyline
 66
     1
 10
0.0
 20
0.0
 30
0.0
  0
VERTEX
  5
3D6
330
3D5
100
AcDbEntity
  8
\U+30EC\U+30A4\U+30E4\U+30FC 1
 62
   250
420
  2234388
370
     9
100
AcDbVertex
100
AcDb2dVertex
 10
921.64453125
 20
694.00634765625
 30
0.0
  0
VERTEX
  5
3D7
330
3D5
100
AcDbEntity
  8
\U+30EC\U+30A4\U+30E4\U+30FC 1
 62
   250
420
  2234388
370
     9
100
AcDbVertex
100
AcDb2dVertex
 10
921.64453125
 20
688.33203125
 30
0.0
  0
SEQEND
  5
3D8
330
3D5
100
AcDbEntity
  8
\U+30EC\U+30A4\U+30E4\U+30FC 1
370
     9
  0
POLYLINE
  5
3D9
330
30F
100
AcDbEntity
  8
\U+30EC\U+30A4\U+30E4\U+30FC 1
 62
   250
420
  2234388
370
     9
100
AcDb2dPolyline
 66
     1
 10
0.0
 20
0.0
 30
0.0
  0
VERTEX
  5
3DA
330
3D9
100
AcDbEntity
  8
\U+30EC\U+30A4\U+30E4\U+30FC 1
 62
   250
420
  2234388
370
     9
100
AcDbVertex
100
AcDb2dVertex
 10
919.12109375
 20
690.85595703125
 30
0.0
  0
VERTEX
  5
3DB
330
3D9
100
AcDbEntity
  8
\U+30EC\U+30A4\U+30E4\U+30FC 1
 62
   250
420
  2234388
370
     9
100
AcDbVertex
100
AcDb2dVertex
 10
919.12109375
 20
658.06591796875
 30
0.0
  0
SEQEND
  5
3DC
330
3D9
100
AcDbEntity
  8
\U+30EC\U+30A4\U+30E4\U+30FC 1
370
     9
  0
POLYLINE
  5
3DD
330
30F
100
AcDbEntity
  8
\U+30EC\U+30A4\U+30E4\U+30FC 1
 62
   250
420
  2234388
370
     9
100
AcDb2dPolyline
 66
     1
 10
0.0
 20
0.0
 30
0.0
  0
VERTEX
  5
3DE
330
3DD
100
AcDbEntity
  8
\U+30EC\U+30A4\U+30E4\U+30FC 1
 62
   250
420
  2234388
370
     9
100
AcDbVertex
100
AcDb2dVertex
 10
906.505859375
 20
690.85595703125
 30
0.0
  0
VERTEX
  5
3DF
330
3DD
100
AcDbEntity
  8
\U+30EC\U+30A4\U+30E4\U+30FC 1
 62
   250
420
  2234388
370
     9
100
AcDbVertex
100
AcDb2dVertex
 10
919.12109375
 20
690.85595703125
 30
0.0
  0
SEQEND
  5
3E0
330
3DD
100
AcDbEntity
  8
\U+30EC\U+30A4\U+30E4\U+30FC 1
370
     9
  0
POLYLINE
  5
3E1
330
30F
100
AcDbEntity
  8
\U+30EC\U+30A4\U+30E4\U+30FC 1
 62
   250
420
  2234388
370
     9
100
AcDb2dPolyline
 66
     1
 10
0.0
 20
0.0
 30
0.0
  0
VERTEX
  5
3E2
330
3E1
100
AcDbEntity
  8
\U+30EC\U+30A4\U+30E4\U+30FC 1
 62
   250
420
  2234388
370
     9
100
AcDbVertex
100
AcDb2dVertex
 10
906.505859375
 20
690.85595703125
 30
0.0
  0
VERTEX
  5
3E3
330
3E1
100
AcDbEntity
  8
\U+30EC\U+30A4\U+30E4\U+30FC 1
 62
   250
420
  2234388
370
     9
100
AcDbVertex
100
AcDb2dVertex
 10
906.505859375
 20
658.06591796875
 30
0.0
  0
SEQEND
  5
3E4
330
3E1
100
AcDbEntity
  8
\U+30EC\U+30A4\U+30E4\U+30FC 1
370
     9
  0
POLYLINE
  5
3E5
330
30F
100
AcDbEntity
  8
\U+30EC\U+30A4\U+30E4\U+30FC 1
 62
   250
420
  2234388
370
     9
100
AcDb2dPolyline
 66
     1
 10
0.0
 20
0.0
 30
0.0
  0
VERTEX
  5
3E6
330
3E5
100
AcDbEntity
  8
\U+30EC\U+30A4\U+30E4\U+30FC 1
 62
   250
420
  2234388
370
     9
100
AcDbVertex
100
AcDb2dVertex
 10
907.7744140625
 20
658.06591796875
 30
0.0
  0
VERTEX
  5
3E7
330
3E5
100
AcDbEntity
  8
\U+30EC\U+30A4\U+30E4\U+30FC 1
 62
   250
420
  2234388
370
     9
100
AcDbVertex
100
AcDb2dVertex
 10
907.7744140625
 20
618.9697265625
 30
0.0
  0
SEQEND
  5
3E8
330
3E5
100
AcDbEntity
  8
\U+30EC\U+30A4\U+30E4\U+30FC 1
370
     9
  0
POLYLINE
  5
3E9
330
30F
100
AcDbEntity
  8
\U+30EC\U+30A4\U+30E4\U+30FC 1
 62
   250
420
  2234388
370
     9
100
AcDb2dPolyline
 66
     1
 10
0.0
 20
0.0
 30
0.0
  0
VERTEX
  5
3EA
330
3E9
100
AcDbEntity
  8
\U+30EC\U+30A4\U+30E4\U+30FC 1
 62
   250
420
  2234388
370
     9
100
AcDbVertex
100
AcDb2dVertex
 10
909.0322265625
 20
620.86083984375
 30
0.0
  0
VERTEX
  5
3EB
330
3E9
100
AcDbEntity
  8
\U+30EC\U+30A4\U+30E4\U+30FC 1
 62
   250
420
  2234388
370
     9
100
AcDbVertex
100
AcDb2dVertex
 10
907.7744140625
 20
618.9697265625
 30
0.0
  0
SEQEND
  5
3EC
330
3E9
100
AcDbEntity
  8
\U+30EC\U+30A4\U+30E4\U+30FC 1
370
     9
  0
POLYLINE
  5
3ED
330
30F
100
AcDbEntity
  8
\U+30EC\U+30A4\U+30E4\U+30FC 1
 62
   250
420
  2234388
370
     9
100
AcDb2dPolyline
 66
     1
 10
0.0
 20
0.0
 30
0.0
  0
VERTEX
  5
3EE
330
3ED
100
AcDbEntity
  8
\U+30EC\U+30A4\U+30E4\U+30FC 1
 62
   250
420
  2234388
370
     9
100
AcDbVertex
100
AcDb2dVertex
 10
909.0322265625
 20
620.86083984375
 30
0.0
  0
VERTEX
  5
3EF
330
3ED
100
AcDbEntity
  8
\U+30EC\U+30A4\U+30E4\U+30FC 1
 62
   250
420
  2234388
370
     9
100
AcDbVertex
100
AcDb2dVertex
 10
920.3828125
 20
620.86083984375
 30
0.0
  0
SEQEND
  5
3F0
330
3ED
100
AcDbEntity
  8
\U+30EC\U+30A4\U+30E4\U+30FC 1
370
     9
  0
POLYLINE
  5
3F1
330
30F
100
AcDbEntity
  8
\U+30EC\U+30A4\U+30E4\U+30FC 1
 62
   250
420
  2234388
370
     9
100
AcDb2dPolyline
 66
     1
 10
0.0
 20
0.0
 30
0.0
  0
VERTEX
  5
3F2
330
3F1
100
AcDbEntity
  8
\U+30EC\U+30A4\U+30E4\U+30FC 1
 62
   250
420
  2234388
370
     9
100
AcDbVertex
100
AcDb2dVertex
 10
921.64453125
 20
622.12158203125
 30
0.0
  0
VERTEX
  5
3F3
330
3F1
100
AcDbEntity
  8
\U+30EC\U+30A4\U+30E4\U+30FC 1
 62
   250
420
  2234388
370
     9
100
AcDbVertex
100
AcDb2dVertex
 10
921.64453125
 20
658.0654296875
 30
0.0
  0
SEQEND
  5
3F4
330
3F1
100
AcDbEntity
  8
\U+30EC\U+30A4\U+30E4\U+30FC 1
370
     9
  0
POLYLINE
  5
3F5
330
30F
100
AcDbEntity
  8
\U+30EC\U+30A4\U+30E4\U+30FC 1
 62
   250
420
  2234388
370
     9
100
AcDb2dPolyline
 66
     1
 10
0.0
 20
0.0
 30
0.0
  0
VERTEX
  5
3F6
330
3F5
100
AcDbEntity
  8
\U+30EC\U+30A4\U+30E4\U+30FC 1
 62
   250
420
  2234388
370
     9
100
AcDbVertex
100
AcDb2dVertex
 10
920.3828125
 20
620.86083984375
 30
0.0
  0
VERTEX
  5
3F7
330
3F5
100
AcDbEntity
  8
\U+30EC\U+30A4\U+30E4\U+30FC 1
 62
   250
420
  2234388
370
     9
100
AcDbVertex
100
AcDb2dVertex
 10
920.3828125
 20
658.06591796875
 30
0.0
  0
SEQEND
  5
3F8
330
3F5
100
AcDbEntity
  8
\U+30EC\U+30A4\U+30E4\U+30FC 1
370
     9
  0
POLYLINE
  5
3F9
330
30F
100
AcDbEntity
  8
\U+30EC\U+30A4\U+30E4\U+30FC 1
 62
   250
420
  2234388
370
     9
100
AcDb2dPolyline
 66
     1
 10
0.0
 20
0.0
 30
0.0
  0
VERTEX
  5
3FA
330
3F9
100
AcDbEntity
  8
\U+30EC\U+30A4\U+30E4\U+30FC 1
 62
   250
420
  2234388
370
     9
100
AcDbVertex
100
AcDb2dVertex
 10
921.64453125
 20
622.12158203125
 30
0.0
  0
VERTEX
  5
3FB
330
3F9
100
AcDbEntity
  8
\U+30EC\U+30A4\U+30E4\U+30FC 1
 62
   250
420
  2234388
370
     9
100
AcDbVertex
100
AcDb2dVertex
 10
920.3828125
 20
620.8603515625
 30
0.0
  0
SEQEND
  5
3FC
330
3F9
100
AcDbEntity
  8
\U+30EC\U+30A4\U+30E4\U+30FC 1
370
     9
  0
POLYLINE
  5
3FD
330
30F
100
AcDbEntity
  8
\U+30EC\U+30A4\U+30E4\U+30FC 1
 62
   250
420
  2234388
370
     9
100
AcDb2dPolyline
 66
     1
 10
0.0
 20
0.0
 30
0.0
  0
VERTEX
  5
3FE
330
3FD
100
AcDbEntity
  8
\U+30EC\U+30A4\U+30E4\U+30FC 1
 62
   250
420
  2234388
370
     9
100
AcDbVertex
100
AcDb2dVertex
 10
919.373046875
 20
686.44384765625
 30
0.0
  0
VERTEX
  5
3FF
330
3FD
100
AcDbEntity
  8
\U+30EC\U+30A4\U+30E4\U+30FC 1
 62
   250
420
  2234388
370
     9
100
AcDbVertex
100
AcDb2dVertex
 10
919.12109375
 20
686.69189453125
 30
0.0
  0
SEQEND
  5
400
330
3FD
100
AcDbEntity
  8
\U+30EC\U+30A4\U+30E4\U+30FC 1
370
     9
  0
POLYLINE
  5
401
330
30F
100
AcDbEntity
  8
\U+30EC\U+30A4\U+30E4\U+30FC 1
 62
   250
420
  2234388
370
     9
100
AcDb2dPolyline
 66
     1
 10
0.0
 20
0.0
 30
0.0
  0
VERTEX
  5
402
330
401
100
AcDbEntity
  8
\U+30EC\U+30A4\U+30E4\U+30FC 1
 62
   250
420
  2234388
370
     9
100
AcDbVertex
100
AcDb2dVertex
 10
931.7333984375
 20
686.69189453125
 30
0.0
  0
VERTEX
  5
403
330
401
100
AcDbEntity
  8
\U+30EC\U+30A4\U+30E4\U+30FC 1
 62
   250
420
  2234388
370
     9
100
AcDbVertex
100
AcDb2dVertex
 10
931.4814453125
 20
686.44384765625
 30
0.0
  0
SEQEND
  5
404
330
401
100
AcDbEntity
  8
\U+30EC\U+30A4\U+30E4\U+30FC 1
370
     9
  0
POLYLINE
  5
405
330
30F
100
AcDbEntity
  8
\U+30EC\U+30A4\U+30E4\U+30FC 1
 62
   250
420
  2234388
370
     9
100
AcDb2dPolyline
 66
     1
 10
0.0
 20
0.0
 30
0.0
  0
VERTEX
  5
406
330
405
100
AcDbEntity
  8
\U+30EC\U+30A4\U+30E4\U+30FC 1
 62
   250
420
  2234388
370
     9
100
AcDbVertex
100
AcDb2dVertex
 10
924.2900390625
 20
627.79736328125
 30
0.0
  0
VERTEX
  5
407
330
405
100
AcDbEntity
  8
\U+30EC\U+30A4\U+30E4\U+30FC 1
 62
   250
420
  2234388
370
     9
100
AcDbVertex
100
AcDb2dVertex
 10
926.0546875
 20
626.0322265625
 30
0.0
  0
SEQEND
  5
408
330
405
100
AcDbEntity
  8
\U+30EC\U+30A4\U+30E4\U+30FC 1
370
     9
  0
POLYLINE
  5
409
330
30F
100
AcDbEntity
  8
\U+30EC\U+30A4\U+30E4\U+30FC 1
 62
   250
420
  2234388
370
     9
100
AcDb2dPolyline
 66
     1
 10
0.0
 20
0.0
 30
0.0
  0
VERTEX
  5
40A
330
409
100
AcDbEntity
  8
\U+30EC\U+30A4\U+30E4\U+30FC 1
 62
   250
420
  2234388
370
     9
100
AcDbVertex
100
AcDb2dVertex
 10
929.96484375
 20
626.03271484375
 30
0.0
  0
VERTEX
  5
40B
330
409
100
AcDbEntity
  8
\U+30EC\U+30A4\U+30E4\U+30FC 1
 62
   250
420
  2234388
370
     9
100
AcDbVertex
100
AcDb2dVertex
 10
931.7333984375
 20
627.7978515625
 30
0.0
  0
SEQEND
  5
40C
330
409
100
AcDbEntity
  8
\U+30EC\U+30A4\U+30E4\U+30FC 1
370
     9
  0
POLYLINE
  5
40D
330
30F
100
AcDbEntity
  8
\U+30EC\U+30A4\U+30E4\U+30FC 1
 62
   250
420
  2234388
370
     9
100
AcDb2dPolyline
 66
     1
 10
0.0
 20
0.0
 30
0.0
  0
VERTEX
  5
40E
330
40D
100
AcDbEntity
  8
\U+30EC\U+30A4\U+30E4\U+30FC 1
 62
   250
420
  2234388
370
     9
100
AcDbVertex
100
AcDb2dVertex
 10
931.7333984375
 20
688.33251953125
 30
0.0
  0
VERTEX
  5
40F
330
40D
100
AcDbEntity
  8
\U+30EC\U+30A4\U+30E4\U+30FC 1
 62
   250
420
  2234388
370
     9
100
AcDbVertex
100
AcDb2dVertex
 10
929.96484375
 20
690.099609375
 30
0.0
  0
SEQEND
  5
410
330
40D
100
AcDbEntity
  8
\U+30EC\U+30A4\U+30E4\U+30FC 1
370
     9
  0
POLYLINE
  5
411
330
30F
100
AcDbEntity
  8
\U+30EC\U+30A4\U+30E4\U+30FC 1
 62
   250
420
  2234388
370
     9
100
AcDb2dPolyline
 66
     1
 10
0.0
 20
0.0
 30
0.0
  0
VERTEX
  5
412
330
411
100
AcDbEntity
  8
\U+30EC\U+30A4\U+30E4\U+30FC 1
 62
   250
420
  2234388
370
     9
100
AcDbVertex
100
AcDb2dVertex
 10
926.0546875
 20
690.09912109375
 30
0.0
  0
VERTEX
  5
413
330
411
100
AcDbEntity
  8
\U+30EC\U+30A4\U+30E4\U+30FC 1
 62
   250
420
  2234388
370
     9
100
AcDbVertex
100
AcDb2dVertex
 10
924.2900390625
 20
688.33203125
 30
0.0
  0
SEQEND
  5
414
330
411
100
AcDbEntity
  8
\U+30EC\U+30A4\U+30E4\U+30FC 1
370
     9
  0
POLYLINE
  5
415
330
30F
100
AcDbEntity
  8
\U+30EC\U+30A4\U+30E4\U+30FC 1
 62
   250
420
  2234388
370
     9
100
AcDb2dPolyline
 66
     1
 10
0.0
 20
0.0
 30
0.0
  0
VERTEX
  5
416
330
415
100
AcDbEntity
  8
\U+30EC\U+30A4\U+30E4\U+30FC 1
 62
   250
420
  2234388
370
     9
100
AcDbVertex
100
AcDb2dVertex
 10
896.419921875
 20
690.60400390625
 30
0.0
  0
VERTEX
  5
417
330
415
100
AcDbEntity
  8
\U+30EC\U+30A4\U+30E4\U+30FC 1
 62
   250
420
  2234388
370
     9
100
AcDbVertex
100
AcDb2dVertex
 10
897.93359375
 20
689.0908203125
 30
0.0
  0
SEQEND
  5
418
330
415
100
AcDbEntity
  8
\U+30EC\U+30A4\U+30E4\U+30FC 1
370
     9
  0
POLYLINE
  5
419
330
30F
100
AcDbEntity
  8
\U+30EC\U+30A4\U+30E4\U+30FC 1
  6
AI-Linetype-10
 62
   250
420
  2234388
370
     9
100
AcDb2dPolyline
 66
     1
 10
0.0
 20
0.0
 30
0.0
  0
VERTEX
  5
41A
330
419
100
AcDbEntity
  8
\U+30EC\U+30A4\U+30E4\U+30FC 1
  6
AI-Linetype-10
 62
   250
420
  2234388
370
     9
100
AcDbVertex
100
AcDb2dVertex
 10
890.109375
 20
658.06591796875
 30
0.0
  0
VERTEX
  5
41B
330
419
100
AcDbEntity
  8
\U+30EC\U+30A4\U+30E4\U+30FC 1
  6
AI-Linetype-10
 62
   250
420
  2234388
370
     9
100
AcDbVertex
100
AcDb2dVertex
 10
936.875
 20
658.06591796875
 30
0.0
  0
SEQEND
  5
41C
330
419
100
AcDbEntity
  8
\U+30EC\U+30A4\U+30E4\U+30FC 1
  6
AI-Linetype-10
370
     9
  0
POLYLINE
  5
41E
330
30F
100
AcDbEntity
  8
\U+30EC\U+30A4\U+30E4\U+30FC 1
 62
   250
420
  2234388
370
     9
100
AcDb2dPolyline
 66
     1
 10
0.0
 20
0.0
 30
0.0
  0
VERTEX
  5
41F
330
41E
100
AcDbEntity
  8
\U+30EC\U+30A4\U+30E4\U+30FC 1
 62
   250
420
  2234388
370
     9
100
AcDbVertex
100
AcDb2dVertex
 10
928.166015625
 20
686.44384765625
 30
0.0
  0
VERTEX
  5
420
330
41E
100
AcDbEntity
  8
\U+30EC\U+30A4\U+30E4\U+30FC 1
 62
   250
420
  2234388
370
     9
100
AcDbVertex
100
AcDb2dVertex
 10
930.896484375
 20
689.169921875
 30
0.0
  0
SEQEND
  5
421
330
41E
100
AcDbEntity
  8
\U+30EC\U+30A4\U+30E4\U+30FC 1
370
     9
  0
POLYLINE
  5
422
330
30F
100
AcDbEntity
  8
\U+30EC\U+30A4\U+30E4\U+30FC 1
 62
   250
420
  2234388
370
     9
100
AcDb2dPolyline
 66
     1
 10
0.0
 20
0.0
 30
0.0
  0
VERTEX
  5
423
330
422
100
AcDbEntity
  8
\U+30EC\U+30A4\U+30E4\U+30FC 1
 62
   250
420
  2234388
370
     9
100
AcDbVertex
100
AcDb2dVertex
 10
924.599609375
 20
686.44384765625
 30
0.0
  0
VERTEX
  5
424
330
422
100
AcDbEntity
  8
\U+30EC\U+30A4\U+30E4\U+30FC 1
 62
   250
420
  2234388
370
     9
100
AcDbVertex
100
AcDb2dVertex
 10
928.2548828125
 20
690.0986328125
 30
0.0
  0
SEQEND
  5
425
330
422
100
AcDbEntity
  8
\U+30EC\U+30A4\U+30E4\U+30FC 1
370
     9
  0
POLYLINE
  5
426
330
30F
100
AcDbEntity
  8
\U+30EC\U+30A4\U+30E4\U+30FC 1
 62
   250
420
  2234388
370
     9
100
AcDb2dPolyline
 66
     1
 10
0.0
 20
0.0
 30
0.0
  0
VERTEX
  5
427
330
426
100
AcDbEntity
  8
\U+30EC\U+30A4\U+30E4\U+30FC 1
 62
   250
420
  2234388
370
     9
100
AcDbVertex
100
AcDb2dVertex
 10
921.0361328125
 20
686.44384765625
 30
0.0
  0
VERTEX
  5
428
330
426
100
AcDbEntity
  8
\U+30EC\U+30A4\U+30E4\U+30FC 1
 62
   250
420
  2234388
370
     9
100
AcDbVertex
100
AcDb2dVertex
 10
922.919921875
 20
688.3330078125
 30
0.0
  0
SEQEND
  5
429
330
426
100
AcDbEntity
  8
\U+30EC\U+30A4\U+30E4\U+30FC 1
370
     9
  0
POLYLINE
  5
42A
330
30F
100
AcDbEntity
  8
\U+30EC\U+30A4\U+30E4\U+30FC 1
 62
   250
420
  2234388
370
     9
100
AcDb2dPolyline
 66
     1
 10
0.0
 20
0.0
 30
0.0
  0
VERTEX
  5
42B
330
42A
100
AcDbEntity
  8
\U+30EC\U+30A4\U+30E4\U+30FC 1
 62
   250
420
  2234388
370
     9
100
AcDbVertex
100
AcDb2dVertex
 10
919.12109375
 20
688.10009765625
 30
0.0
  0
VERTEX
  5
42C
330
42A
100
AcDbEntity
  8
\U+30EC\U+30A4\U+30E4\U+30FC 1
 62
   250
420
  2234388
370
     9
100
AcDbVertex
100
AcDb2dVertex
 10
921.64453125
 20
690.6201171875
 30
0.0
  0
SEQEND
  5
42D
330
42A
100
AcDbEntity
  8
\U+30EC\U+30A4\U+30E4\U+30FC 1
370
     9
  0
POLYLINE
  5
42E
330
30F
100
AcDbEntity
  8
\U+30EC\U+30A4\U+30E4\U+30FC 1
 62
   250
420
  2234388
370
     9
100
AcDb2dPolyline
 66
     1
 10
0.0
 20
0.0
 30
0.0
  0
VERTEX
  5
42F
330
42E
100
AcDbEntity
  8
\U+30EC\U+30A4\U+30E4\U+30FC 1
 62
   250
420
  2234388
370
     9
100
AcDbVertex
100
AcDb2dVertex
 10
918.30859375
 20
690.85595703125
 30
0.0
  0
VERTEX
  5
430
330
42E
100
AcDbEntity
  8
\U+30EC\U+30A4\U+30E4\U+30FC 1
 62
   250
420
  2234388
370
     9
100
AcDbVertex
100
AcDb2dVertex
 10
921.552734375
 20
694.09619140625
 30
0.0
  0
SEQEND
  5
431
330
42E
100
AcDbEntity
  8
\U+30EC\U+30A4\U+30E4\U+30FC 1
370
     9
  0
POLYLINE
  5
432
330
30F
100
AcDbEntity
  8
\U+30EC\U+30A4\U+30E4\U+30FC 1
 62
   250
420
  2234388
370
     9
100
AcDb2dPolyline
 66
     1
 10
0.0
 20
0.0
 30
0.0
  0
VERTEX
  5
433
330
432
100
AcDbEntity
  8
\U+30EC\U+30A4\U+30E4\U+30FC 1
 62
   250
420
  2234388
370
     9
100
AcDbVertex
100
AcDb2dVertex
 10
914.7412109375
 20
690.85595703125
 30
0.0
  0
VERTEX
  5
434
330
432
100
AcDbEntity
  8
\U+30EC\U+30A4\U+30E4\U+30FC 1
 62
   250
420
  2234388
370
     9
100
AcDbVertex
100
AcDb2dVertex
 10
919.1552734375
 20
695.27099609375
 30
0.0
  0
SEQEND
  5
435
330
432
100
AcDbEntity
  8
\U+30EC\U+30A4\U+30E4\U+30FC 1
370
     9
  0
POLYLINE
  5
436
330
30F
100
AcDbEntity
  8
\U+30EC\U+30A4\U+30E4\U+30FC 1
 62
   250
420
  2234388
370
     9
100
AcDb2dPolyline
 66
     1
 10
0.0
 20
0.0
 30
0.0
  0
VERTEX
  5
437
330
436
100
AcDbEntity
  8
\U+30EC\U+30A4\U+30E4\U+30FC 1
 62
   250
420
  2234388
370
     9
100
AcDbVertex
100
AcDb2dVertex
 10
911.177734375
 20
690.85595703125
 30
0.0
  0
VERTEX
  5
438
330
436
100
AcDbEntity
  8
\U+30EC\U+30A4\U+30E4\U+30FC 1
 62
   250
420
  2234388
370
     9
100
AcDbVertex
100
AcDb2dVertex
 10
915.591796875
 20
695.27099609375
 30
0.0
  0
SEQEND
  5
439
330
436
100
AcDbEntity
  8
\U+30EC\U+30A4\U+30E4\U+30FC 1
370
     9
  0
POLYLINE
  5
43A
330
30F
100
AcDbEntity
  8
\U+30EC\U+30A4\U+30E4\U+30FC 1
 62
   250
420
  2234388
370
     9
100
AcDb2dPolyline
 66
     1
 10
0.0
 20
0.0
 30
0.0
  0
VERTEX
  5
43B
330
43A
100
AcDbEntity
  8
\U+30EC\U+30A4\U+30E4\U+30FC 1
 62
   250
420
  2234388
370
     9
100
AcDbVertex
100
AcDb2dVertex
 10
907.607421875
 20
690.85595703125
 30
0.0
  0
VERTEX
  5
43C
330
43A
100
AcDbEntity
  8
\U+30EC\U+30A4\U+30E4\U+30FC 1
 62
   250
420
  2234388
370
     9
100
AcDbVertex
100
AcDb2dVertex
 10
912.0244140625
 20
695.27099609375
 30
0.0
  0
SEQEND
  5
43D
330
43A
100
AcDbEntity
  8
\U+30EC\U+30A4\U+30E4\U+30FC 1
370
     9
  0
POLYLINE
  5
43E
330
30F
100
AcDbEntity
  8
\U+30EC\U+30A4\U+30E4\U+30FC 1
 62
   250
420
  2234388
370
     9
100
AcDb2dPolyline
 66
     1
 10
0.0
 20
0.0
 30
0.0
  0
VERTEX
  5
43F
330
43E
100
AcDbEntity
  8
\U+30EC\U+30A4\U+30E4\U+30FC 1
 62
   250
420
  2234388
370
     9
100
AcDbVertex
100
AcDb2dVertex
 10
902.275390625
 20
689.09130859375
 30
0.0
  0
VERTEX
  5
440
330
43E
100
AcDbEntity
  8
\U+30EC\U+30A4\U+30E4\U+30FC 1
 62
   250
420
  2234388
370
     9
100
AcDbVertex
100
AcDb2dVertex
 10
908.80078125
 20
695.6162109375
 30
0.0
  0
SEQEND
  5
441
330
43E
100
AcDbEntity
  8
\U+30EC\U+30A4\U+30E4\U+30FC 1
370
     9
  0
POLYLINE
  5
442
330
30F
100
AcDbEntity
  8
\U+30EC\U+30A4\U+30E4\U+30FC 1
 62
   250
420
  2234388
370
     9
100
AcDb2dPolyline
 66
     1
 10
0.0
 20
0.0
 30
0.0
  0
VERTEX
  5
443
330
442
100
AcDbEntity
  8
\U+30EC\U+30A4\U+30E4\U+30FC 1
 62
   250
420
  2234388
370
     9
100
AcDbVertex
100
AcDb2dVertex
 10
898.7119140625
 20
689.09130859375
 30
0.0
  0
VERTEX
  5
444
330
442
100
AcDbEntity
  8
\U+30EC\U+30A4\U+30E4\U+30FC 1
 62
   250
420
  2234388
370
     9
100
AcDbVertex
100
AcDb2dVertex
 10
906.78125
 20
697.1611328125
 30
0.0
  0
SEQEND
  5
445
330
442
100
AcDbEntity
  8
\U+30EC\U+30A4\U+30E4\U+30FC 1
370
     9
  0
POLYLINE
  5
446
330
30F
100
AcDbEntity
  8
\U+30EC\U+30A4\U+30E4\U+30FC 1
 62
   250
420
  2234388
370
     9
100
AcDb2dPolyline
 66
     1
 10
0.0
 20
0.0
 30
0.0
  0
VERTEX
  5
447
330
446
100
AcDbEntity
  8
\U+30EC\U+30A4\U+30E4\U+30FC 1
 62
   250
420
  2234388
370
     9
100
AcDbVertex
100
AcDb2dVertex
 10
896.419921875
 20
690.36572265625
 30
0.0
  0
VERTEX
  5
448
330
446
100
AcDbEntity
  8
\U+30EC\U+30A4\U+30E4\U+30FC 1
 62
   250
420
  2234388
370
     9
100
AcDbVertex
100
AcDb2dVertex
 10
903.2138671875
 20
697.16162109375
 30
0.0
  0
SEQEND
  5
449
330
446
100
AcDbEntity
  8
\U+30EC\U+30A4\U+30E4\U+30FC 1
370
     9
  0
POLYLINE
  5
44A
330
30F
100
AcDbEntity
  8
\U+30EC\U+30A4\U+30E4\U+30FC 1
 62
   250
420
  2234388
370
     9
100
AcDb2dPolyline
 66
     1
 10
0.0
 20
0.0
 30
0.0
  0
VERTEX
  5
44B
330
44A
100
AcDbEntity
  8
\U+30EC\U+30A4\U+30E4\U+30FC 1
 62
   250
420
  2234388
370
     9
100
AcDbVertex
100
AcDb2dVertex
 10
896.419921875
 20
693.93701171875
 30
0.0
  0
VERTEX
  5
44C
330
44A
100
AcDbEntity
  8
\U+30EC\U+30A4\U+30E4\U+30FC 1
 62
   250
420
  2234388
370
     9
100
AcDbVertex
100
AcDb2dVertex
 10
899.6474609375
 20
697.162109375
 30
0.0
  0
SEQEND
  5
44D
330
44A
100
AcDbEntity
  8
\U+30EC\U+30A4\U+30E4\U+30FC 1
370
     9
  0
POLYLINE
  5
44E
330
30F
100
AcDbEntity
  8
\U+30EC\U+30A4\U+30E4\U+30FC 1
370
     0
100
AcDb2dPolyline
 66
     1
 10
0.0
 20
0.0
 30
0.0
  0
VERTEX
  5
44F
330
44E
100
AcDbEntity
  8
\U+30EC\U+30A4\U+30E4\U+30FC 1
370
     0
100
AcDbVertex
100
AcDb2dVertex
 10
886.3515625
 20
694.634765625
 30
0.0
  0
VERTEX
  5
450
330
44E
100
AcDbEntity
  8
\U+30EC\U+30A4\U+30E4\U+30FC 1
370
     0
100
AcDbVertex
100
AcDb2dVertex
 10
885.4052734375
 20
694.99560546875
 30
0.0
  0
VERTEX
  5
451
330
44E
100
AcDbEntity
  8
\U+30EC\U+30A4\U+30E4\U+30FC 1
370
     0
100
AcDbVertex
100
AcDb2dVertex
 10
884.455078125
 20
694.634765625
 30
0.0
  0
VERTEX
  5
452
330
44E
100
AcDbEntity
  8
\U+30EC\U+30A4\U+30E4\U+30FC 1
370
     0
100
AcDbVertex
100
AcDb2dVertex
 10
885.4052734375
 20
696.53076171875
 30
0.0
  0
VERTEX
  5
453
330
44E
100
AcDbEntity
  8
\U+30EC\U+30A4\U+30E4\U+30FC 1
370
     0
100
AcDbVertex
100
AcDb2dVertex
 10
886.3515625
 20
694.634765625
 30
0.0
  0
SEQEND
  5
454
330
44E
100
AcDbEntity
  8
\U+30EC\U+30A4\U+30E4\U+30FC 1
370
     0
  0
HATCH
  5
455
330
30F
100
AcDbEntity
  8
\U+30EC\U+30A4\U+30E4\U+30FC 1
 62
   250
420
  2234388
100
AcDbHatch
 10
0.0
 20
0.0
 30
0.0
210
0.0
220
0.0
230
1.0
  2
SOLID
 70
     1
 71
     0
 91
        1
 92
        1
 93
        4
 72
     1
 10
886.3515625
 20
694.634765625
 11
885.4052734375
 21
694.99560546875
 72
     1
 10
885.4052734375
 20
694.99560546875
 11
884.455078125
 21
694.634765625
 72
     1
 10
884.455078125
 20
694.634765625
 11
885.4052734375
 21
696.53076171875
 72
     1
 10
885.4052734375
 20
696.53076171875
 11
886.3515625
 21
694.634765625
 97
        0
 75
     2
 76
     1
 98
        0
  0
POLYLINE
  5
456
330
30F
100
AcDbEntity
  8
\U+30EC\U+30A4\U+30E4\U+30FC 1
370
     0
100
AcDb2dPolyline
 66
     1
 10
0.0
 20
0.0
 30
0.0
  0
VERTEX
  5
457
330
456
100
AcDbEntity
  8
\U+30EC\U+30A4\U+30E4\U+30FC 1
370
     0
100
AcDbVertex
100
AcDb2dVertex
 10
884.4560546875
 20
621.44970703125
 30
0.0
  0
VERTEX
  5
458
330
456
100
AcDbEntity
  8
\U+30EC\U+30A4\U+30E4\U+30FC 1
370
     0
100
AcDbVertex
100
AcDb2dVertex
 10
885.4052734375
 20
621.0888671875
 30
0.0
  0
VERTEX
  5
459
330
456
100
AcDbEntity
  8
\U+30EC\U+30A4\U+30E4\U+30FC 1
370
     0
100
AcDbVertex
100
AcDb2dVertex
 10
886.3525390625
 20
621.44970703125
 30
0.0
  0
VERTEX
  5
45A
330
456
100
AcDbEntity
  8
\U+30EC\U+30A4\U+30E4\U+30FC 1
370
     0
100
AcDbVertex
100
AcDb2dVertex
 10
885.4052734375
 20
619.5537109375
 30
0.0
  0
VERTEX
  5
45B
330
456
100
AcDbEntity
  8
\U+30EC\U+30A4\U+30E4\U+30FC 1
370
     0
100
AcDbVertex
100
AcDb2dVertex
 10
884.4560546875
 20
621.44970703125
 30
0.0
  0
SEQEND
  5
45C
330
456
100
AcDbEntity
  8
\U+30EC\U+30A4\U+30E4\U+30FC 1
370
     0
  0
HATCH
  5
45D
330
30F
100
AcDbEntity
  8
\U+30EC\U+30A4\U+30E4\U+30FC 1
 62
   250
420
  2234388
100
AcDbHatch
 10
0.0
 20
0.0
 30
0.0
210
0.0
220
0.0
230
1.0
  2
SOLID
 70
     1
 71
     0
 91
        1
 92
        1
 93
        4
 72
     1
 10
884.4560546875
 20
621.44970703125
 11
885.4052734375
 21
621.0888671875
 72
     1
 10
885.4052734375
 20
621.0888671875
 11
886.3525390625
 21
621.44970703125
 72
     1
 10
886.3525390625
 20
621.44970703125
 11
885.4052734375
 21
619.5537109375
 72
     1
 10
885.4052734375
 20
619.5537109375
 11
884.4560546875
 21
621.44970703125
 97
        0
 75
     2
 76
     1
 98
        0
  0
POLYLINE
  5
45E
330
30F
100
AcDbEntity
  8
\U+30EC\U+30A4\U+30E4\U+30FC 1
370
     0
100
AcDb2dPolyline
 66
     1
 10
0.0
 20
0.0
 30
0.0
  0
VERTEX
  5
45F
330
45E
100
AcDbEntity
  8
\U+30EC\U+30A4\U+30E4\U+30FC 1
370
     0
100
AcDbVertex
100
AcDb2dVertex
 10
898.5048828125
 20
595.19970703125
 30
0.0
  0
VERTEX
  5
460
330
45E
100
AcDbEntity
  8
\U+30EC\U+30A4\U+30E4\U+30FC 1
370
     0
100
AcDbVertex
100
AcDb2dVertex
 10
898.142578125
 20
594.25146484375
 30
0.0
  0
VERTEX
  5
461
330
45E
100
AcDbEntity
  8
\U+30EC\U+30A4\U+30E4\U+30FC 1
370
     0
100
AcDbVertex
100
AcDb2dVertex
 10
898.5048828125
 20
593.3037109375
 30
0.0
  0
VERTEX
  5
462
330
45E
100
AcDbEntity
  8
\U+30EC\U+30A4\U+30E4\U+30FC 1
370
     0
100
AcDbVertex
100
AcDb2dVertex
 10
896.6083984375
 20
594.25146484375
 30
0.0
  0
VERTEX
  5
463
330
45E
100
AcDbEntity
  8
\U+30EC\U+30A4\U+30E4\U+30FC 1
370
     0
100
AcDbVertex
100
AcDb2dVertex
 10
898.5048828125
 20
595.19970703125
 30
0.0
  0
SEQEND
  5
464
330
45E
100
AcDbEntity
  8
\U+30EC\U+30A4\U+30E4\U+30FC 1
370
     0
  0
HATCH
  5
465
330
30F
100
AcDbEntity
  8
\U+30EC\U+30A4\U+30E4\U+30FC 1
 62
   250
420
  2234388
100
AcDbHatch
 10
0.0
 20
0.0
 30
0.0
210
0.0
220
0.0
230
1.0
  2
SOLID
 70
     1
 71
     0
 91
        1
 92
        1
 93
        4
 72
     1
 10
898.5048828125
 20
595.19970703125
 11
898.142578125
 21
594.25146484375
 72
     1
 10
898.142578125
 20
594.25146484375
 11
898.5048828125
 21
593.3037109375
 72
     1
 10
898.5048828125
 20
593.3037109375
 11
896.6083984375
 21
594.25146484375
 72
     1
 10
896.6083984375
 20
594.25146484375
 11
898.5048828125
 21
595.19970703125
 97
        0
 75
     2
 76
     1
 98
        0
  0
POLYLINE
  5
466
330
30F
100
AcDbEntity
  8
\U+30EC\U+30A4\U+30E4\U+30FC 1
370
     0
100
AcDb2dPolyline
 66
     1
 10
0.0
 20
0.0
 30
0.0
  0
VERTEX
  5
467
330
466
100
AcDbEntity
  8
\U+30EC\U+30A4\U+30E4\U+30FC 1
370
     0
100
AcDbVertex
100
AcDb2dVertex
 10
929.2294921875
 20
593.30322265625
 30
0.0
  0
VERTEX
  5
468
330
466
100
AcDbEntity
  8
\U+30EC\U+30A4\U+30E4\U+30FC 1
370
     0
100
AcDbVertex
100
AcDb2dVertex
 10
929.591796875
 20
594.2509765625
 30
0.0
  0
VERTEX
  5
469
330
466
100
AcDbEntity
  8
\U+30EC\U+30A4\U+30E4\U+30FC 1
370
     0
100
AcDbVertex
100
AcDb2dVertex
 10
929.2294921875
 20
595.19921875
 30
0.0
  0
VERTEX
  5
46A
330
466
100
AcDbEntity
  8
\U+30EC\U+30A4\U+30E4\U+30FC 1
370
     0
100
AcDbVertex
100
AcDb2dVertex
 10
931.125
 20
594.2509765625
 30
0.0
  0
VERTEX
  5
46B
330
466
100
AcDbEntity
  8
\U+30EC\U+30A4\U+30E4\U+30FC 1
370
     0
100
AcDbVertex
100
AcDb2dVertex
 10
929.2294921875
 20
593.30322265625
 30
0.0
  0
SEQEND
  5
46C
330
466
100
AcDbEntity
  8
\U+30EC\U+30A4\U+30E4\U+30FC 1
370
     0
  0
HATCH
  5
46D
330
30F
100
AcDbEntity
  8
\U+30EC\U+30A4\U+30E4\U+30FC 1
 62
   250
420
  2234388
100
AcDbHatch
 10
0.0
 20
0.0
 30
0.0
210
0.0
220
0.0
230
1.0
  2
SOLID
 70
     1
 71
     0
 91
        1
 92
        1
 93
        4
 72
     1
 10
929.2294921875
 20
593.30322265625
 11
929.591796875
 21
594.2509765625
 72
     1
 10
929.591796875
 20
594.2509765625
 11
929.2294921875
 21
595.19921875
 72
     1
 10
929.2294921875
 20
595.19921875
 11
931.125
 21
594.2509765625
 72
     1
 10
931.125
 20
594.2509765625
 11
929.2294921875
 21
593.30322265625
 97
        0
 75
     2
 76
     1
 98
        0
  0
POLYLINE
  5
46E
330
30F
100
AcDbEntity
  8
\U+30EC\U+30A4\U+30E4\U+30FC 1
370
     0
100
AcDb2dPolyline
 66
     1
 10
0.0
 20
0.0
 30
0.0
  0
VERTEX
  5
46F
330
46E
100
AcDbEntity
  8
\U+30EC\U+30A4\U+30E4\U+30FC 1
370
     0
100
AcDbVertex
100
AcDb2dVertex
 10
898.5048828125
 20
611.64404296875
 30
0.0
  0
VERTEX
  5
470
330
46E
100
AcDbEntity
  8
\U+30EC\U+30A4\U+30E4\U+30FC 1
370
     0
100
AcDbVertex
100
AcDb2dVertex
 10
898.142578125
 20
610.69580078125
 30
0.0
  0
VERTEX
  5
471
330
46E
100
AcDbEntity
  8
\U+30EC\U+30A4\U+30E4\U+30FC 1
370
     0
100
AcDbVertex
100
AcDb2dVertex
 10
898.5048828125
 20
609.748046875
 30
0.0
  0
VERTEX
  5
472
330
46E
100
AcDbEntity
  8
\U+30EC\U+30A4\U+30E4\U+30FC 1
370
     0
100
AcDbVertex
100
AcDb2dVertex
 10
896.6083984375
 20
610.69580078125
 30
0.0
  0
VERTEX
  5
473
330
46E
100
AcDbEntity
  8
\U+30EC\U+30A4\U+30E4\U+30FC 1
370
     0
100
AcDbVertex
100
AcDb2dVertex
 10
898.5048828125
 20
611.64404296875
 30
0.0
  0
SEQEND
  5
474
330
46E
100
AcDbEntity
  8
\U+30EC\U+30A4\U+30E4\U+30FC 1
370
     0
  0
HATCH
  5
475
330
30F
100
AcDbEntity
  8
\U+30EC\U+30A4\U+30E4\U+30FC 1
 62
   250
420
  2234388
100
AcDbHatch
 10
0.0
 20
0.0
 30
0.0
210
0.0
220
0.0
230
1.0
  2
SOLID
 70
     1
 71
     0
 91
        1
 92
        1
 93
        4
 72
     1
 10
898.5048828125
 20
611.64404296875
 11
898.142578125
 21
610.69580078125
 72
     1
 10
898.142578125
 20
610.69580078125
 11
898.5048828125
 21
609.748046875
 72
     1
 10
898.5048828125
 20
609.748046875
 11
896.6083984375
 21
610.69580078125
 72
     1
 10
896.6083984375
 20
610.69580078125
 11
898.5048828125
 21
611.64404296875
 97
        0
 75
     2
 76
     1
 98
        0
  0
POLYLINE
  5
476
330
30F
100
AcDbEntity
  8
\U+30EC\U+30A4\U+30E4\U+30FC 1
370
     0
100
AcDb2dPolyline
 66
     1
 10
0.0
 20
0.0
 30
0.0
  0
VERTEX
  5
477
330
476
100
AcDbEntity
  8
\U+30EC\U+30A4\U+30E4\U+30FC 1
370
     0
100
AcDbVertex
100
AcDb2dVertex
 10
934.11328125
 20
611.64404296875
 30
0.0
  0
VERTEX
  5
478
330
476
100
AcDbEntity
  8
\U+30EC\U+30A4\U+30E4\U+30FC 1
370
     0
100
AcDbVertex
100
AcDb2dVertex
 10
933.75390625
 20
610.69580078125
 30
0.0
  0
VERTEX
  5
479
330
476
100
AcDbEntity
  8
\U+30EC\U+30A4\U+30E4\U+30FC 1
370
     0
100
AcDbVertex
100
AcDb2dVertex
 10
934.11328125
 20
609.748046875
 30
0.0
  0
VERTEX
  5
47A
330
476
100
AcDbEntity
  8
\U+30EC\U+30A4\U+30E4\U+30FC 1
370
     0
100
AcDbVertex
100
AcDb2dVertex
 10
932.21875
 20
610.69580078125
 30
0.0
  0
VERTEX
  5
47B
330
476
100
AcDbEntity
  8
\U+30EC\U+30A4\U+30E4\U+30FC 1
370
     0
100
AcDbVertex
100
AcDb2dVertex
 10
934.11328125
 20
611.64404296875
 30
0.0
  0
SEQEND
  5
47C
330
476
100
AcDbEntity
  8
\U+30EC\U+30A4\U+30E4\U+30FC 1
370
     0
  0
HATCH
  5
47D
330
30F
100
AcDbEntity
  8
\U+30EC\U+30A4\U+30E4\U+30FC 1
 62
   250
420
  2234388
100
AcDbHatch
 10
0.0
 20
0.0
 30
0.0
210
0.0
220
0.0
230
1.0
  2
SOLID
 70
     1
 71
     0
 91
        1
 92
        1
 93
        4
 72
     1
 10
934.11328125
 20
611.64404296875
 11
933.75390625
 21
610.69580078125
 72
     1
 10
933.75390625
 20
610.69580078125
 11
934.11328125
 21
609.748046875
 72
     1
 10
934.11328125
 20
609.748046875
 11
932.21875
 21
610.69580078125
 72
     1
 10
932.21875
 20
610.69580078125
 11
934.11328125
 21
611.64404296875
 97
        0
 75
     2
 76
     1
 98
        0
  0
POLYLINE
  5
47E
330
30F
100
AcDbEntity
  8
\U+30EC\U+30A4\U+30E4\U+30FC 1
370
     0
100
AcDb2dPolyline
 66
     1
 10
0.0
 20
0.0
 30
0.0
  0
VERTEX
  5
47F
330
47E
100
AcDbEntity
  8
\U+30EC\U+30A4\U+30E4\U+30FC 1
370
     0
100
AcDbVertex
100
AcDb2dVertex
 10
919.291015625
 20
609.748046875
 30
0.0
  0
VERTEX
  5
480
330
47E
100
AcDbEntity
  8
\U+30EC\U+30A4\U+30E4\U+30FC 1
370
     0
100
AcDbVertex
100
AcDb2dVertex
 10
919.6533203125
 20
610.69580078125
 30
0.0
  0
VERTEX
  5
481
330
47E
100
AcDbEntity
  8
\U+30EC\U+30A4\U+30E4\U+30FC 1
370
     0
100
AcDbVertex
100
AcDb2dVertex
 10
919.291015625
 20
611.64404296875
 30
0.0
  0
VERTEX
  5
482
330
47E
100
AcDbEntity
  8
\U+30EC\U+30A4\U+30E4\U+30FC 1
370
     0
100
AcDbVertex
100
AcDb2dVertex
 10
921.189453125
 20
610.69580078125
 30
0.0
  0
VERTEX
  5
483
330
47E
100
AcDbEntity
  8
\U+30EC\U+30A4\U+30E4\U+30FC 1
370
     0
100
AcDbVertex
100
AcDb2dVertex
 10
919.291015625
 20
609.748046875
 30
0.0
  0
SEQEND
  5
484
330
47E
100
AcDbEntity
  8
\U+30EC\U+30A4\U+30E4\U+30FC 1
370
     0
  0
HATCH
  5
485
330
30F
100
AcDbEntity
  8
\U+30EC\U+30A4\U+30E4\U+30FC 1
 62
   250
420
  2234388
100
AcDbHatch
 10
0.0
 20
0.0
 30
0.0
210
0.0
220
0.0
230
1.0
  2
SOLID
 70
     1
 71
     0
 91
        1
 92
        1
 93
        4
 72
     1
 10
919.291015625
 20
609.748046875
 11
919.6533203125
 21
610.69580078125
 72
     1
 10
919.6533203125
 20
610.69580078125
 11
919.291015625
 21
611.64404296875
 72
     1
 10
919.291015625
 20
611.64404296875
 11
921.189453125
 21
610.69580078125
 72
     1
 10
921.189453125
 20
610.69580078125
 11
919.291015625
 21
609.748046875
 97
        0
 75
     2
 76
     1
 98
        0
  0
POLYLINE
  5
486
330
30F
100
AcDbEntity
  8
\U+30EC\U+30A4\U+30E4\U+30FC 1
 62
   250
420
  2234388
370
     9
100
AcDb2dPolyline
 66
     1
 10
0.0
 20
0.0
 30
0.0
  0
VERTEX
  5
487
330
486
100
AcDbEntity
  8
\U+30EC\U+30A4\U+30E4\U+30FC 1
 62
   250
420
  2234388
370
     9
100
AcDbVertex
100
AcDb2dVertex
 10
999.2958984375
 20
697.16162109375
 30
0.0
  0
VERTEX
  5
488
330
486
100
AcDbEntity
  8
\U+30EC\U+30A4\U+30E4\U+30FC 1
 62
   250
420
  2234388
370
     9
100
AcDbVertex
100
AcDb2dVertex
 10
985.689453125
 20
697.16162109375
 30
0.0
  0
SEQEND
  5
489
330
486
100
AcDbEntity
  8
\U+30EC\U+30A4\U+30E4\U+30FC 1
370
     9
  0
POLYLINE
  5
48A
330
30F
100
AcDbEntity
  8
\U+30EC\U+30A4\U+30E4\U+30FC 1
 62
   250
420
  2234388
370
     9
100
AcDb2dPolyline
 66
     1
 10
0.0
 20
0.0
 30
0.0
  0
VERTEX
  5
48B
330
48A
100
AcDbEntity
  8
\U+30EC\U+30A4\U+30E4\U+30FC 1
 62
   250
420
  2234388
370
     9
100
AcDbVertex
100
AcDb2dVertex
 10
999.2958984375
 20
618.97021484375
 30
0.0
  0
VERTEX
  5
48C
330
48A
100
AcDbEntity
  8
\U+30EC\U+30A4\U+30E4\U+30FC 1
 62
   250
420
  2234388
370
     9
100
AcDbVertex
100
AcDb2dVertex
 10
985.689453125
 20
618.97021484375
 30
0.0
  0
SEQEND
  5
48D
330
48A
100
AcDbEntity
  8
\U+30EC\U+30A4\U+30E4\U+30FC 1
370
     9
  0
POLYLINE
  5
48E
330
30F
100
AcDbEntity
  8
\U+30EC\U+30A4\U+30E4\U+30FC 1
 62
   250
420
  2234388
370
     9
100
AcDb2dPolyline
 66
     1
 10
0.0
 20
0.0
 30
0.0
  0
VERTEX
  5
48F
330
48E
100
AcDbEntity
  8
\U+30EC\U+30A4\U+30E4\U+30FC 1
 62
   250
420
  2234388
370
     9
100
AcDbVertex
100
AcDb2dVertex
 10
988.212890625
 20
695.7431640625
 30
0.0
  0
VERTEX
  5
490
330
48E
100
AcDbEntity
  8
\U+30EC\U+30A4\U+30E4\U+30FC 1
 62
   250
420
  2234388
370
     9
100
AcDbVertex
100
AcDb2dVertex
 10
988.212890625
 20
619.2939453125
 30
0.0
  0
SEQEND
  5
491
330
48E
100
AcDbEntity
  8
\U+30EC\U+30A4\U+30E4\U+30FC 1
370
     9
  0
POLYLINE
  5
492
330
30F
100
AcDbEntity
  8
\U+30EC\U+30A4\U+30E4\U+30FC 1
 62
   250
420
  2234388
370
     9
100
AcDb2dPolyline
 66
     1
 10
0.0
 20
0.0
 30
0.0
  0
VERTEX
  5
493
330
492
100
AcDbEntity
  8
\U+30EC\U+30A4\U+30E4\U+30FC 1
 62
   250
420
  2234388
370
     9
100
AcDbVertex
100
AcDb2dVertex
 10
1000.5576171875
 20
617.70654296875
 30
0.0
  0
VERTEX
  5
494
330
492
100
AcDbEntity
  8
\U+30EC\U+30A4\U+30E4\U+30FC 1
 62
   250
420
  2234388
370
     9
100
AcDbVertex
100
AcDb2dVertex
 10
1000.5576171875
 20
591.74658203125
 30
0.0
  0
SEQEND
  5
495
330
492
100
AcDbEntity
  8
\U+30EC\U+30A4\U+30E4\U+30FC 1
370
     9
  0
POLYLINE
  5
496
330
30F
100
AcDbEntity
  8
\U+30EC\U+30A4\U+30E4\U+30FC 1
 62
   250
420
  2234388
370
     9
100
AcDb2dPolyline
 66
     1
 10
0.0
 20
0.0
 30
0.0
  0
VERTEX
  5
497
330
496
100
AcDbEntity
  8
\U+30EC\U+30A4\U+30E4\U+30FC 1
 62
   250
420
  2234388
370
     9
100
AcDbVertex
100
AcDb2dVertex
 10
1061.083984375
 20
625.27392578125
 30
0.0
  0
VERTEX
  5
498
330
496
100
AcDbEntity
  8
\U+30EC\U+30A4\U+30E4\U+30FC 1
 62
   250
420
  2234388
370
     9
100
AcDbVertex
100
AcDb2dVertex
 10
1061.083984375
 20
591.7470703125
 30
0.0
  0
SEQEND
  5
499
330
496
100
AcDbEntity
  8
\U+30EC\U+30A4\U+30E4\U+30FC 1
370
     9
  0
POLYLINE
  5
49A
330
30F
100
AcDbEntity
  8
\U+30EC\U+30A4\U+30E4\U+30FC 1
 62
   250
420
  2234388
370
     9
100
AcDb2dPolyline
 66
     1
 10
0.0
 20
0.0
 30
0.0
  0
VERTEX
  5
49B
330
49A
100
AcDbEntity
  8
\U+30EC\U+30A4\U+30E4\U+30FC 1
 62
   250
420
  2234388
370
     9
100
AcDbVertex
100
AcDb2dVertex
 10
1000.5576171875
 20
594.27001953125
 30
0.0
  0
VERTEX
  5
49C
330
49A
100
AcDbEntity
  8
\U+30EC\U+30A4\U+30E4\U+30FC 1
 62
   250
420
  2234388
370
     9
100
AcDbVertex
100
AcDb2dVertex
 10
1059.5947265625
 20
594.27001953125
 30
0.0
  0
SEQEND
  5
49D
330
49A
100
AcDbEntity
  8
\U+30EC\U+30A4\U+30E4\U+30FC 1
370
     9
  0
POLYLINE
  5
49E
330
30F
100
AcDbEntity
  8
\U+30EC\U+30A4\U+30E4\U+30FC 1
 62
   250
420
  2234388
370
     9
100
AcDb2dPolyline
 66
     1
 10
0.0
 20
0.0
 30
0.0
  0
VERTEX
  5
49F
330
49E
100
AcDbEntity
  8
\U+30EC\U+30A4\U+30E4\U+30FC 1
 62
   250
420
  2234388
370
     9
100
AcDbVertex
100
AcDb2dVertex
 10
1000.5576171875
 20
617.70654296875
 30
0.0
  0
VERTEX
  5
4A0
330
49E
100
AcDbEntity
  8
\U+30EC\U+30A4\U+30E4\U+30FC 1
 62
   250
420
  2234388
370
     9
100
AcDbVertex
100
AcDb2dVertex
 10
1000.5576171875
 20
601.79150390625
 30
0.0
  0
SEQEND
  5
4A1
330
49E
100
AcDbEntity
  8
\U+30EC\U+30A4\U+30E4\U+30FC 1
370
     9
  0
POLYLINE
  5
4A2
330
30F
100
AcDbEntity
  8
\U+30EC\U+30A4\U+30E4\U+30FC 1
 62
   250
420
  2234388
370
     9
100
AcDb2dPolyline
 66
     1
 10
0.0
 20
0.0
 30
0.0
  0
VERTEX
  5
4A3
330
4A2
100
AcDbEntity
  8
\U+30EC\U+30A4\U+30E4\U+30FC 1
 62
   250
420
  2234388
370
     9
100
AcDbVertex
100
AcDb2dVertex
 10
1050.9990234375
 20
619.60107421875
 30
0.0
  0
VERTEX
  5
4A4
330
4A2
100
AcDbEntity
  8
\U+30EC\U+30A4\U+30E4\U+30FC 1
 62
   250
420
  2234388
370
     9
100
AcDbVertex
100
AcDb2dVertex
 10
1050.9990234375
 20
601.791015625
 30
0.0
  0
SEQEND
  5
4A5
330
4A2
100
AcDbEntity
  8
\U+30EC\U+30A4\U+30E4\U+30FC 1
370
     9
  0
POLYLINE
  5
4A6
330
30F
100
AcDbEntity
  8
\U+30EC\U+30A4\U+30E4\U+30FC 1
 62
   250
420
  2234388
370
     9
100
AcDb2dPolyline
 66
     1
 10
0.0
 20
0.0
 30
0.0
  0
VERTEX
  5
4A7
330
4A6
100
AcDbEntity
  8
\U+30EC\U+30A4\U+30E4\U+30FC 1
 62
   250
420
  2234388
370
     9
100
AcDbVertex
100
AcDb2dVertex
 10
1000.5576171875
 20
610.68994140625
 30
0.0
  0
VERTEX
  5
4A8
330
4A6
100
AcDbEntity
  8
\U+30EC\U+30A4\U+30E4\U+30FC 1
 62
   250
420
  2234388
370
     9
100
AcDbVertex
100
AcDb2dVertex
 10
1075.2373046875
 20
610.68994140625
 30
0.0
  0
SEQEND
  5
4A9
330
4A6
100
AcDbEntity
  8
\U+30EC\U+30A4\U+30E4\U+30FC 1
370
     9
  0
POLYLINE
  5
4AA
330
30F
100
AcDbEntity
  8
\U+30EC\U+30A4\U+30E4\U+30FC 1
 62
   250
420
  2234388
370
     9
100
AcDb2dPolyline
 66
     1
 10
0.0
 20
0.0
 30
0.0
  0
VERTEX
  5
4AB
330
4AA
100
AcDbEntity
  8
\U+30EC\U+30A4\U+30E4\U+30FC 1
 62
   250
420
  2234388
370
     9
100
AcDbVertex
100
AcDb2dVertex
 10
1050.9990234375
 20
619.60107421875
 30
0.0
  0
VERTEX
  5
4AC
330
4AA
100
AcDbEntity
  8
\U+30EC\U+30A4\U+30E4\U+30FC 1
 62
   250
420
  2234388
370
     9
100
AcDbVertex
100
AcDb2dVertex
 10
1050.9990234375
 20
608.1689453125
 30
0.0
  0
SEQEND
  5
4AD
330
4AA
100
AcDbEntity
  8
\U+30EC\U+30A4\U+30E4\U+30FC 1
370
     9
  0
POLYLINE
  5
4AE
330
30F
100
AcDbEntity
  8
\U+30EC\U+30A4\U+30E4\U+30FC 1
 62
   250
420
  2234388
370
     9
100
AcDb2dPolyline
 66
     1
 10
0.0
 20
0.0
 30
0.0
  0
VERTEX
  5
4AF
330
4AE
100
AcDbEntity
  8
\U+30EC\U+30A4\U+30E4\U+30FC 1
 62
   250
420
  2234388
370
     9
100
AcDbVertex
100
AcDb2dVertex
 10
1061.083984375
 20
625.27392578125
 30
0.0
  0
VERTEX
  5
4B0
330
4AE
100
AcDbEntity
  8
\U+30EC\U+30A4\U+30E4\U+30FC 1
 62
   250
420
  2234388
370
     9
100
AcDbVertex
100
AcDb2dVertex
 10
1061.083984375
 20
601.7919921875
 30
0.0
  0
SEQEND
  5
4B1
330
4AE
100
AcDbEntity
  8
\U+30EC\U+30A4\U+30E4\U+30FC 1
370
     9
  0
ENDBLK
  5
312
330
30F
100
AcDbEntity
  8
0
100
AcDbBlockEnd
  0
BLOCK
  5
4B8
330
4B6
100
AcDbEntity
  8
0
100
AcDbBlockBegin
  2
block 5
 70
     0
 71
     0
 10
0.0
 20
0.0
 30
0.0
  3
block 5
  1

  0
POLYLINE
  5
4BA
330
4B6
100
AcDbEntity
  8
\U+30EC\U+30A4\U+30E4\U+30FC 1
370
     0
100
AcDb2dPolyline
 66
     1
 10
0.0
 20
0.0
 30
0.0
  0
VERTEX
  5
4BB
330
4BA
100
AcDbEntity
  8
\U+30EC\U+30A4\U+30E4\U+30FC 1
370
     0
100
AcDbVertex
100
AcDb2dVertex
 10
0.0
 20
907.0
 30
0.0
  0
VERTEX
  5
4BC
330
4BA
100
AcDbEntity
  8
\U+30EC\U+30A4\U+30E4\U+30FC 1
370
     0
100
AcDbVertex
100
AcDb2dVertex
 10
1274.0
 20
907.0
 30
0.0
  0
VERTEX
  5
4BD
330
4BA
100
AcDbEntity
  8
\U+30EC\U+30A4\U+30E4\U+30FC 1
370
     0
100
AcDbVertex
100
AcDb2dVertex
 10
1274.0
 20
0.0
 30
0.0
  0
VERTEX
  5
4BE
330
4BA
100
AcDbEntity
  8
\U+30EC\U+30A4\U+30E4\U+30FC 1
370
     0
100
AcDbVertex
100
AcDb2dVertex
 10
0.0
 20
0.0
 30
0.0
  0
VERTEX
  5
4BF
330
4BA
100
AcDbEntity
  8
\U+30EC\U+30A4\U+30E4\U+30FC 1
370
     0
100
AcDbVertex
100
AcDb2dVertex
 10
0.0
 20
907.0
 30
0.0
  0
SEQEND
  5
4C0
330
4BA
100
AcDbEntity
  8
\U+30EC\U+30A4\U+30E4\U+30FC 1
370
     0
  0
POLYLINE
  5
4C1
330
4B6
100
AcDbEntity
  8
\U+30EC\U+30A4\U+30E4\U+30FC 1
 62
   250
420
  2234388
370
     9
100
AcDb2dPolyline
 66
     1
 10
0.0
 20
0.0
 30
0.0
  0
VERTEX
  5
4C2
330
4C1
100
AcDbEntity
  8
\U+30EC\U+30A4\U+30E4\U+30FC 1
 62
   250
420
  2234388
370
     9
100
AcDbVertex
100
AcDb2dVertex
 10
1008.8818359375
 20
689.09130859375
 30
0.0
  0
VERTEX
  5
4C3
330
4C1
100
AcDbEntity
  8
\U+30EC\U+30A4\U+30E4\U+30FC 1
 62
   250
420
  2234388
370
     9
100
AcDbVertex
100
AcDb2dVertex
 10
1010.646484375
 20
690.8564453125
 30
0.0
  0
SEQEND
  5
4C4
330
4C1
100
AcDbEntity
  8
\U+30EC\U+30A4\U+30E4\U+30FC 1
370
     9
  0
POLYLINE
  5
4C5
330
4B6
100
AcDbEntity
  8
\U+30EC\U+30A4\U+30E4\U+30FC 1
 62
   250
420
  2234388
370
     9
100
AcDb2dPolyline
 66
     1
 10
0.0
 20
0.0
 30
0.0
  0
VERTEX
  5
4C6
330
4C5
100
AcDbEntity
  8
\U+30EC\U+30A4\U+30E4\U+30FC 1
 62
   250
420
  2234388
370
     9
100
AcDbVertex
100
AcDb2dVertex
 10
1025.7783203125
 20
620.86083984375
 30
0.0
  0
VERTEX
  5
4C7
330
4C5
100
AcDbEntity
  8
\U+30EC\U+30A4\U+30E4\U+30FC 1
 62
   250
420
  2234388
370
     9
100
AcDbVertex
100
AcDb2dVertex
 10
1025.7783203125
 20
658.06591796875
 30
0.0
  0
SEQEND
  5
4C8
330
4C5
100
AcDbEntity
  8
\U+30EC\U+30A4\U+30E4\U+30FC 1
370
     9
  0
POLYLINE
  5
4C9
330
4B6
100
AcDbEntity
  8
\U+30EC\U+30A4\U+30E4\U+30FC 1
 62
   250
420
  2234388
370
     9
100
AcDb2dPolyline
 66
     1
 10
0.0
 20
0.0
 30
0.0
  0
VERTEX
  5
4CA
330
4C9
100
AcDbEntity
  8
\U+30EC\U+30A4\U+30E4\U+30FC 1
 62
   250
420
  2234388
370
     9
100
AcDbVertex
100
AcDb2dVertex
 10
1027.04296875
 20
697.16162109375
 30
0.0
  0
VERTEX
  5
4CB
330
4C9
100
AcDbEntity
  8
\U+30EC\U+30A4\U+30E4\U+30FC 1
 62
   250
420
  2234388
370
     9
100
AcDbVertex
100
AcDb2dVertex
 10
1001.818359375
 20
697.16162109375
 30
0.0
  0
SEQEND
  5
4CC
330
4C9
100
AcDbEntity
  8
\U+30EC\U+30A4\U+30E4\U+30FC 1
370
     9
  0
POLYLINE
  5
4CD
330
4B6
100
AcDbEntity
  8
\U+30EC\U+30A4\U+30E4\U+30FC 1
 62
   250
420
  2234388
370
     9
100
AcDb2dPolyline
 66
     1
 10
0.0
 20
0.0
 30
0.0
  0
VERTEX
  5
4CE
330
4CD
100
AcDbEntity
  8
\U+30EC\U+30A4\U+30E4\U+30FC 1
 62
   250
420
  2234388
370
     9
100
AcDbVertex
100
AcDb2dVertex
 10
1000.5576171875
 20
695.90185546875
 30
0.0
  0
VERTEX
  5
4CF
330
4CD
100
AcDbEntity
  8
\U+30EC\U+30A4\U+30E4\U+30FC 1
 62
   250
420
  2234388
370
     9
100
AcDbVertex
100
AcDb2dVertex
 10
1000.5576171875
 20
620.22998046875
 30
0.0
  0
SEQEND
  5
4D0
330
4CD
100
AcDbEntity
  8
\U+30EC\U+30A4\U+30E4\U+30FC 1
370
     9
  0
POLYLINE
  5
4D1
330
4B6
100
AcDbEntity
  8
\U+30EC\U+30A4\U+30E4\U+30FC 1
 62
   250
420
  2234388
370
     9
100
AcDb2dPolyline
 66
     1
 10
0.0
 20
0.0
 30
0.0
  0
VERTEX
  5
4D2
330
4D1
100
AcDbEntity
  8
\U+30EC\U+30A4\U+30E4\U+30FC 1
 62
   250
420
  2234388
370
     9
100
AcDbVertex
100
AcDb2dVertex
 10
1001.818359375
 20
618.97021484375
 30
0.0
  0
VERTEX
  5
4D3
330
4D1
100
AcDbEntity
  8
\U+30EC\U+30A4\U+30E4\U+30FC 1
 62
   250
420
  2234388
370
     9
100
AcDbVertex
100
AcDb2dVertex
 10
1024.51953125
 20
618.97021484375
 30
0.0
  0
SEQEND
  5
4D4
330
4D1
100
AcDbEntity
  8
\U+30EC\U+30A4\U+30E4\U+30FC 1
370
     9
  0
POLYLINE
  5
4D5
330
4B6
100
AcDbEntity
  8
\U+30EC\U+30A4\U+30E4\U+30FC 1
 62
   250
420
  2234388
370
     9
100
AcDb2dPolyline
 66
     1
 10
0.0
 20
0.0
 30
0.0
  0
VERTEX
  5
4D6
330
4D5
100
AcDbEntity
  8
\U+30EC\U+30A4\U+30E4\U+30FC 1
 62
   250
420
  2234388
370
     9
100
AcDbVertex
100
AcDb2dVertex
 10
1061.083984375
 20
627.79736328125
 30
0.0
  0
VERTEX
  5
4D7
330
4D5
100
AcDbEntity
  8
\U+30EC\U+30A4\U+30E4\U+30FC 1
 62
   250
420
  2234388
370
     9
100
AcDbVertex
100
AcDb2dVertex
 10
1061.083984375
 20
688.33251953125
 30
0.0
  0
SEQEND
  5
4D8
330
4D5
100
AcDbEntity
  8
\U+30EC\U+30A4\U+30E4\U+30FC 1
370
     9
  0
POLYLINE
  5
4D9
330
4B6
100
AcDbEntity
  8
\U+30EC\U+30A4\U+30E4\U+30FC 1
 62
   250
420
  2234388
370
     9
100
AcDb2dPolyline
 66
     1
 10
0.0
 20
0.0
 30
0.0
  0
VERTEX
  5
4DA
330
4D9
100
AcDbEntity
  8
\U+30EC\U+30A4\U+30E4\U+30FC 1
 62
   250
420
  2234388
370
     9
100
AcDbVertex
100
AcDb2dVertex
 10
1060.8330078125
 20
686.44384765625
 30
0.0
  0
VERTEX
  5
4DB
330
4D9
100
AcDbEntity
  8
\U+30EC\U+30A4\U+30E4\U+30FC 1
 62
   250
420
  2234388
370
     9
100
AcDbVertex
100
AcDb2dVertex
 10
1047.46875
 20
686.44384765625
 30
0.0
  0
SEQEND
  5
4DC
330
4D9
100
AcDbEntity
  8
\U+30EC\U+30A4\U+30E4\U+30FC 1
370
     9
  0
POLYLINE
  5
4DD
330
4B6
100
AcDbEntity
  8
\U+30EC\U+30A4\U+30E4\U+30FC 1
  6
AI-Linetype-11
 62
   250
420
  2234388
370
     9
100
AcDb2dPolyline
 66
     1
 10
0.0
 20
0.0
 30
0.0
  0
VERTEX
  5
4DE
330
4DD
100
AcDbEntity
  8
\U+30EC\U+30A4\U+30E4\U+30FC 1
  6
AI-Linetype-11
 62
   250
420
  2234388
370
     9
100
AcDbVertex
100
AcDb2dVertex
 10
1001.0634765625
 20
690.09912109375
 30
0.0
  0
VERTEX
  5
4DF
330
4DD
100
AcDbEntity
  8
\U+30EC\U+30A4\U+30E4\U+30FC 1
  6
AI-Linetype-11
 62
   250
420
  2234388
370
     9
100
AcDbVertex
100
AcDb2dVertex
 10
1009.8916015625
 20
690.09912109375
 30
0.0
  0
SEQEND
  5
4E0
330
4DD
100
AcDbEntity
  8
\U+30EC\U+30A4\U+30E4\U+30FC 1
  6
AI-Linetype-11
370
     9
  0
POLYLINE
  5
4E2
330
4B6
100
AcDbEntity
  8
\U+30EC\U+30A4\U+30E4\U+30FC 1
 62
   250
420
  2234388
370
     9
100
AcDb2dPolyline
 66
     1
 10
0.0
 20
0.0
 30
0.0
  0
VERTEX
  5
4E3
330
4E2
100
AcDbEntity
  8
\U+30EC\U+30A4\U+30E4\U+30FC 1
 62
   250
420
  2234388
370
     9
100
AcDbVertex
100
AcDb2dVertex
 10
1055.412109375
 20
626.03271484375
 30
0.0
  0
VERTEX
  5
4E4
330
4E2
100
AcDbEntity
  8
\U+30EC\U+30A4\U+30E4\U+30FC 1
 62
   250
420
  2234388
370
     9
100
AcDbVertex
100
AcDb2dVertex
 10
1059.3193359375
 20
626.03271484375
 30
0.0
  0
SEQEND
  5
4E5
330
4E2
100
AcDbEntity
  8
\U+30EC\U+30A4\U+30E4\U+30FC 1
370
     9
  0
POLYLINE
  5
4E6
330
4B6
100
AcDbEntity
  8
\U+30EC\U+30A4\U+30E4\U+30FC 1
 62
   250
420
  2234388
370
     9
100
AcDb2dPolyline
 66
     1
 10
0.0
 20
0.0
 30
0.0
  0
VERTEX
  5
4E7
330
4E6
100
AcDbEntity
  8
\U+30EC\U+30A4\U+30E4\U+30FC 1
 62
   250
420
  2234388
370
     9
100
AcDbVertex
100
AcDb2dVertex
 10
1055.412109375
 20
690.09912109375
 30
0.0
  0
VERTEX
  5
4E8
330
4E6
100
AcDbEntity
  8
\U+30EC\U+30A4\U+30E4\U+30FC 1
 62
   250
420
  2234388
370
     9
100
AcDbVertex
100
AcDb2dVertex
 10
1059.3193359375
 20
690.09912109375
 30
0.0
  0
SEQEND
  5
4E9
330
4E6
100
AcDbEntity
  8
\U+30EC\U+30A4\U+30E4\U+30FC 1
370
     9
  0
POLYLINE
  5
4EA
330
4B6
100
AcDbEntity
  8
\U+30EC\U+30A4\U+30E4\U+30FC 1
  6
AI-Linetype-12
 62
   250
420
  2234388
370
     9
100
AcDb2dPolyline
 66
     1
 10
0.0
 20
0.0
 30
0.0
  0
VERTEX
  5
4EB
330
4EA
100
AcDbEntity
  8
\U+30EC\U+30A4\U+30E4\U+30FC 1
  6
AI-Linetype-12
 62
   250
420
  2234388
370
     9
100
AcDbVertex
100
AcDb2dVertex
 10
1054.40234375
 20
689.09130859375
 30
0.0
  0
VERTEX
  5
4EC
330
4EA
100
AcDbEntity
  8
\U+30EC\U+30A4\U+30E4\U+30FC 1
  6
AI-Linetype-12
 62
   250
420
  2234388
370
     9
100
AcDbVertex
100
AcDb2dVertex
 10
1060.326171875
 20
689.09130859375
 30
0.0
  0
SEQEND
  5
4ED
330
4EA
100
AcDbEntity
  8
\U+30EC\U+30A4\U+30E4\U+30FC 1
  6
AI-Linetype-12
370
     9
  0
POLYLINE
  5
4EF
330
4B6
100
AcDbEntity
  8
\U+30EC\U+30A4\U+30E4\U+30FC 1
  6
AI-Linetype-13
 62
   250
420
  2234388
370
     9
100
AcDb2dPolyline
 66
     1
 10
0.0
 20
0.0
 30
0.0
  0
VERTEX
  5
4F0
330
4EF
100
AcDbEntity
  8
\U+30EC\U+30A4\U+30E4\U+30FC 1
  6
AI-Linetype-13
 62
   250
420
  2234388
370
     9
100
AcDbVertex
100
AcDb2dVertex
 10
1054.40234375
 20
627.03857421875
 30
0.0
  0
VERTEX
  5
4F1
330
4EF
100
AcDbEntity
  8
\U+30EC\U+30A4\U+30E4\U+30FC 1
  6
AI-Linetype-13
 62
   250
420
  2234388
370
     9
100
AcDbVertex
100
AcDb2dVertex
 10
1060.326171875
 20
627.03857421875
 30
0.0
  0
SEQEND
  5
4F2
330
4EF
100
AcDbEntity
  8
\U+30EC\U+30A4\U+30E4\U+30FC 1
  6
AI-Linetype-13
370
     9
  0
POLYLINE
  5
4F4
330
4B6
100
AcDbEntity
  8
\U+30EC\U+30A4\U+30E4\U+30FC 1
 62
   250
420
  2234388
370
     9
100
AcDb2dPolyline
 66
     1
 10
0.0
 20
0.0
 30
0.0
  0
VERTEX
  5
4F5
330
4F4
100
AcDbEntity
  8
\U+30EC\U+30A4\U+30E4\U+30FC 1
 62
   250
420
  2234388
370
     9
100
AcDbVertex
100
AcDb2dVertex
 10
1050.9990234375
 20
688.33251953125
 30
0.0
  0
VERTEX
  5
4F6
330
4F4
100
AcDbEntity
  8
\U+30EC\U+30A4\U+30E4\U+30FC 1
 62
   250
420
  2234388
370
     9
100
AcDbVertex
100
AcDb2dVertex
 10
1053.64453125
 20
688.33251953125
 30
0.0
  0
SEQEND
  5
4F7
330
4F4
100
AcDbEntity
  8
\U+30EC\U+30A4\U+30E4\U+30FC 1
370
     9
  0
POLYLINE
  5
4F8
330
4B6
100
AcDbEntity
  8
\U+30EC\U+30A4\U+30E4\U+30FC 1
 62
   250
420
  2234388
370
     9
100
AcDb2dPolyline
 66
     1
 10
0.0
 20
0.0
 30
0.0
  0
VERTEX
  5
4F9
330
4F8
100
AcDbEntity
  8
\U+30EC\U+30A4\U+30E4\U+30FC 1
 62
   250
420
  2234388
370
     9
100
AcDbVertex
100
AcDb2dVertex
 10
1050.9990234375
 20
627.79736328125
 30
0.0
  0
VERTEX
  5
4FA
330
4F8
100
AcDbEntity
  8
\U+30EC\U+30A4\U+30E4\U+30FC 1
 62
   250
420
  2234388
370
     9
100
AcDbVertex
100
AcDb2dVertex
 10
1053.64453125
 20
627.79736328125
 30
0.0
  0
SEQEND
  5
4FB
330
4F8
100
AcDbEntity
  8
\U+30EC\U+30A4\U+30E4\U+30FC 1
370
     9
  0
POLYLINE
  5
4FC
330
4B6
100
AcDbEntity
  8
\U+30EC\U+30A4\U+30E4\U+30FC 1
 62
   250
420
  2234388
370
     9
100
AcDb2dPolyline
 66
     1
 10
0.0
 20
0.0
 30
0.0
  0
VERTEX
  5
4FD
330
4FC
100
AcDbEntity
  8
\U+30EC\U+30A4\U+30E4\U+30FC 1
 62
   250
420
  2234388
370
     9
100
AcDbVertex
100
AcDb2dVertex
 10
1053.64453125
 20
658.06591796875
 30
0.0
  0
VERTEX
  5
4FE
330
4FC
100
AcDbEntity
  8
\U+30EC\U+30A4\U+30E4\U+30FC 1
 62
   250
420
  2234388
370
     9
100
AcDbVertex
100
AcDb2dVertex
 10
1053.64453125
 20
627.796875
 30
0.0
  0
SEQEND
  5
4FF
330
4FC
100
AcDbEntity
  8
\U+30EC\U+30A4\U+30E4\U+30FC 1
370
     9
  0
POLYLINE
  5
500
330
4B6
100
AcDbEntity
  8
\U+30EC\U+30A4\U+30E4\U+30FC 1
 62
   250
420
  2234388
370
     9
100
AcDb2dPolyline
 66
     1
 10
0.0
 20
0.0
 30
0.0
  0
VERTEX
  5
501
330
500
100
AcDbEntity
  8
\U+30EC\U+30A4\U+30E4\U+30FC 1
 62
   250
420
  2234388
370
     9
100
AcDbVertex
100
AcDb2dVertex
 10
1002.0703125
 20
689.09130859375
 30
0.0
  0
VERTEX
  5
502
330
500
100
AcDbEntity
  8
\U+30EC\U+30A4\U+30E4\U+30FC 1
 62
   250
420
  2234388
370
     9
100
AcDbVertex
100
AcDb2dVertex
 10
1008.8818359375
 20
689.09130859375
 30
0.0
  0
SEQEND
  5
503
330
500
100
AcDbEntity
  8
\U+30EC\U+30A4\U+30E4\U+30FC 1
370
     9
  0
POLYLINE
  5
504
330
4B6
100
AcDbEntity
  8
\U+30EC\U+30A4\U+30E4\U+30FC 1
 62
   250
420
  2234388
370
     9
100
AcDb2dPolyline
 66
     1
 10
0.0
 20
0.0
 30
0.0
  0
VERTEX
  5
505
330
504
100
AcDbEntity
  8
\U+30EC\U+30A4\U+30E4\U+30FC 1
 62
   250
420
  2234388
370
     9
100
AcDbVertex
100
AcDb2dVertex
 10
1001.818359375
 20
658.06591796875
 30
0.0
  0
VERTEX
  5
506
330
504
100
AcDbEntity
  8
\U+30EC\U+30A4\U+30E4\U+30FC 1
 62
   250
420
  2234388
370
     9
100
AcDbVertex
100
AcDb2dVertex
 10
1001.818359375
 20
618.9697265625
 30
0.0
  0
SEQEND
  5
507
330
504
100
AcDbEntity
  8
\U+30EC\U+30A4\U+30E4\U+30FC 1
370
     9
  0
POLYLINE
  5
508
330
4B6
100
AcDbEntity
  8
\U+30EC\U+30A4\U+30E4\U+30FC 1
 62
   250
420
  2234388
370
     9
100
AcDb2dPolyline
 66
     1
 10
0.0
 20
0.0
 30
0.0
  0
VERTEX
  5
509
330
508
100
AcDbEntity
  8
\U+30EC\U+30A4\U+30E4\U+30FC 1
 62
   250
420
  2234388
370
     9
100
AcDbVertex
100
AcDb2dVertex
 10
1001.818359375
 20
655.61083984375
 30
0.0
  0
VERTEX
  5
50A
330
508
100
AcDbEntity
  8
\U+30EC\U+30A4\U+30E4\U+30FC 1
 62
   250
420
  2234388
370
     9
100
AcDbVertex
100
AcDb2dVertex
 10
1024.51953125
 20
655.61083984375
 30
0.0
  0
SEQEND
  5
50B
330
508
100
AcDbEntity
  8
\U+30EC\U+30A4\U+30E4\U+30FC 1
370
     9
  0
POLYLINE
  5
50C
330
4B6
100
AcDbEntity
  8
\U+30EC\U+30A4\U+30E4\U+30FC 1
 62
   250
420
  2234388
370
     9
100
AcDb2dPolyline
 66
     1
 10
0.0
 20
0.0
 30
0.0
  0
VERTEX
  5
50D
330
50C
100
AcDbEntity
  8
\U+30EC\U+30A4\U+30E4\U+30FC 1
 62
   250
420
  2234388
370
     9
100
AcDbVertex
100
AcDb2dVertex
 10
1001.818359375
 20
653.16552734375
 30
0.0
  0
VERTEX
  5
50E
330
50C
100
AcDbEntity
  8
\U+30EC\U+30A4\U+30E4\U+30FC 1
 62
   250
420
  2234388
370
     9
100
AcDbVertex
100
AcDb2dVertex
 10
1024.51953125
 20
653.16552734375
 30
0.0
  0
SEQEND
  5
50F
330
50C
100
AcDbEntity
  8
\U+30EC\U+30A4\U+30E4\U+30FC 1
370
     9
  0
POLYLINE
  5
510
330
4B6
100
AcDbEntity
  8
\U+30EC\U+30A4\U+30E4\U+30FC 1
 62
   250
420
  2234388
370
     9
100
AcDb2dPolyline
 66
     1
 10
0.0
 20
0.0
 30
0.0
  0
VERTEX
  5
511
330
510
100
AcDbEntity
  8
\U+30EC\U+30A4\U+30E4\U+30FC 1
 62
   250
420
  2234388
370
     9
100
AcDbVertex
100
AcDb2dVertex
 10
1001.818359375
 20
650.73974609375
 30
0.0
  0
VERTEX
  5
512
330
510
100
AcDbEntity
  8
\U+30EC\U+30A4\U+30E4\U+30FC 1
 62
   250
420
  2234388
370
     9
100
AcDbVertex
100
AcDb2dVertex
 10
1024.51953125
 20
650.73974609375
 30
0.0
  0
SEQEND
  5
513
330
510
100
AcDbEntity
  8
\U+30EC\U+30A4\U+30E4\U+30FC 1
370
     9
  0
POLYLINE
  5
514
330
4B6
100
AcDbEntity
  8
\U+30EC\U+30A4\U+30E4\U+30FC 1
 62
   250
420
  2234388
370
     9
100
AcDb2dPolyline
 66
     1
 10
0.0
 20
0.0
 30
0.0
  0
VERTEX
  5
515
330
514
100
AcDbEntity
  8
\U+30EC\U+30A4\U+30E4\U+30FC 1
 62
   250
420
  2234388
370
     9
100
AcDbVertex
100
AcDb2dVertex
 10
1001.818359375
 20
648.34228515625
 30
0.0
  0
VERTEX
  5
516
330
514
100
AcDbEntity
  8
\U+30EC\U+30A4\U+30E4\U+30FC 1
 62
   250
420
  2234388
370
     9
100
AcDbVertex
100
AcDb2dVertex
 10
1024.51953125
 20
648.34228515625
 30
0.0
  0
SEQEND
  5
517
330
514
100
AcDbEntity
  8
\U+30EC\U+30A4\U+30E4\U+30FC 1
370
     9
  0
POLYLINE
  5
518
330
4B6
100
AcDbEntity
  8
\U+30EC\U+30A4\U+30E4\U+30FC 1
 62
   250
420
  2234388
370
     9
100
AcDb2dPolyline
 66
     1
 10
0.0
 20
0.0
 30
0.0
  0
VERTEX
  5
519
330
518
100
AcDbEntity
  8
\U+30EC\U+30A4\U+30E4\U+30FC 1
 62
   250
420
  2234388
370
     9
100
AcDbVertex
100
AcDb2dVertex
 10
1001.818359375
 20
645.98095703125
 30
0.0
  0
VERTEX
  5
51A
330
518
100
AcDbEntity
  8
\U+30EC\U+30A4\U+30E4\U+30FC 1
 62
   250
420
  2234388
370
     9
100
AcDbVertex
100
AcDb2dVertex
 10
1024.51953125
 20
645.98095703125
 30
0.0
  0
SEQEND
  5
51B
330
518
100
AcDbEntity
  8
\U+30EC\U+30A4\U+30E4\U+30FC 1
370
     9
  0
POLYLINE
  5
51C
330
4B6
100
AcDbEntity
  8
\U+30EC\U+30A4\U+30E4\U+30FC 1
 62
   250
420
  2234388
370
     9
100
AcDb2dPolyline
 66
     1
 10
0.0
 20
0.0
 30
0.0
  0
VERTEX
  5
51D
330
51C
100
AcDbEntity
  8
\U+30EC\U+30A4\U+30E4\U+30FC 1
 62
   250
420
  2234388
370
     9
100
AcDbVertex
100
AcDb2dVertex
 10
1001.818359375
 20
643.67236328125
 30
0.0
  0
VERTEX
  5
51E
330
51C
100
AcDbEntity
  8
\U+30EC\U+30A4\U+30E4\U+30FC 1
 62
   250
420
  2234388
370
     9
100
AcDbVertex
100
AcDb2dVertex
 10
1024.51953125
 20
643.67236328125
 30
0.0
  0
SEQEND
  5
51F
330
51C
100
AcDbEntity
  8
\U+30EC\U+30A4\U+30E4\U+30FC 1
370
     9
  0
POLYLINE
  5
520
330
4B6
100
AcDbEntity
  8
\U+30EC\U+30A4\U+30E4\U+30FC 1
 62
   250
420
  2234388
370
     9
100
AcDb2dPolyline
 66
     1
 10
0.0
 20
0.0
 30
0.0
  0
VERTEX
  5
521
330
520
100
AcDbEntity
  8
\U+30EC\U+30A4\U+30E4\U+30FC 1
 62
   250
420
  2234388
370
     9
100
AcDbVertex
100
AcDb2dVertex
 10
1001.818359375
 20
641.41943359375
 30
0.0
  0
VERTEX
  5
522
330
520
100
AcDbEntity
  8
\U+30EC\U+30A4\U+30E4\U+30FC 1
 62
   250
420
  2234388
370
     9
100
AcDbVertex
100
AcDb2dVertex
 10
1024.51953125
 20
641.41943359375
 30
0.0
  0
SEQEND
  5
523
330
520
100
AcDbEntity
  8
\U+30EC\U+30A4\U+30E4\U+30FC 1
370
     9
  0
POLYLINE
  5
524
330
4B6
100
AcDbEntity
  8
\U+30EC\U+30A4\U+30E4\U+30FC 1
 62
   250
420
  2234388
370
     9
100
AcDb2dPolyline
 66
     1
 10
0.0
 20
0.0
 30
0.0
  0
VERTEX
  5
525
330
524
100
AcDbEntity
  8
\U+30EC\U+30A4\U+30E4\U+30FC 1
 62
   250
420
  2234388
370
     9
100
AcDbVertex
100
AcDb2dVertex
 10
1001.818359375
 20
639.22900390625
 30
0.0
  0
VERTEX
  5
526
330
524
100
AcDbEntity
  8
\U+30EC\U+30A4\U+30E4\U+30FC 1
 62
   250
420
  2234388
370
     9
100
AcDbVertex
100
AcDb2dVertex
 10
1024.51953125
 20
639.22900390625
 30
0.0
  0
SEQEND
  5
527
330
524
100
AcDbEntity
  8
\U+30EC\U+30A4\U+30E4\U+30FC 1
370
     9
  0
POLYLINE
  5
528
330
4B6
100
AcDbEntity
  8
\U+30EC\U+30A4\U+30E4\U+30FC 1
 62
   250
420
  2234388
370
     9
100
AcDb2dPolyline
 66
     1
 10
0.0
 20
0.0
 30
0.0
  0
VERTEX
  5
529
330
528
100
AcDbEntity
  8
\U+30EC\U+30A4\U+30E4\U+30FC 1
 62
   250
420
  2234388
370
     9
100
AcDbVertex
100
AcDb2dVertex
 10
1001.818359375
 20
637.11767578125
 30
0.0
  0
VERTEX
  5
52A
330
528
100
AcDbEntity
  8
\U+30EC\U+30A4\U+30E4\U+30FC 1
 62
   250
420
  2234388
370
     9
100
AcDbVertex
100
AcDb2dVertex
 10
1024.51953125
 20
637.11767578125
 30
0.0
  0
SEQEND
  5
52B
330
528
100
AcDbEntity
  8
\U+30EC\U+30A4\U+30E4\U+30FC 1
370
     9
  0
POLYLINE
  5
52C
330
4B6
100
AcDbEntity
  8
\U+30EC\U+30A4\U+30E4\U+30FC 1
 62
   250
420
  2234388
370
     9
100
AcDb2dPolyline
 66
     1
 10
0.0
 20
0.0
 30
0.0
  0
VERTEX
  5
52D
330
52C
100
AcDbEntity
  8
\U+30EC\U+30A4\U+30E4\U+30FC 1
 62
   250
420
  2234388
370
     9
100
AcDbVertex
100
AcDb2dVertex
 10
1001.818359375
 20
635.08642578125
 30
0.0
  0
VERTEX
  5
52E
330
52C
100
AcDbEntity
  8
\U+30EC\U+30A4\U+30E4\U+30FC 1
 62
   250
420
  2234388
370
     9
100
AcDbVertex
100
AcDb2dVertex
 10
1024.51953125
 20
635.08642578125
 30
0.0
  0
SEQEND
  5
52F
330
52C
100
AcDbEntity
  8
\U+30EC\U+30A4\U+30E4\U+30FC 1
370
     9
  0
POLYLINE
  5
530
330
4B6
100
AcDbEntity
  8
\U+30EC\U+30A4\U+30E4\U+30FC 1
 62
   250
420
  2234388
370
     9
100
AcDb2dPolyline
 66
     1
 10
0.0
 20
0.0
 30
0.0
  0
VERTEX
  5
531
330
530
100
AcDbEntity
  8
\U+30EC\U+30A4\U+30E4\U+30FC 1
 62
   250
420
  2234388
370
     9
100
AcDbVertex
100
AcDb2dVertex
 10
1001.818359375
 20
633.14306640625
 30
0.0
  0
VERTEX
  5
532
330
530
100
AcDbEntity
  8
\U+30EC\U+30A4\U+30E4\U+30FC 1
 62
   250
420
  2234388
370
     9
100
AcDbVertex
100
AcDb2dVertex
 10
1024.51953125
 20
633.14306640625
 30
0.0
  0
SEQEND
  5
533
330
530
100
AcDbEntity
  8
\U+30EC\U+30A4\U+30E4\U+30FC 1
370
     9
  0
POLYLINE
  5
534
330
4B6
100
AcDbEntity
  8
\U+30EC\U+30A4\U+30E4\U+30FC 1
 62
   250
420
  2234388
370
     9
100
AcDb2dPolyline
 66
     1
 10
0.0
 20
0.0
 30
0.0
  0
VERTEX
  5
535
330
534
100
AcDbEntity
  8
\U+30EC\U+30A4\U+30E4\U+30FC 1
 62
   250
420
  2234388
370
     9
100
AcDbVertex
100
AcDb2dVertex
 10
1001.818359375
 20
631.30322265625
 30
0.0
  0
VERTEX
  5
536
330
534
100
AcDbEntity
  8
\U+30EC\U+30A4\U+30E4\U+30FC 1
 62
   250
420
  2234388
370
     9
100
AcDbVertex
100
AcDb2dVertex
 10
1024.51953125
 20
631.30322265625
 30
0.0
  0
SEQEND
  5
537
330
534
100
AcDbEntity
  8
\U+30EC\U+30A4\U+30E4\U+30FC 1
370
     9
  0
POLYLINE
  5
538
330
4B6
100
AcDbEntity
  8
\U+30EC\U+30A4\U+30E4\U+30FC 1
 62
   250
420
  2234388
370
     9
100
AcDb2dPolyline
 66
     1
 10
0.0
 20
0.0
 30
0.0
  0
VERTEX
  5
539
330
538
100
AcDbEntity
  8
\U+30EC\U+30A4\U+30E4\U+30FC 1
 62
   250
420
  2234388
370
     9
100
AcDbVertex
100
AcDb2dVertex
 10
1001.818359375
 20
629.56396484375
 30
0.0
  0
VERTEX
  5
53A
330
538
100
AcDbEntity
  8
\U+30EC\U+30A4\U+30E4\U+30FC 1
 62
   250
420
  2234388
370
     9
100
AcDbVertex
100
AcDb2dVertex
 10
1024.51953125
 20
629.56396484375
 30
0.0
  0
SEQEND
  5
53B
330
538
100
AcDbEntity
  8
\U+30EC\U+30A4\U+30E4\U+30FC 1
370
     9
  0
POLYLINE
  5
53C
330
4B6
100
AcDbEntity
  8
\U+30EC\U+30A4\U+30E4\U+30FC 1
 62
   250
420
  2234388
370
     9
100
AcDb2dPolyline
 66
     1
 10
0.0
 20
0.0
 30
0.0
  0
VERTEX
  5
53D
330
53C
100
AcDbEntity
  8
\U+30EC\U+30A4\U+30E4\U+30FC 1
 62
   250
420
  2234388
370
     9
100
AcDbVertex
100
AcDb2dVertex
 10
1001.818359375
 20
627.93994140625
 30
0.0
  0
VERTEX
  5
53E
330
53C
100
AcDbEntity
  8
\U+30EC\U+30A4\U+30E4\U+30FC 1
 62
   250
420
  2234388
370
     9
100
AcDbVertex
100
AcDb2dVertex
 10
1024.51953125
 20
627.93994140625
 30
0.0
  0
SEQEND
  5
53F
330
53C
100
AcDbEntity
  8
\U+30EC\U+30A4\U+30E4\U+30FC 1
370
     9
  0
POLYLINE
  5
540
330
4B6
100
AcDbEntity
  8
\U+30EC\U+30A4\U+30E4\U+30FC 1
 62
   250
420
  2234388
370
     9
100
AcDb2dPolyline
 66
     1
 10
0.0
 20
0.0
 30
0.0
  0
VERTEX
  5
541
330
540
100
AcDbEntity
  8
\U+30EC\U+30A4\U+30E4\U+30FC 1
 62
   250
420
  2234388
370
     9
100
AcDbVertex
100
AcDb2dVertex
 10
1001.818359375
 20
626.43505859375
 30
0.0
  0
VERTEX
  5
542
330
540
100
AcDbEntity
  8
\U+30EC\U+30A4\U+30E4\U+30FC 1
 62
   250
420
  2234388
370
     9
100
AcDbVertex
100
AcDb2dVertex
 10
1024.51953125
 20
626.43505859375
 30
0.0
  0
SEQEND
  5
543
330
540
100
AcDbEntity
  8
\U+30EC\U+30A4\U+30E4\U+30FC 1
370
     9
  0
POLYLINE
  5
544
330
4B6
100
AcDbEntity
  8
\U+30EC\U+30A4\U+30E4\U+30FC 1
 62
   250
420
  2234388
370
     9
100
AcDb2dPolyline
 66
     1
 10
0.0
 20
0.0
 30
0.0
  0
VERTEX
  5
545
330
544
100
AcDbEntity
  8
\U+30EC\U+30A4\U+30E4\U+30FC 1
 62
   250
420
  2234388
370
     9
100
AcDbVertex
100
AcDb2dVertex
 10
1001.818359375
 20
625.05322265625
 30
0.0
  0
VERTEX
  5
546
330
544
100
AcDbEntity
  8
\U+30EC\U+30A4\U+30E4\U+30FC 1
 62
   250
420
  2234388
370
     9
100
AcDbVertex
100
AcDb2dVertex
 10
1024.51953125
 20
625.05322265625
 30
0.0
  0
SEQEND
  5
547
330
544
100
AcDbEntity
  8
\U+30EC\U+30A4\U+30E4\U+30FC 1
370
     9
  0
POLYLINE
  5
548
330
4B6
100
AcDbEntity
  8
\U+30EC\U+30A4\U+30E4\U+30FC 1
 62
   250
420
  2234388
370
     9
100
AcDb2dPolyline
 66
     1
 10
0.0
 20
0.0
 30
0.0
  0
VERTEX
  5
549
330
548
100
AcDbEntity
  8
\U+30EC\U+30A4\U+30E4\U+30FC 1
 62
   250
420
  2234388
370
     9
100
AcDbVertex
100
AcDb2dVertex
 10
1001.818359375
 20
623.80517578125
 30
0.0
  0
VERTEX
  5
54A
330
548
100
AcDbEntity
  8
\U+30EC\U+30A4\U+30E4\U+30FC 1
 62
   250
420
  2234388
370
     9
100
AcDbVertex
100
AcDb2dVertex
 10
1024.51953125
 20
623.80517578125
 30
0.0
  0
SEQEND
  5
54B
330
548
100
AcDbEntity
  8
\U+30EC\U+30A4\U+30E4\U+30FC 1
370
     9
  0
POLYLINE
  5
54C
330
4B6
100
AcDbEntity
  8
\U+30EC\U+30A4\U+30E4\U+30FC 1
 62
   250
420
  2234388
370
     9
100
AcDb2dPolyline
 66
     1
 10
0.0
 20
0.0
 30
0.0
  0
VERTEX
  5
54D
330
54C
100
AcDbEntity
  8
\U+30EC\U+30A4\U+30E4\U+30FC 1
 62
   250
420
  2234388
370
     9
100
AcDbVertex
100
AcDb2dVertex
 10
1001.818359375
 20
622.68798828125
 30
0.0
  0
VERTEX
  5
54E
330
54C
100
AcDbEntity
  8
\U+30EC\U+30A4\U+30E4\U+30FC 1
 62
   250
420
  2234388
370
     9
100
AcDbVertex
100
AcDb2dVertex
 10
1024.51953125
 20
622.68798828125
 30
0.0
  0
SEQEND
  5
54F
330
54C
100
AcDbEntity
  8
\U+30EC\U+30A4\U+30E4\U+30FC 1
370
     9
  0
POLYLINE
  5
550
330
4B6
100
AcDbEntity
  8
\U+30EC\U+30A4\U+30E4\U+30FC 1
 62
   250
420
  2234388
370
     9
100
AcDb2dPolyline
 66
     1
 10
0.0
 20
0.0
 30
0.0
  0
VERTEX
  5
551
330
550
100
AcDbEntity
  8
\U+30EC\U+30A4\U+30E4\U+30FC 1
 62
   250
420
  2234388
370
     9
100
AcDbVertex
100
AcDb2dVertex
 10
1001.818359375
 20
621.71435546875
 30
0.0
  0
VERTEX
  5
552
330
550
100
AcDbEntity
  8
\U+30EC\U+30A4\U+30E4\U+30FC 1
 62
   250
420
  2234388
370
     9
100
AcDbVertex
100
AcDb2dVertex
 10
1024.51953125
 20
621.71435546875
 30
0.0
  0
SEQEND
  5
553
330
550
100
AcDbEntity
  8
\U+30EC\U+30A4\U+30E4\U+30FC 1
370
     9
  0
POLYLINE
  5
554
330
4B6
100
AcDbEntity
  8
\U+30EC\U+30A4\U+30E4\U+30FC 1
 62
   250
420
  2234388
370
     9
100
AcDb2dPolyline
 66
     1
 10
0.0
 20
0.0
 30
0.0
  0
VERTEX
  5
555
330
554
100
AcDbEntity
  8
\U+30EC\U+30A4\U+30E4\U+30FC 1
 62
   250
420
  2234388
370
     9
100
AcDbVertex
100
AcDb2dVertex
 10
1001.818359375
 20
620.88232421875
 30
0.0
  0
VERTEX
  5
556
330
554
100
AcDbEntity
  8
\U+30EC\U+30A4\U+30E4\U+30FC 1
 62
   250
420
  2234388
370
     9
100
AcDbVertex
100
AcDb2dVertex
 10
1024.51953125
 20
620.88232421875
 30
0.0
  0
SEQEND
  5
557
330
554
100
AcDbEntity
  8
\U+30EC\U+30A4\U+30E4\U+30FC 1
370
     9
  0
POLYLINE
  5
558
330
4B6
100
AcDbEntity
  8
\U+30EC\U+30A4\U+30E4\U+30FC 1
 62
   250
420
  2234388
370
     9
100
AcDb2dPolyline
 66
     1
 10
0.0
 20
0.0
 30
0.0
  0
VERTEX
  5
559
330
558
100
AcDbEntity
  8
\U+30EC\U+30A4\U+30E4\U+30FC 1
 62
   250
420
  2234388
370
     9
100
AcDbVertex
100
AcDb2dVertex
 10
1001.818359375
 20
620.19580078125
 30
0.0
  0
VERTEX
  5
55A
330
558
100
AcDbEntity
  8
\U+30EC\U+30A4\U+30E4\U+30FC 1
 62
   250
420
  2234388
370
     9
100
AcDbVertex
100
AcDb2dVertex
 10
1024.51953125
 20
620.19580078125
 30
0.0
  0
SEQEND
  5
55B
330
558
100
AcDbEntity
  8
\U+30EC\U+30A4\U+30E4\U+30FC 1
370
     9
  0
POLYLINE
  5
55C
330
4B6
100
AcDbEntity
  8
\U+30EC\U+30A4\U+30E4\U+30FC 1
 62
   250
420
  2234388
370
     9
100
AcDb2dPolyline
 66
     1
 10
0.0
 20
0.0
 30
0.0
  0
VERTEX
  5
55D
330
55C
100
AcDbEntity
  8
\U+30EC\U+30A4\U+30E4\U+30FC 1
 62
   250
420
  2234388
370
     9
100
AcDbVertex
100
AcDb2dVertex
 10
1001.818359375
 20
619.66064453125
 30
0.0
  0
VERTEX
  5
55E
330
55C
100
AcDbEntity
  8
\U+30EC\U+30A4\U+30E4\U+30FC 1
 62
   250
420
  2234388
370
     9
100
AcDbVertex
100
AcDb2dVertex
 10
1024.51953125
 20
619.66064453125
 30
0.0
  0
SEQEND
  5
55F
330
55C
100
AcDbEntity
  8
\U+30EC\U+30A4\U+30E4\U+30FC 1
370
     9
  0
POLYLINE
  5
560
330
4B6
100
AcDbEntity
  8
\U+30EC\U+30A4\U+30E4\U+30FC 1
 62
   250
420
  2234388
370
     9
100
AcDb2dPolyline
 66
     1
 10
0.0
 20
0.0
 30
0.0
  0
VERTEX
  5
561
330
560
100
AcDbEntity
  8
\U+30EC\U+30A4\U+30E4\U+30FC 1
 62
   250
420
  2234388
370
     9
100
AcDbVertex
100
AcDb2dVertex
 10
1001.818359375
 20
619.27587890625
 30
0.0
  0
VERTEX
  5
562
330
560
100
AcDbEntity
  8
\U+30EC\U+30A4\U+30E4\U+30FC 1
 62
   250
420
  2234388
370
     9
100
AcDbVertex
100
AcDb2dVertex
 10
1024.51953125
 20
619.27587890625
 30
0.0
  0
SEQEND
  5
563
330
560
100
AcDbEntity
  8
\U+30EC\U+30A4\U+30E4\U+30FC 1
370
     9
  0
POLYLINE
  5
564
330
4B6
100
AcDbEntity
  8
\U+30EC\U+30A4\U+30E4\U+30FC 1
 62
   250
420
  2234388
370
     9
100
AcDb2dPolyline
 66
     1
 10
0.0
 20
0.0
 30
0.0
  0
VERTEX
  5
565
330
564
100
AcDbEntity
  8
\U+30EC\U+30A4\U+30E4\U+30FC 1
 62
   250
420
  2234388
370
     9
100
AcDbVertex
100
AcDb2dVertex
 10
1001.818359375
 20
619.04638671875
 30
0.0
  0
VERTEX
  5
566
330
564
100
AcDbEntity
  8
\U+30EC\U+30A4\U+30E4\U+30FC 1
 62
   250
420
  2234388
370
     9
100
AcDbVertex
100
AcDb2dVertex
 10
1024.51953125
 20
619.04638671875
 30
0.0
  0
SEQEND
  5
567
330
564
100
AcDbEntity
  8
\U+30EC\U+30A4\U+30E4\U+30FC 1
370
     9
  0
POLYLINE
  5
568
330
4B6
100
AcDbEntity
  8
\U+30EC\U+30A4\U+30E4\U+30FC 1
 62
   250
420
  2234388
370
     9
100
AcDb2dPolyline
 66
     1
 10
0.0
 20
0.0
 30
0.0
  0
VERTEX
  5
569
330
568
100
AcDbEntity
  8
\U+30EC\U+30A4\U+30E4\U+30FC 1
 62
   250
420
  2234388
370
     9
100
AcDbVertex
100
AcDb2dVertex
 10
1001.818359375
 20
697.16162109375
 30
0.0
  0
VERTEX
  5
56A
330
568
100
AcDbEntity
  8
\U+30EC\U+30A4\U+30E4\U+30FC 1
 62
   250
420
  2234388
370
     9
100
AcDbVertex
100
AcDb2dVertex
 10
1000.5576171875
 20
695.9013671875
 30
0.0
  0
SEQEND
  5
56B
330
568
100
AcDbEntity
  8
\U+30EC\U+30A4\U+30E4\U+30FC 1
370
     9
  0
POLYLINE
  5
56C
330
4B6
100
AcDbEntity
  8
\U+30EC\U+30A4\U+30E4\U+30FC 1
 62
   250
420
  2234388
370
     9
100
AcDb2dPolyline
 66
     1
 10
0.0
 20
0.0
 30
0.0
  0
VERTEX
  5
56D
330
56C
100
AcDbEntity
  8
\U+30EC\U+30A4\U+30E4\U+30FC 1
 62
   250
420
  2234388
370
     9
100
AcDbVertex
100
AcDb2dVertex
 10
1001.818359375
 20
618.97021484375
 30
0.0
  0
VERTEX
  5
56E
330
56C
100
AcDbEntity
  8
\U+30EC\U+30A4\U+30E4\U+30FC 1
 62
   250
420
  2234388
370
     9
100
AcDbVertex
100
AcDb2dVertex
 10
1000.5576171875
 20
620.22998046875
 30
0.0
  0
SEQEND
  5
56F
330
56C
100
AcDbEntity
  8
\U+30EC\U+30A4\U+30E4\U+30FC 1
370
     9
  0
POLYLINE
  5
570
330
4B6
100
AcDbEntity
  8
\U+30EC\U+30A4\U+30E4\U+30FC 1
 62
   250
420
  2234388
370
     9
100
AcDb2dPolyline
 66
     1
 10
0.0
 20
0.0
 30
0.0
  0
VERTEX
  5
571
330
570
100
AcDbEntity
  8
\U+30EC\U+30A4\U+30E4\U+30FC 1
 62
   250
420
  2234388
370
     9
100
AcDbVertex
100
AcDb2dVertex
 10
1028.3046875
 20
695.27099609375
 30
0.0
  0
VERTEX
  5
572
330
570
100
AcDbEntity
  8
\U+30EC\U+30A4\U+30E4\U+30FC 1
 62
   250
420
  2234388
370
     9
100
AcDbVertex
100
AcDb2dVertex
 10
1049.7373046875
 20
695.27099609375
 30
0.0
  0
SEQEND
  5
573
330
570
100
AcDbEntity
  8
\U+30EC\U+30A4\U+30E4\U+30FC 1
370
     9
  0
POLYLINE
  5
574
330
4B6
100
AcDbEntity
  8
\U+30EC\U+30A4\U+30E4\U+30FC 1
 62
   250
420
  2234388
370
     9
100
AcDb2dPolyline
 66
     1
 10
0.0
 20
0.0
 30
0.0
  0
VERTEX
  5
575
330
574
100
AcDbEntity
  8
\U+30EC\U+30A4\U+30E4\U+30FC 1
 62
   250
420
  2234388
370
     9
100
AcDbVertex
100
AcDb2dVertex
 10
1028.3046875
 20
695.27099609375
 30
0.0
  0
VERTEX
  5
576
330
574
100
AcDbEntity
  8
\U+30EC\U+30A4\U+30E4\U+30FC 1
 62
   250
420
  2234388
370
     9
100
AcDbVertex
100
AcDb2dVertex
 10
1027.04296875
 20
697.162109375
 30
0.0
  0
SEQEND
  5
577
330
574
100
AcDbEntity
  8
\U+30EC\U+30A4\U+30E4\U+30FC 1
370
     9
  0
POLYLINE
  5
578
330
4B6
100
AcDbEntity
  8
\U+30EC\U+30A4\U+30E4\U+30FC 1
 62
   250
420
  2234388
370
     9
100
AcDb2dPolyline
 66
     1
 10
0.0
 20
0.0
 30
0.0
  0
VERTEX
  5
579
330
578
100
AcDbEntity
  8
\U+30EC\U+30A4\U+30E4\U+30FC 1
 62
   250
420
  2234388
370
     9
100
AcDbVertex
100
AcDb2dVertex
 10
1049.7373046875
 20
695.27099609375
 30
0.0
  0
VERTEX
  5
57A
330
578
100
AcDbEntity
  8
\U+30EC\U+30A4\U+30E4\U+30FC 1
 62
   250
420
  2234388
370
     9
100
AcDbVertex
100
AcDb2dVertex
 10
1050.9990234375
 20
694.005859375
 30
0.0
  0
SEQEND
  5
57B
330
578
100
AcDbEntity
  8
\U+30EC\U+30A4\U+30E4\U+30FC 1
370
     9
  0
POLYLINE
  5
57C
330
4B6
100
AcDbEntity
  8
\U+30EC\U+30A4\U+30E4\U+30FC 1
 62
   250
420
  2234388
370
     9
100
AcDb2dPolyline
 66
     1
 10
0.0
 20
0.0
 30
0.0
  0
VERTEX
  5
57D
330
57C
100
AcDbEntity
  8
\U+30EC\U+30A4\U+30E4\U+30FC 1
 62
   250
420
  2234388
370
     9
100
AcDbVertex
100
AcDb2dVertex
 10
1050.9990234375
 20
694.00634765625
 30
0.0
  0
VERTEX
  5
57E
330
57C
100
AcDbEntity
  8
\U+30EC\U+30A4\U+30E4\U+30FC 1
 62
   250
420
  2234388
370
     9
100
AcDbVertex
100
AcDb2dVertex
 10
1050.9990234375
 20
688.33203125
 30
0.0
  0
SEQEND
  5
57F
330
57C
100
AcDbEntity
  8
\U+30EC\U+30A4\U+30E4\U+30FC 1
370
     9
  0
POLYLINE
  5
580
330
4B6
100
AcDbEntity
  8
\U+30EC\U+30A4\U+30E4\U+30FC 1
 62
   250
420
  2234388
370
     9
100
AcDb2dPolyline
 66
     1
 10
0.0
 20
0.0
 30
0.0
  0
VERTEX
  5
581
330
580
100
AcDbEntity
  8
\U+30EC\U+30A4\U+30E4\U+30FC 1
 62
   250
420
  2234388
370
     9
100
AcDbVertex
100
AcDb2dVertex
 10
1047.220703125
 20
690.85595703125
 30
0.0
  0
VERTEX
  5
582
330
580
100
AcDbEntity
  8
\U+30EC\U+30A4\U+30E4\U+30FC 1
 62
   250
420
  2234388
370
     9
100
AcDbVertex
100
AcDb2dVertex
 10
1047.220703125
 20
686.69189453125
 30
0.0
  0
SEQEND
  5
583
330
580
100
AcDbEntity
  8
\U+30EC\U+30A4\U+30E4\U+30FC 1
370
     9
  0
POLYLINE
  5
584
330
4B6
100
AcDbEntity
  8
\U+30EC\U+30A4\U+30E4\U+30FC 1
 62
   250
420
  2234388
370
     9
100
AcDb2dPolyline
 66
     1
 10
0.0
 20
0.0
 30
0.0
  0
VERTEX
  5
585
330
584
100
AcDbEntity
  8
\U+30EC\U+30A4\U+30E4\U+30FC 1
 62
   250
420
  2234388
370
     9
100
AcDbVertex
100
AcDb2dVertex
 10
1010.646484375
 20
690.85595703125
 30
0.0
  0
VERTEX
  5
586
330
584
100
AcDbEntity
  8
\U+30EC\U+30A4\U+30E4\U+30FC 1
 62
   250
420
  2234388
370
     9
100
AcDbVertex
100
AcDb2dVertex
 10
1047.220703125
 20
690.85595703125
 30
0.0
  0
SEQEND
  5
587
330
584
100
AcDbEntity
  8
\U+30EC\U+30A4\U+30E4\U+30FC 1
370
     9
  0
POLYLINE
  5
588
330
4B6
100
AcDbEntity
  8
\U+30EC\U+30A4\U+30E4\U+30FC 1
 62
   250
420
  2234388
370
     9
100
AcDb2dPolyline
 66
     1
 10
0.0
 20
0.0
 30
0.0
  0
VERTEX
  5
589
330
588
100
AcDbEntity
  8
\U+30EC\U+30A4\U+30E4\U+30FC 1
 62
   250
420
  2234388
370
     9
100
AcDbVertex
100
AcDb2dVertex
 10
1024.51953125
 20
658.06591796875
 30
0.0
  0
VERTEX
  5
58A
330
588
100
AcDbEntity
  8
\U+30EC\U+30A4\U+30E4\U+30FC 1
 62
   250
420
  2234388
370
     9
100
AcDbVertex
100
AcDb2dVertex
 10
1024.51953125
 20
618.9697265625
 30
0.0
  0
SEQEND
  5
58B
330
588
100
AcDbEntity
  8
\U+30EC\U+30A4\U+30E4\U+30FC 1
370
     9
  0
POLYLINE
  5
58C
330
4B6
100
AcDbEntity
  8
\U+30EC\U+30A4\U+30E4\U+30FC 1
 62
   250
420
  2234388
370
     9
100
AcDb2dPolyline
 66
     1
 10
0.0
 20
0.0
 30
0.0
  0
VERTEX
  5
58D
330
58C
100
AcDbEntity
  8
\U+30EC\U+30A4\U+30E4\U+30FC 1
 62
   250
420
  2234388
370
     9
100
AcDbVertex
100
AcDb2dVertex
 10
1025.7783203125
 20
620.86083984375
 30
0.0
  0
VERTEX
  5
58E
330
58C
100
AcDbEntity
  8
\U+30EC\U+30A4\U+30E4\U+30FC 1
 62
   250
420
  2234388
370
     9
100
AcDbVertex
100
AcDb2dVertex
 10
1024.51953125
 20
618.9697265625
 30
0.0
  0
SEQEND
  5
58F
330
58C
100
AcDbEntity
  8
\U+30EC\U+30A4\U+30E4\U+30FC 1
370
     9
  0
POLYLINE
  5
590
330
4B6
100
AcDbEntity
  8
\U+30EC\U+30A4\U+30E4\U+30FC 1
 62
   250
420
  2234388
370
     9
100
AcDb2dPolyline
 66
     1
 10
0.0
 20
0.0
 30
0.0
  0
VERTEX
  5
591
330
590
100
AcDbEntity
  8
\U+30EC\U+30A4\U+30E4\U+30FC 1
 62
   250
420
  2234388
370
     9
100
AcDbVertex
100
AcDb2dVertex
 10
1025.7783203125
 20
620.86083984375
 30
0.0
  0
VERTEX
  5
592
330
590
100
AcDbEntity
  8
\U+30EC\U+30A4\U+30E4\U+30FC 1
 62
   250
420
  2234388
370
     9
100
AcDbVertex
100
AcDb2dVertex
 10
1049.7373046875
 20
620.86083984375
 30
0.0
  0
SEQEND
  5
593
330
590
100
AcDbEntity
  8
\U+30EC\U+30A4\U+30E4\U+30FC 1
370
     9
  0
POLYLINE
  5
594
330
4B6
100
AcDbEntity
  8
\U+30EC\U+30A4\U+30E4\U+30FC 1
 62
   250
420
  2234388
370
     9
100
AcDb2dPolyline
 66
     1
 10
0.0
 20
0.0
 30
0.0
  0
VERTEX
  5
595
330
594
100
AcDbEntity
  8
\U+30EC\U+30A4\U+30E4\U+30FC 1
 62
   250
420
  2234388
370
     9
100
AcDbVertex
100
AcDb2dVertex
 10
1050.9990234375
 20
622.12158203125
 30
0.0
  0
VERTEX
  5
596
330
594
100
AcDbEntity
  8
\U+30EC\U+30A4\U+30E4\U+30FC 1
 62
   250
420
  2234388
370
     9
100
AcDbVertex
100
AcDb2dVertex
 10
1050.9990234375
 20
658.0654296875
 30
0.0
  0
SEQEND
  5
597
330
594
100
AcDbEntity
  8
\U+30EC\U+30A4\U+30E4\U+30FC 1
370
     9
  0
POLYLINE
  5
598
330
4B6
100
AcDbEntity
  8
\U+30EC\U+30A4\U+30E4\U+30FC 1
 62
   250
420
  2234388
370
     9
100
AcDb2dPolyline
 66
     1
 10
0.0
 20
0.0
 30
0.0
  0
VERTEX
  5
599
330
598
100
AcDbEntity
  8
\U+30EC\U+30A4\U+30E4\U+30FC 1
 62
   250
420
  2234388
370
     9
100
AcDbVertex
100
AcDb2dVertex
 10
1049.7373046875
 20
620.86083984375
 30
0.0
  0
VERTEX
  5
59A
330
598
100
AcDbEntity
  8
\U+30EC\U+30A4\U+30E4\U+30FC 1
 62
   250
420
  2234388
370
     9
100
AcDbVertex
100
AcDb2dVertex
 10
1049.7373046875
 20
658.06591796875
 30
0.0
  0
SEQEND
  5
59B
330
598
100
AcDbEntity
  8
\U+30EC\U+30A4\U+30E4\U+30FC 1
370
     9
  0
POLYLINE
  5
59C
330
4B6
100
AcDbEntity
  8
\U+30EC\U+30A4\U+30E4\U+30FC 1
 62
   250
420
  2234388
370
     9
100
AcDb2dPolyline
 66
     1
 10
0.0
 20
0.0
 30
0.0
  0
VERTEX
  5
59D
330
59C
100
AcDbEntity
  8
\U+30EC\U+30A4\U+30E4\U+30FC 1
 62
   250
420
  2234388
370
     9
100
AcDbVertex
100
AcDb2dVertex
 10
1050.9990234375
 20
622.12158203125
 30
0.0
  0
VERTEX
  5
59E
330
59C
100
AcDbEntity
  8
\U+30EC\U+30A4\U+30E4\U+30FC 1
 62
   250
420
  2234388
370
     9
100
AcDbVertex
100
AcDb2dVertex
 10
1049.7373046875
 20
620.8603515625
 30
0.0
  0
SEQEND
  5
59F
330
59C
100
AcDbEntity
  8
\U+30EC\U+30A4\U+30E4\U+30FC 1
370
     9
  0
POLYLINE
  5
5A0
330
4B6
100
AcDbEntity
  8
\U+30EC\U+30A4\U+30E4\U+30FC 1
 62
   250
420
  2234388
370
     9
100
AcDb2dPolyline
 66
     1
 10
0.0
 20
0.0
 30
0.0
  0
VERTEX
  5
5A1
330
5A0
100
AcDbEntity
  8
\U+30EC\U+30A4\U+30E4\U+30FC 1
 62
   250
420
  2234388
370
     9
100
AcDbVertex
100
AcDb2dVertex
 10
1047.220703125
 20
686.69189453125
 30
0.0
  0
VERTEX
  5
5A2
330
5A0
100
AcDbEntity
  8
\U+30EC\U+30A4\U+30E4\U+30FC 1
 62
   250
420
  2234388
370
     9
100
AcDbVertex
100
AcDb2dVertex
 10
1047.46875
 20
686.44384765625
 30
0.0
  0
SEQEND
  5
5A3
330
5A0
100
AcDbEntity
  8
\U+30EC\U+30A4\U+30E4\U+30FC 1
370
     9
  0
POLYLINE
  5
5A4
330
4B6
100
AcDbEntity
  8
\U+30EC\U+30A4\U+30E4\U+30FC 1
 62
   250
420
  2234388
370
     9
100
AcDb2dPolyline
 66
     1
 10
0.0
 20
0.0
 30
0.0
  0
VERTEX
  5
5A5
330
5A4
100
AcDbEntity
  8
\U+30EC\U+30A4\U+30E4\U+30FC 1
 62
   250
420
  2234388
370
     9
100
AcDbVertex
100
AcDb2dVertex
 10
1010.646484375
 20
690.85595703125
 30
0.0
  0
VERTEX
  5
5A6
330
5A4
100
AcDbEntity
  8
\U+30EC\U+30A4\U+30E4\U+30FC 1
 62
   250
420
  2234388
370
     9
100
AcDbVertex
100
AcDb2dVertex
 10
1010.646484375
 20
658.06591796875
 30
0.0
  0
SEQEND
  5
5A7
330
5A4
100
AcDbEntity
  8
\U+30EC\U+30A4\U+30E4\U+30FC 1
370
     9
  0
POLYLINE
  5
5A8
330
4B6
100
AcDbEntity
  8
\U+30EC\U+30A4\U+30E4\U+30FC 1
 62
   250
420
  2234388
370
     9
100
AcDb2dPolyline
 66
     1
 10
0.0
 20
0.0
 30
0.0
  0
VERTEX
  5
5A9
330
5A8
100
AcDbEntity
  8
\U+30EC\U+30A4\U+30E4\U+30FC 1
 62
   250
420
  2234388
370
     9
100
AcDbVertex
100
AcDb2dVertex
 10
1061.083984375
 20
686.69189453125
 30
0.0
  0
VERTEX
  5
5AA
330
5A8
100
AcDbEntity
  8
\U+30EC\U+30A4\U+30E4\U+30FC 1
 62
   250
420
  2234388
370
     9
100
AcDbVertex
100
AcDb2dVertex
 10
1060.8330078125
 20
686.44384765625
 30
0.0
  0
SEQEND
  5
5AB
330
5A8
100
AcDbEntity
  8
\U+30EC\U+30A4\U+30E4\U+30FC 1
370
     9
  0
POLYLINE
  5
5AC
330
4B6
100
AcDbEntity
  8
\U+30EC\U+30A4\U+30E4\U+30FC 1
 62
   250
420
  2234388
370
     9
100
AcDb2dPolyline
 66
     1
 10
0.0
 20
0.0
 30
0.0
  0
VERTEX
  5
5AD
330
5AC
100
AcDbEntity
  8
\U+30EC\U+30A4\U+30E4\U+30FC 1
 62
   250
420
  2234388
370
     9
100
AcDbVertex
100
AcDb2dVertex
 10
1047.220703125
 20
686.69189453125
 30
0.0
  0
VERTEX
  5
5AE
330
5AC
100
AcDbEntity
  8
\U+30EC\U+30A4\U+30E4\U+30FC 1
 62
   250
420
  2234388
370
     9
100
AcDbVertex
100
AcDb2dVertex
 10
1047.46875
 20
686.44384765625
 30
0.0
  0
SEQEND
  5
5AF
330
5AC
100
AcDbEntity
  8
\U+30EC\U+30A4\U+30E4\U+30FC 1
370
     9
  0
POLYLINE
  5
5B0
330
4B6
100
AcDbEntity
  8
\U+30EC\U+30A4\U+30E4\U+30FC 1
 62
   250
420
  2234388
370
     9
100
AcDb2dPolyline
 66
     1
 10
0.0
 20
0.0
 30
0.0
  0
VERTEX
  5
5B1
330
5B0
100
AcDbEntity
  8
\U+30EC\U+30A4\U+30E4\U+30FC 1
 62
   250
420
  2234388
370
     9
100
AcDbVertex
100
AcDb2dVertex
 10
1047.220703125
 20
686.44384765625
 30
0.0
  0
VERTEX
  5
5B2
330
5B0
100
AcDbEntity
  8
\U+30EC\U+30A4\U+30E4\U+30FC 1
 62
   250
420
  2234388
370
     9
100
AcDbVertex
100
AcDb2dVertex
 10
1047.220703125
 20
658.06591796875
 30
0.0
  0
SEQEND
  5
5B3
330
5B0
100
AcDbEntity
  8
\U+30EC\U+30A4\U+30E4\U+30FC 1
370
     9
  0
POLYLINE
  5
5B4
330
4B6
100
AcDbEntity
  8
\U+30EC\U+30A4\U+30E4\U+30FC 1
  6
AI-Linetype-14
 62
   250
420
  2234388
370
     9
100
AcDb2dPolyline
 66
     1
 10
0.0
 20
0.0
 30
0.0
  0
VERTEX
  5
5B5
330
5B4
100
AcDbEntity
  8
\U+30EC\U+30A4\U+30E4\U+30FC 1
  6
AI-Linetype-14
 62
   250
420
  2234388
370
     9
100
AcDbVertex
100
AcDb2dVertex
 10
994.2529296875
 20
658.06591796875
 30
0.0
  0
VERTEX
  5
5B6
330
5B4
100
AcDbEntity
  8
\U+30EC\U+30A4\U+30E4\U+30FC 1
  6
AI-Linetype-14
 62
   250
420
  2234388
370
     9
100
AcDbVertex
100
AcDb2dVertex
 10
1066.2255859375
 20
658.06591796875
 30
0.0
  0
SEQEND
  5
5B7
330
5B4
100
AcDbEntity
  8
\U+30EC\U+30A4\U+30E4\U+30FC 1
  6
AI-Linetype-14
370
     9
  0
POLYLINE
  5
5B9
330
4B6
100
AcDbEntity
  8
\U+30EC\U+30A4\U+30E4\U+30FC 1
 62
   250
420
  2234388
370
     9
100
AcDb2dPolyline
 66
     1
 10
0.0
 20
0.0
 30
0.0
  0
VERTEX
  5
5BA
330
5B9
100
AcDbEntity
  8
\U+30EC\U+30A4\U+30E4\U+30FC 1
 62
   250
420
  2234388
370
     9
100
AcDbVertex
100
AcDb2dVertex
 10
1057.517578125
 20
686.44384765625
 30
0.0
  0
VERTEX
  5
5BB
330
5B9
100
AcDbEntity
  8
\U+30EC\U+30A4\U+30E4\U+30FC 1
 62
   250
420
  2234388
370
     9
100
AcDbVertex
100
AcDb2dVertex
 10
1060.248046875
 20
689.169921875
 30
0.0
  0
SEQEND
  5
5BC
330
5B9
100
AcDbEntity
  8
\U+30EC\U+30A4\U+30E4\U+30FC 1
370
     9
  0
POLYLINE
  5
5BD
330
4B6
100
AcDbEntity
  8
\U+30EC\U+30A4\U+30E4\U+30FC 1
 62
   250
420
  2234388
370
     9
100
AcDb2dPolyline
 66
     1
 10
0.0
 20
0.0
 30
0.0
  0
VERTEX
  5
5BE
330
5BD
100
AcDbEntity
  8
\U+30EC\U+30A4\U+30E4\U+30FC 1
 62
   250
420
  2234388
370
     9
100
AcDbVertex
100
AcDb2dVertex
 10
1053.953125
 20
686.44384765625
 30
0.0
  0
VERTEX
  5
5BF
330
5BD
100
AcDbEntity
  8
\U+30EC\U+30A4\U+30E4\U+30FC 1
 62
   250
420
  2234388
370
     9
100
AcDbVertex
100
AcDb2dVertex
 10
1057.60546875
 20
690.0986328125
 30
0.0
  0
SEQEND
  5
5C0
330
5BD
100
AcDbEntity
  8
\U+30EC\U+30A4\U+30E4\U+30FC 1
370
     9
  0
POLYLINE
  5
5C1
330
4B6
100
AcDbEntity
  8
\U+30EC\U+30A4\U+30E4\U+30FC 1
 62
   250
420
  2234388
370
     9
100
AcDb2dPolyline
 66
     1
 10
0.0
 20
0.0
 30
0.0
  0
VERTEX
  5
5C2
330
5C1
100
AcDbEntity
  8
\U+30EC\U+30A4\U+30E4\U+30FC 1
 62
   250
420
  2234388
370
     9
100
AcDbVertex
100
AcDb2dVertex
 10
1050.38671875
 20
686.44384765625
 30
0.0
  0
VERTEX
  5
5C3
330
5C1
100
AcDbEntity
  8
\U+30EC\U+30A4\U+30E4\U+30FC 1
 62
   250
420
  2234388
370
     9
100
AcDbVertex
100
AcDb2dVertex
 10
1052.27734375
 20
688.3330078125
 30
0.0
  0
SEQEND
  5
5C4
330
5C1
100
AcDbEntity
  8
\U+30EC\U+30A4\U+30E4\U+30FC 1
370
     9
  0
POLYLINE
  5
5C5
330
4B6
100
AcDbEntity
  8
\U+30EC\U+30A4\U+30E4\U+30FC 1
 62
   250
420
  2234388
370
     9
100
AcDb2dPolyline
 66
     1
 10
0.0
 20
0.0
 30
0.0
  0
VERTEX
  5
5C6
330
5C5
100
AcDbEntity
  8
\U+30EC\U+30A4\U+30E4\U+30FC 1
 62
   250
420
  2234388
370
     9
100
AcDbVertex
100
AcDb2dVertex
 10
1047.220703125
 20
686.83837890625
 30
0.0
  0
VERTEX
  5
5C7
330
5C5
100
AcDbEntity
  8
\U+30EC\U+30A4\U+30E4\U+30FC 1
 62
   250
420
  2234388
370
     9
100
AcDbVertex
100
AcDb2dVertex
 10
1050.9990234375
 20
690.619140625
 30
0.0
  0
SEQEND
  5
5C8
330
5C5
100
AcDbEntity
  8
\U+30EC\U+30A4\U+30E4\U+30FC 1
370
     9
  0
POLYLINE
  5
5C9
330
4B6
100
AcDbEntity
  8
\U+30EC\U+30A4\U+30E4\U+30FC 1
 62
   250
420
  2234388
370
     9
100
AcDb2dPolyline
 66
     1
 10
0.0
 20
0.0
 30
0.0
  0
VERTEX
  5
5CA
330
5C9
100
AcDbEntity
  8
\U+30EC\U+30A4\U+30E4\U+30FC 1
 62
   250
420
  2234388
370
     9
100
AcDbVertex
100
AcDb2dVertex
 10
1047.220703125
 20
690.40380859375
 30
0.0
  0
VERTEX
  5
5CB
330
5C9
100
AcDbEntity
  8
\U+30EC\U+30A4\U+30E4\U+30FC 1
 62
   250
420
  2234388
370
     9
100
AcDbVertex
100
AcDb2dVertex
 10
1050.91015625
 20
694.095703125
 30
0.0
  0
SEQEND
  5
5CC
330
5C9
100
AcDbEntity
  8
\U+30EC\U+30A4\U+30E4\U+30FC 1
370
     9
  0
POLYLINE
  5
5CD
330
4B6
100
AcDbEntity
  8
\U+30EC\U+30A4\U+30E4\U+30FC 1
 62
   250
420
  2234388
370
     9
100
AcDb2dPolyline
 66
     1
 10
0.0
 20
0.0
 30
0.0
  0
VERTEX
  5
5CE
330
5CD
100
AcDbEntity
  8
\U+30EC\U+30A4\U+30E4\U+30FC 1
 62
   250
420
  2234388
370
     9
100
AcDbVertex
100
AcDb2dVertex
 10
1044.1025390625
 20
690.85595703125
 30
0.0
  0
VERTEX
  5
5CF
330
5CD
100
AcDbEntity
  8
\U+30EC\U+30A4\U+30E4\U+30FC 1
 62
   250
420
  2234388
370
     9
100
AcDbVertex
100
AcDb2dVertex
 10
1048.51953125
 20
695.27099609375
 30
0.0
  0
SEQEND
  5
5D0
330
5CD
100
AcDbEntity
  8
\U+30EC\U+30A4\U+30E4\U+30FC 1
370
     9
  0
POLYLINE
  5
5D1
330
4B6
100
AcDbEntity
  8
\U+30EC\U+30A4\U+30E4\U+30FC 1
 62
   250
420
  2234388
370
     9
100
AcDb2dPolyline
 66
     1
 10
0.0
 20
0.0
 30
0.0
  0
VERTEX
  5
5D2
330
5D1
100
AcDbEntity
  8
\U+30EC\U+30A4\U+30E4\U+30FC 1
 62
   250
420
  2234388
370
     9
100
AcDbVertex
100
AcDb2dVertex
 10
1040.5390625
 20
690.85595703125
 30
0.0
  0
VERTEX
  5
5D3
330
5D1
100
AcDbEntity
  8
\U+30EC\U+30A4\U+30E4\U+30FC 1
 62
   250
420
  2234388
370
     9
100
AcDbVertex
100
AcDb2dVertex
 10
1044.953125
 20
695.27099609375
 30
0.0
  0
SEQEND
  5
5D4
330
5D1
100
AcDbEntity
  8
\U+30EC\U+30A4\U+30E4\U+30FC 1
370
     9
  0
POLYLINE
  5
5D5
330
4B6
100
AcDbEntity
  8
\U+30EC\U+30A4\U+30E4\U+30FC 1
 62
   250
420
  2234388
370
     9
100
AcDb2dPolyline
 66
     1
 10
0.0
 20
0.0
 30
0.0
  0
VERTEX
  5
5D6
330
5D5
100
AcDbEntity
  8
\U+30EC\U+30A4\U+30E4\U+30FC 1
 62
   250
420
  2234388
370
     9
100
AcDbVertex
100
AcDb2dVertex
 10
1036.9716796875
 20
690.85595703125
 30
0.0
  0
VERTEX
  5
5D7
330
5D5
100
AcDbEntity
  8
\U+30EC\U+30A4\U+30E4\U+30FC 1
 62
   250
420
  2234388
370
     9
100
AcDbVertex
100
AcDb2dVertex
 10
1041.3828125
 20
695.27099609375
 30
0.0
  0
SEQEND
  5
5D8
330
5D5
100
AcDbEntity
  8
\U+30EC\U+30A4\U+30E4\U+30FC 1
370
     9
  0
POLYLINE
  5
5D9
330
4B6
100
AcDbEntity
  8
\U+30EC\U+30A4\U+30E4\U+30FC 1
 62
   250
420
  2234388
370
     9
100
AcDb2dPolyline
 66
     1
 10
0.0
 20
0.0
 30
0.0
  0
VERTEX
  5
5DA
330
5D9
100
AcDbEntity
  8
\U+30EC\U+30A4\U+30E4\U+30FC 1
 62
   250
420
  2234388
370
     9
100
AcDbVertex
100
AcDb2dVertex
 10
1033.4013671875
 20
690.85595703125
 30
0.0
  0
VERTEX
  5
5DB
330
5D9
100
AcDbEntity
  8
\U+30EC\U+30A4\U+30E4\U+30FC 1
 62
   250
420
  2234388
370
     9
100
AcDbVertex
100
AcDb2dVertex
 10
1037.8154296875
 20
695.27099609375
 30
0.0
  0
SEQEND
  5
5DC
330
5D9
100
AcDbEntity
  8
\U+30EC\U+30A4\U+30E4\U+30FC 1
370
     9
  0
POLYLINE
  5
5DD
330
4B6
100
AcDbEntity
  8
\U+30EC\U+30A4\U+30E4\U+30FC 1
 62
   250
420
  2234388
370
     9
100
AcDb2dPolyline
 66
     1
 10
0.0
 20
0.0
 30
0.0
  0
VERTEX
  5
5DE
330
5DD
100
AcDbEntity
  8
\U+30EC\U+30A4\U+30E4\U+30FC 1
 62
   250
420
  2234388
370
     9
100
AcDbVertex
100
AcDb2dVertex
 10
1029.837890625
 20
690.85595703125
 30
0.0
  0
VERTEX
  5
5DF
330
5DD
100
AcDbEntity
  8
\U+30EC\U+30A4\U+30E4\U+30FC 1
 62
   250
420
  2234388
370
     9
100
AcDbVertex
100
AcDb2dVertex
 10
1034.251953125
 20
695.27099609375
 30
0.0
  0
SEQEND
  5
5E0
330
5DD
100
AcDbEntity
  8
\U+30EC\U+30A4\U+30E4\U+30FC 1
370
     9
  0
POLYLINE
  5
5E1
330
4B6
100
AcDbEntity
  8
\U+30EC\U+30A4\U+30E4\U+30FC 1
 62
   250
420
  2234388
370
     9
100
AcDb2dPolyline
 66
     1
 10
0.0
 20
0.0
 30
0.0
  0
VERTEX
  5
5E2
330
5E1
100
AcDbEntity
  8
\U+30EC\U+30A4\U+30E4\U+30FC 1
 62
   250
420
  2234388
370
     9
100
AcDbVertex
100
AcDb2dVertex
 10
1026.271484375
 20
690.85595703125
 30
0.0
  0
VERTEX
  5
5E3
330
5E1
100
AcDbEntity
  8
\U+30EC\U+30A4\U+30E4\U+30FC 1
 62
   250
420
  2234388
370
     9
100
AcDbVertex
100
AcDb2dVertex
 10
1030.6845703125
 20
695.27099609375
 30
0.0
  0
SEQEND
  5
5E4
330
5E1
100
AcDbEntity
  8
\U+30EC\U+30A4\U+30E4\U+30FC 1
370
     9
  0
POLYLINE
  5
5E5
330
4B6
100
AcDbEntity
  8
\U+30EC\U+30A4\U+30E4\U+30FC 1
 62
   250
420
  2234388
370
     9
100
AcDb2dPolyline
 66
     1
 10
0.0
 20
0.0
 30
0.0
  0
VERTEX
  5
5E6
330
5E5
100
AcDbEntity
  8
\U+30EC\U+30A4\U+30E4\U+30FC 1
 62
   250
420
  2234388
370
     9
100
AcDbVertex
100
AcDb2dVertex
 10
1022.7001953125
 20
690.85595703125
 30
0.0
  0
VERTEX
  5
5E7
330
5E5
100
AcDbEntity
  8
\U+30EC\U+30A4\U+30E4\U+30FC 1
 62
   250
420
  2234388
370
     9
100
AcDbVertex
100
AcDb2dVertex
 10
1027.828125
 20
695.98388671875
 30
0.0
  0
SEQEND
  5
5E8
330
5E5
100
AcDbEntity
  8
\U+30EC\U+30A4\U+30E4\U+30FC 1
370
     9
  0
POLYLINE
  5
5E9
330
4B6
100
AcDbEntity
  8
\U+30EC\U+30A4\U+30E4\U+30FC 1
 62
   250
420
  2234388
370
     9
100
AcDb2dPolyline
 66
     1
 10
0.0
 20
0.0
 30
0.0
  0
VERTEX
  5
5EA
330
5E9
100
AcDbEntity
  8
\U+30EC\U+30A4\U+30E4\U+30FC 1
 62
   250
420
  2234388
370
     9
100
AcDbVertex
100
AcDb2dVertex
 10
1019.13671875
 20
690.85595703125
 30
0.0
  0
VERTEX
  5
5EB
330
5E9
100
AcDbEntity
  8
\U+30EC\U+30A4\U+30E4\U+30FC 1
 62
   250
420
  2234388
370
     9
100
AcDbVertex
100
AcDb2dVertex
 10
1025.44140625
 20
697.162109375
 30
0.0
  0
SEQEND
  5
5EC
330
5E9
100
AcDbEntity
  8
\U+30EC\U+30A4\U+30E4\U+30FC 1
370
     9
  0
POLYLINE
  5
5ED
330
4B6
100
AcDbEntity
  8
\U+30EC\U+30A4\U+30E4\U+30FC 1
 62
   250
420
  2234388
370
     9
100
AcDb2dPolyline
 66
     1
 10
0.0
 20
0.0
 30
0.0
  0
VERTEX
  5
5EE
330
5ED
100
AcDbEntity
  8
\U+30EC\U+30A4\U+30E4\U+30FC 1
 62
   250
420
  2234388
370
     9
100
AcDbVertex
100
AcDb2dVertex
 10
1015.56640625
 20
690.85595703125
 30
0.0
  0
VERTEX
  5
5EF
330
5ED
100
AcDbEntity
  8
\U+30EC\U+30A4\U+30E4\U+30FC 1
 62
   250
420
  2234388
370
     9
100
AcDbVertex
100
AcDb2dVertex
 10
1021.87109375
 20
697.162109375
 30
0.0
  0
SEQEND
  5
5F0
330
5ED
100
AcDbEntity
  8
\U+30EC\U+30A4\U+30E4\U+30FC 1
370
     9
  0
POLYLINE
  5
5F1
330
4B6
100
AcDbEntity
  8
\U+30EC\U+30A4\U+30E4\U+30FC 1
 62
   250
420
  2234388
370
     9
100
AcDb2dPolyline
 66
     1
 10
0.0
 20
0.0
 30
0.0
  0
VERTEX
  5
5F2
330
5F1
100
AcDbEntity
  8
\U+30EC\U+30A4\U+30E4\U+30FC 1
 62
   250
420
  2234388
370
     9
100
AcDbVertex
100
AcDb2dVertex
 10
1012.0
 20
690.85595703125
 30
0.0
  0
VERTEX
  5
5F3
330
5F1
100
AcDbEntity
  8
\U+30EC\U+30A4\U+30E4\U+30FC 1
 62
   250
420
  2234388
370
     9
100
AcDbVertex
100
AcDb2dVertex
 10
1018.3076171875
 20
697.162109375
 30
0.0
  0
SEQEND
  5
5F4
330
5F1
100
AcDbEntity
  8
\U+30EC\U+30A4\U+30E4\U+30FC 1
370
     9
  0
POLYLINE
  5
5F5
330
4B6
100
AcDbEntity
  8
\U+30EC\U+30A4\U+30E4\U+30FC 1
 62
   250
420
  2234388
370
     9
100
AcDb2dPolyline
 66
     1
 10
0.0
 20
0.0
 30
0.0
  0
VERTEX
  5
5F6
330
5F5
100
AcDbEntity
  8
\U+30EC\U+30A4\U+30E4\U+30FC 1
 62
   250
420
  2234388
370
     9
100
AcDbVertex
100
AcDb2dVertex
 10
1006.66796875
 20
689.09130859375
 30
0.0
  0
VERTEX
  5
5F7
330
5F5
100
AcDbEntity
  8
\U+30EC\U+30A4\U+30E4\U+30FC 1
 62
   250
420
  2234388
370
     9
100
AcDbVertex
100
AcDb2dVertex
 10
1014.740234375
 20
697.1611328125
 30
0.0
  0
SEQEND
  5
5F8
330
5F5
100
AcDbEntity
  8
\U+30EC\U+30A4\U+30E4\U+30FC 1
370
     9
  0
POLYLINE
  5
5F9
330
4B6
100
AcDbEntity
  8
\U+30EC\U+30A4\U+30E4\U+30FC 1
 62
   250
420
  2234388
370
     9
100
AcDb2dPolyline
 66
     1
 10
0.0
 20
0.0
 30
0.0
  0
VERTEX
  5
5FA
330
5F9
100
AcDbEntity
  8
\U+30EC\U+30A4\U+30E4\U+30FC 1
 62
   250
420
  2234388
370
     9
100
AcDbVertex
100
AcDb2dVertex
 10
1003.1044921875
 20
689.09130859375
 30
0.0
  0
VERTEX
  5
5FB
330
5F9
100
AcDbEntity
  8
\U+30EC\U+30A4\U+30E4\U+30FC 1
 62
   250
420
  2234388
370
     9
100
AcDbVertex
100
AcDb2dVertex
 10
1011.1728515625
 20
697.1611328125
 30
0.0
  0
SEQEND
  5
5FC
330
5F9
100
AcDbEntity
  8
\U+30EC\U+30A4\U+30E4\U+30FC 1
370
     9
  0
POLYLINE
  5
5FD
330
4B6
100
AcDbEntity
  8
\U+30EC\U+30A4\U+30E4\U+30FC 1
 62
   250
420
  2234388
370
     9
100
AcDb2dPolyline
 66
     1
 10
0.0
 20
0.0
 30
0.0
  0
VERTEX
  5
5FE
330
5FD
100
AcDbEntity
  8
\U+30EC\U+30A4\U+30E4\U+30FC 1
 62
   250
420
  2234388
370
     9
100
AcDbVertex
100
AcDb2dVertex
 10
1000.8017578125
 20
690.35791015625
 30
0.0
  0
VERTEX
  5
5FF
330
5FD
100
AcDbEntity
  8
\U+30EC\U+30A4\U+30E4\U+30FC 1
 62
   250
420
  2234388
370
     9
100
AcDbVertex
100
AcDb2dVertex
 10
1007.6064453125
 20
697.162109375
 30
0.0
  0
SEQEND
  5
600
330
5FD
100
AcDbEntity
  8
\U+30EC\U+30A4\U+30E4\U+30FC 1
370
     9
  0
POLYLINE
  5
601
330
4B6
100
AcDbEntity
  8
\U+30EC\U+30A4\U+30E4\U+30FC 1
 62
   250
420
  2234388
370
     9
100
AcDb2dPolyline
 66
     1
 10
0.0
 20
0.0
 30
0.0
  0
VERTEX
  5
602
330
601
100
AcDbEntity
  8
\U+30EC\U+30A4\U+30E4\U+30FC 1
 62
   250
420
  2234388
370
     9
100
AcDbVertex
100
AcDb2dVertex
 10
1000.5576171875
 20
693.68017578125
 30
0.0
  0
VERTEX
  5
603
330
601
100
AcDbEntity
  8
\U+30EC\U+30A4\U+30E4\U+30FC 1
 62
   250
420
  2234388
370
     9
100
AcDbVertex
100
AcDb2dVertex
 10
1004.0361328125
 20
697.1611328125
 30
0.0
  0
SEQEND
  5
604
330
601
100
AcDbEntity
  8
\U+30EC\U+30A4\U+30E4\U+30FC 1
370
     9
  0
POLYLINE
  5
605
330
4B6
100
AcDbEntity
  8
\U+30EC\U+30A4\U+30E4\U+30FC 1
 62
   250
420
  2234388
370
     9
100
AcDb2dPolyline
 66
     1
 10
0.0
 20
0.0
 30
0.0
  0
VERTEX
  5
606
330
605
100
AcDbEntity
  8
\U+30EC\U+30A4\U+30E4\U+30FC 1
 62
   250
420
  2234388
370
     9
100
AcDbVertex
100
AcDb2dVertex
 10
1053.64453125
 20
627.79736328125
 30
0.0
  0
VERTEX
  5
607
330
605
100
AcDbEntity
  8
\U+30EC\U+30A4\U+30E4\U+30FC 1
 62
   250
420
  2234388
370
     9
100
AcDbVertex
100
AcDb2dVertex
 10
1055.412109375
 20
626.0322265625
 30
0.0
  0
SEQEND
  5
608
330
605
100
AcDbEntity
  8
\U+30EC\U+30A4\U+30E4\U+30FC 1
370
     9
  0
POLYLINE
  5
609
330
4B6
100
AcDbEntity
  8
\U+30EC\U+30A4\U+30E4\U+30FC 1
 62
   250
420
  2234388
370
     9
100
AcDb2dPolyline
 66
     1
 10
0.0
 20
0.0
 30
0.0
  0
VERTEX
  5
60A
330
609
100
AcDbEntity
  8
\U+30EC\U+30A4\U+30E4\U+30FC 1
 62
   250
420
  2234388
370
     9
100
AcDbVertex
100
AcDb2dVertex
 10
1059.3193359375
 20
626.03271484375
 30
0.0
  0
VERTEX
  5
60B
330
609
100
AcDbEntity
  8
\U+30EC\U+30A4\U+30E4\U+30FC 1
 62
   250
420
  2234388
370
     9
100
AcDbVertex
100
AcDb2dVertex
 10
1061.083984375
 20
627.7978515625
 30
0.0
  0
SEQEND
  5
60C
330
609
100
AcDbEntity
  8
\U+30EC\U+30A4\U+30E4\U+30FC 1
370
     9
  0
POLYLINE
  5
60D
330
4B6
100
AcDbEntity
  8
\U+30EC\U+30A4\U+30E4\U+30FC 1
 62
   250
420
  2234388
370
     9
100
AcDb2dPolyline
 66
     1
 10
0.0
 20
0.0
 30
0.0
  0
VERTEX
  5
60E
330
60D
100
AcDbEntity
  8
\U+30EC\U+30A4\U+30E4\U+30FC 1
 62
   250
420
  2234388
370
     9
100
AcDbVertex
100
AcDb2dVertex
 10
1061.083984375
 20
688.33251953125
 30
0.0
  0
VERTEX
  5
60F
330
60D
100
AcDbEntity
  8
\U+30EC\U+30A4\U+30E4\U+30FC 1
 62
   250
420
  2234388
370
     9
100
AcDbVertex
100
AcDb2dVertex
 10
1059.3193359375
 20
690.099609375
 30
0.0
  0
SEQEND
  5
610
330
60D
100
AcDbEntity
  8
\U+30EC\U+30A4\U+30E4\U+30FC 1
370
     9
  0
POLYLINE
  5
611
330
4B6
100
AcDbEntity
  8
\U+30EC\U+30A4\U+30E4\U+30FC 1
 62
   250
420
  2234388
370
     9
100
AcDb2dPolyline
 66
     1
 10
0.0
 20
0.0
 30
0.0
  0
VERTEX
  5
612
330
611
100
AcDbEntity
  8
\U+30EC\U+30A4\U+30E4\U+30FC 1
 62
   250
420
  2234388
370
     9
100
AcDbVertex
100
AcDb2dVertex
 10
1055.412109375
 20
690.09912109375
 30
0.0
  0
VERTEX
  5
613
330
611
100
AcDbEntity
  8
\U+30EC\U+30A4\U+30E4\U+30FC 1
 62
   250
420
  2234388
370
     9
100
AcDbVertex
100
AcDb2dVertex
 10
1053.64453125
 20
688.33203125
 30
0.0
  0
SEQEND
  5
614
330
611
100
AcDbEntity
  8
\U+30EC\U+30A4\U+30E4\U+30FC 1
370
     9
  0
POLYLINE
  5
615
330
4B6
100
AcDbEntity
  8
\U+30EC\U+30A4\U+30E4\U+30FC 1
 62
   250
420
  2234388
370
     9
100
AcDb2dPolyline
 66
     1
 10
0.0
 20
0.0
 30
0.0
  0
VERTEX
  5
616
330
615
100
AcDbEntity
  8
\U+30EC\U+30A4\U+30E4\U+30FC 1
 62
   250
420
  2234388
370
     9
100
AcDbVertex
100
AcDb2dVertex
 10
1000.5576171875
 20
690.60400390625
 30
0.0
  0
VERTEX
  5
617
330
615
100
AcDbEntity
  8
\U+30EC\U+30A4\U+30E4\U+30FC 1
 62
   250
420
  2234388
370
     9
100
AcDbVertex
100
AcDb2dVertex
 10
1002.0703125
 20
689.0908203125
 30
0.0
  0
SEQEND
  5
618
330
615
100
AcDbEntity
  8
\U+30EC\U+30A4\U+30E4\U+30FC 1
370
     9
  0
POLYLINE
  5
619
330
4B6
100
AcDbEntity
  8
\U+30EC\U+30A4\U+30E4\U+30FC 1
370
     0
100
AcDb2dPolyline
 66
     1
 10
0.0
 20
0.0
 30
0.0
  0
VERTEX
  5
61A
330
619
100
AcDbEntity
  8
\U+30EC\U+30A4\U+30E4\U+30FC 1
370
     0
100
AcDbVertex
100
AcDb2dVertex
 10
989.15625
 20
694.91845703125
 30
0.0
  0
VERTEX
  5
61B
330
619
100
AcDbEntity
  8
\U+30EC\U+30A4\U+30E4\U+30FC 1
370
     0
100
AcDbVertex
100
AcDb2dVertex
 10
988.20703125
 20
695.279296875
 30
0.0
  0
VERTEX
  5
61C
330
619
100
AcDbEntity
  8
\U+30EC\U+30A4\U+30E4\U+30FC 1
370
     0
100
AcDbVertex
100
AcDb2dVertex
 10
987.259765625
 20
694.91845703125
 30
0.0
  0
VERTEX
  5
61D
330
619
100
AcDbEntity
  8
\U+30EC\U+30A4\U+30E4\U+30FC 1
370
     0
100
AcDbVertex
100
AcDb2dVertex
 10
988.20703125
 20
696.814453125
 30
0.0
  0
VERTEX
  5
61E
330
619
100
AcDbEntity
  8
\U+30EC\U+30A4\U+30E4\U+30FC 1
370
     0
100
AcDbVertex
100
AcDb2dVertex
 10
989.15625
 20
694.91845703125
 30
0.0
  0
SEQEND
  5
61F
330
619
100
AcDbEntity
  8
\U+30EC\U+30A4\U+30E4\U+30FC 1
370
     0
  0
HATCH
  5
620
330
4B6
100
AcDbEntity
  8
\U+30EC\U+30A4\U+30E4\U+30FC 1
 62
   250
420
  2234388
100
AcDbHatch
 10
0.0
 20
0.0
 30
0.0
210
0.0
220
0.0
230
1.0
  2
SOLID
 70
     1
 71
     0
 91
        1
 92
        1
 93
        4
 72
     1
 10
989.15625
 20
694.91845703125
 11
988.20703125
 21
695.279296875
 72
     1
 10
988.20703125
 20
695.279296875
 11
987.259765625
 21
694.91845703125
 72
     1
 10
987.259765625
 20
694.91845703125
 11
988.20703125
 21
696.814453125
 72
     1
 10
988.20703125
 20
696.814453125
 11
989.15625
 21
694.91845703125
 97
        0
 75
     2
 76
     1
 98
        0
  0
POLYLINE
  5
621
330
4B6
100
AcDbEntity
  8
\U+30EC\U+30A4\U+30E4\U+30FC 1
370
     0
100
AcDb2dPolyline
 66
     1
 10
0.0
 20
0.0
 30
0.0
  0
VERTEX
  5
622
330
621
100
AcDbEntity
  8
\U+30EC\U+30A4\U+30E4\U+30FC 1
370
     0
100
AcDbVertex
100
AcDb2dVertex
 10
987.259765625
 20
621.166015625
 30
0.0
  0
VERTEX
  5
623
330
621
100
AcDbEntity
  8
\U+30EC\U+30A4\U+30E4\U+30FC 1
370
     0
100
AcDbVertex
100
AcDb2dVertex
 10
988.20703125
 20
620.80517578125
 30
0.0
  0
VERTEX
  5
624
330
621
100
AcDbEntity
  8
\U+30EC\U+30A4\U+30E4\U+30FC 1
370
     0
100
AcDbVertex
100
AcDb2dVertex
 10
989.15625
 20
621.166015625
 30
0.0
  0
VERTEX
  5
625
330
621
100
AcDbEntity
  8
\U+30EC\U+30A4\U+30E4\U+30FC 1
370
     0
100
AcDbVertex
100
AcDb2dVertex
 10
988.20703125
 20
619.27001953125
 30
0.0
  0
VERTEX
  5
626
330
621
100
AcDbEntity
  8
\U+30EC\U+30A4\U+30E4\U+30FC 1
370
     0
100
AcDbVertex
100
AcDb2dVertex
 10
987.259765625
 20
621.166015625
 30
0.0
  0
SEQEND
  5
627
330
621
100
AcDbEntity
  8
\U+30EC\U+30A4\U+30E4\U+30FC 1
370
     0
  0
HATCH
  5
628
330
4B6
100
AcDbEntity
  8
\U+30EC\U+30A4\U+30E4\U+30FC 1
 62
   250
420
  2234388
100
AcDbHatch
 10
0.0
 20
0.0
 30
0.0
210
0.0
220
0.0
230
1.0
  2
SOLID
 70
     1
 71
     0
 91
        1
 92
        1
 93
        4
 72
     1
 10
987.259765625
 20
621.166015625
 11
988.20703125
 21
620.80517578125
 72
     1
 10
988.20703125
 20
620.80517578125
 11
989.15625
 21
621.166015625
 72
     1
 10
989.15625
 20
621.166015625
 11
988.20703125
 21
619.27001953125
 72
     1
 10
988.20703125
 20
619.27001953125
 11
987.259765625
 21
621.166015625
 97
        0
 75
     2
 76
     1
 98
        0
  0
POLYLINE
  5
629
330
4B6
100
AcDbEntity
  8
\U+30EC\U+30A4\U+30E4\U+30FC 1
370
     0
100
AcDb2dPolyline
 66
     1
 10
0.0
 20
0.0
 30
0.0
  0
VERTEX
  5
62A
330
629
100
AcDbEntity
  8
\U+30EC\U+30A4\U+30E4\U+30FC 1
370
     0
100
AcDbVertex
100
AcDb2dVertex
 10
1003.0361328125
 20
611.64404296875
 30
0.0
  0
VERTEX
  5
62B
330
629
100
AcDbEntity
  8
\U+30EC\U+30A4\U+30E4\U+30FC 1
370
     0
100
AcDbVertex
100
AcDb2dVertex
 10
1002.6767578125
 20
610.69580078125
 30
0.0
  0
VERTEX
  5
62C
330
629
100
AcDbEntity
  8
\U+30EC\U+30A4\U+30E4\U+30FC 1
370
     0
100
AcDbVertex
100
AcDb2dVertex
 10
1003.0361328125
 20
609.748046875
 30
0.0
  0
VERTEX
  5
62D
330
629
100
AcDbEntity
  8
\U+30EC\U+30A4\U+30E4\U+30FC 1
370
     0
100
AcDbVertex
100
AcDb2dVertex
 10
1001.1396484375
 20
610.69580078125
 30
0.0
  0
VERTEX
  5
62E
330
629
100
AcDbEntity
  8
\U+30EC\U+30A4\U+30E4\U+30FC 1
370
     0
100
AcDbVertex
100
AcDb2dVertex
 10
1003.0361328125
 20
611.64404296875
 30
0.0
  0
SEQEND
  5
62F
330
629
100
AcDbEntity
  8
\U+30EC\U+30A4\U+30E4\U+30FC 1
370
     0
  0
HATCH
  5
630
330
4B6
100
AcDbEntity
  8
\U+30EC\U+30A4\U+30E4\U+30FC 1
 62
   250
420
  2234388
100
AcDbHatch
 10
0.0
 20
0.0
 30
0.0
210
0.0
220
0.0
230
1.0
  2
SOLID
 70
     1
 71
     0
 91
        1
 92
        1
 93
        4
 72
     1
 10
1003.0361328125
 20
611.64404296875
 11
1002.6767578125
 21
610.69580078125
 72
     1
 10
1002.6767578125
 20
610.69580078125
 11
1003.0361328125
 21
609.748046875
 72
     1
 10
1003.0361328125
 20
609.748046875
 11
1001.1396484375
 21
610.69580078125
 72
     1
 10
1001.1396484375
 20
610.69580078125
 11
1003.0361328125
 21
611.64404296875
 97
        0
 75
     2
 76
     1
 98
        0
  0
POLYLINE
  5
631
330
4B6
100
AcDbEntity
  8
\U+30EC\U+30A4\U+30E4\U+30FC 1
370
     0
100
AcDb2dPolyline
 66
     1
 10
0.0
 20
0.0
 30
0.0
  0
VERTEX
  5
632
330
631
100
AcDbEntity
  8
\U+30EC\U+30A4\U+30E4\U+30FC 1
370
     0
100
AcDbVertex
100
AcDb2dVertex
 10
1063.6728515625
 20
611.64404296875
 30
0.0
  0
VERTEX
  5
633
330
631
100
AcDbEntity
  8
\U+30EC\U+30A4\U+30E4\U+30FC 1
370
     0
100
AcDbVertex
100
AcDb2dVertex
 10
1063.3115234375
 20
610.69580078125
 30
0.0
  0
VERTEX
  5
634
330
631
100
AcDbEntity
  8
\U+30EC\U+30A4\U+30E4\U+30FC 1
370
     0
100
AcDbVertex
100
AcDb2dVertex
 10
1063.6728515625
 20
609.748046875
 30
0.0
  0
VERTEX
  5
635
330
631
100
AcDbEntity
  8
\U+30EC\U+30A4\U+30E4\U+30FC 1
370
     0
100
AcDbVertex
100
AcDb2dVertex
 10
1061.7763671875
 20
610.69580078125
 30
0.0
  0
VERTEX
  5
636
330
631
100
AcDbEntity
  8
\U+30EC\U+30A4\U+30E4\U+30FC 1
370
     0
100
AcDbVertex
100
AcDb2dVertex
 10
1063.6728515625
 20
611.64404296875
 30
0.0
  0
SEQEND
  5
637
330
631
100
AcDbEntity
  8
\U+30EC\U+30A4\U+30E4\U+30FC 1
370
     0
  0
HATCH
  5
638
330
4B6
100
AcDbEntity
  8
\U+30EC\U+30A4\U+30E4\U+30FC 1
 62
   250
420
  2234388
100
AcDbHatch
 10
0.0
 20
0.0
 30
0.0
210
0.0
220
0.0
230
1.0
  2
SOLID
 70
     1
 71
     0
 91
        1
 92
        1
 93
        4
 72
     1
 10
1063.6728515625
 20
611.64404296875
 11
1063.3115234375
 21
610.69580078125
 72
     1
 10
1063.3115234375
 20
610.69580078125
 11
1063.6728515625
 21
609.748046875
 72
     1
 10
1063.6728515625
 20
609.748046875
 11
1061.7763671875
 21
610.69580078125
 72
     1
 10
1061.7763671875
 20
610.69580078125
 11
1063.6728515625
 21
611.64404296875
 97
        0
 75
     2
 76
     1
 98
        0
  0
POLYLINE
  5
639
330
4B6
100
AcDbEntity
  8
\U+30EC\U+30A4\U+30E4\U+30FC 1
370
     0
100
AcDb2dPolyline
 66
     1
 10
0.0
 20
0.0
 30
0.0
  0
VERTEX
  5
63A
330
639
100
AcDbEntity
  8
\U+30EC\U+30A4\U+30E4\U+30FC 1
370
     0
100
AcDbVertex
100
AcDb2dVertex
 10
1048.58984375
 20
609.748046875
 30
0.0
  0
VERTEX
  5
63B
330
639
100
AcDbEntity
  8
\U+30EC\U+30A4\U+30E4\U+30FC 1
370
     0
100
AcDbVertex
100
AcDb2dVertex
 10
1048.9501953125
 20
610.69580078125
 30
0.0
  0
VERTEX
  5
63C
330
639
100
AcDbEntity
  8
\U+30EC\U+30A4\U+30E4\U+30FC 1
370
     0
100
AcDbVertex
100
AcDb2dVertex
 10
1048.58984375
 20
611.64404296875
 30
0.0
  0
VERTEX
  5
63D
330
639
100
AcDbEntity
  8
\U+30EC\U+30A4\U+30E4\U+30FC 1
370
     0
100
AcDbVertex
100
AcDb2dVertex
 10
1050.486328125
 20
610.69580078125
 30
0.0
  0
VERTEX
  5
63E
330
639
100
AcDbEntity
  8
\U+30EC\U+30A4\U+30E4\U+30FC 1
370
     0
100
AcDbVertex
100
AcDb2dVertex
 10
1048.58984375
 20
609.748046875
 30
0.0
  0
SEQEND
  5
63F
330
639
100
AcDbEntity
  8
\U+30EC\U+30A4\U+30E4\U+30FC 1
370
     0
  0
HATCH
  5
640
330
4B6
100
AcDbEntity
  8
\U+30EC\U+30A4\U+30E4\U+30FC 1
 62
   250
420
  2234388
100
AcDbHatch
 10
0.0
 20
0.0
 30
0.0
210
0.0
220
0.0
230
1.0
  2
SOLID
 70
     1
 71
     0
 91
        1
 92
        1
 93
        4
 72
     1
 10
1048.58984375
 20
609.748046875
 11
1048.9501953125
 21
610.69580078125
 72
     1
 10
1048.9501953125
 20
610.69580078125
 11
1048.58984375
 21
611.64404296875
 72
     1
 10
1048.58984375
 20
611.64404296875
 11
1050.486328125
 21
610.69580078125
 72
     1
 10
1050.486328125
 20
610.69580078125
 11
1048.58984375
 21
609.748046875
 97
        0
 75
     2
 76
     1
 98
        0
  0
POLYLINE
  5
641
330
4B6
100
AcDbEntity
  8
\U+30EC\U+30A4\U+30E4\U+30FC 1
370
     0
100
AcDb2dPolyline
 66
     1
 10
0.0
 20
0.0
 30
0.0
  0
VERTEX
  5
642
330
641
100
AcDbEntity
  8
\U+30EC\U+30A4\U+30E4\U+30FC 1
370
     0
100
AcDbVertex
100
AcDb2dVertex
 10
1003.0361328125
 20
595.17041015625
 30
0.0
  0
VERTEX
  5
643
330
641
100
AcDbEntity
  8
\U+30EC\U+30A4\U+30E4\U+30FC 1
370
     0
100
AcDbVertex
100
AcDb2dVertex
 10
1002.6767578125
 20
594.22216796875
 30
0.0
  0
VERTEX
  5
644
330
641
100
AcDbEntity
  8
\U+30EC\U+30A4\U+30E4\U+30FC 1
370
     0
100
AcDbVertex
100
AcDb2dVertex
 10
1003.0361328125
 20
593.2744140625
 30
0.0
  0
VERTEX
  5
645
330
641
100
AcDbEntity
  8
\U+30EC\U+30A4\U+30E4\U+30FC 1
370
     0
100
AcDbVertex
100
AcDb2dVertex
 10
1001.1396484375
 20
594.22216796875
 30
0.0
  0
VERTEX
  5
646
330
641
100
AcDbEntity
  8
\U+30EC\U+30A4\U+30E4\U+30FC 1
370
     0
100
AcDbVertex
100
AcDb2dVertex
 10
1003.0361328125
 20
595.17041015625
 30
0.0
  0
SEQEND
  5
647
330
641
100
AcDbEntity
  8
\U+30EC\U+30A4\U+30E4\U+30FC 1
370
     0
  0
HATCH
  5
648
330
4B6
100
AcDbEntity
  8
\U+30EC\U+30A4\U+30E4\U+30FC 1
 62
   250
420
  2234388
100
AcDbHatch
 10
0.0
 20
0.0
 30
0.0
210
0.0
220
0.0
230
1.0
  2
SOLID
 70
     1
 71
     0
 91
        1
 92
        1
 93
        4
 72
     1
 10
1003.0361328125
 20
595.17041015625
 11
1002.6767578125
 21
594.22216796875
 72
     1
 10
1002.6767578125
 20
594.22216796875
 11
1003.0361328125
 21
593.2744140625
 72
     1
 10
1003.0361328125
 20
593.2744140625
 11
1001.1396484375
 21
594.22216796875
 72
     1
 10
1001.1396484375
 20
594.22216796875
 11
1003.0361328125
 21
595.17041015625
 97
        0
 75
     2
 76
     1
 98
        0
  0
POLYLINE
  5
649
330
4B6
100
AcDbEntity
  8
\U+30EC\U+30A4\U+30E4\U+30FC 1
370
     0
100
AcDb2dPolyline
 66
     1
 10
0.0
 20
0.0
 30
0.0
  0
VERTEX
  5
64A
330
649
100
AcDbEntity
  8
\U+30EC\U+30A4\U+30E4\U+30FC 1
370
     0
100
AcDbVertex
100
AcDb2dVertex
 10
1058.7880859375
 20
593.2744140625
 30
0.0
  0
VERTEX
  5
64B
330
649
100
AcDbEntity
  8
\U+30EC\U+30A4\U+30E4\U+30FC 1
370
     0
100
AcDbVertex
100
AcDb2dVertex
 10
1059.150390625
 20
594.22265625
 30
0.0
  0
VERTEX
  5
64C
330
649
100
AcDbEntity
  8
\U+30EC\U+30A4\U+30E4\U+30FC 1
370
     0
100
AcDbVertex
100
AcDb2dVertex
 10
1058.7880859375
 20
595.17041015625
 30
0.0
  0
VERTEX
  5
64D
330
649
100
AcDbEntity
  8
\U+30EC\U+30A4\U+30E4\U+30FC 1
370
     0
100
AcDbVertex
100
AcDb2dVertex
 10
1060.685546875
 20
594.22265625
 30
0.0
  0
VERTEX
  5
64E
330
649
100
AcDbEntity
  8
\U+30EC\U+30A4\U+30E4\U+30FC 1
370
     0
100
AcDbVertex
100
AcDb2dVertex
 10
1058.7880859375
 20
593.2744140625
 30
0.0
  0
SEQEND
  5
64F
330
649
100
AcDbEntity
  8
\U+30EC\U+30A4\U+30E4\U+30FC 1
370
     0
  0
HATCH
  5
650
330
4B6
100
AcDbEntity
  8
\U+30EC\U+30A4\U+30E4\U+30FC 1
 62
   250
420
  2234388
100
AcDbHatch
 10
0.0
 20
0.0
 30
0.0
210
0.0
220
0.0
230
1.0
  2
SOLID
 70
     1
 71
     0
 91
        1
 92
        1
 93
        4
 72
     1
 10
1058.7880859375
 20
593.2744140625
 11
1059.150390625
 21
594.22265625
 72
     1
 10
1059.150390625
 20
594.22265625
 11
1058.7880859375
 21
595.17041015625
 72
     1
 10
1058.7880859375
 20
595.17041015625
 11
1060.685546875
 21
594.22265625
 72
     1
 10
1060.685546875
 20
594.22265625
 11
1058.7880859375
 21
593.2744140625
 97
        0
 75
     2
 76
     1
 98
        0
  0
ENDBLK
  5
4B9
330
4B6
100
AcDbEntity
  8
0
100
AcDbBlockEnd
  0
ENDSEC
  0
SECTION
  2
ENTITIES
  0
POLYLINE
  5
3C
330
1F
100
AcDbEntity
  8
\U+30EC\U+30A4\U+30E4\U+30FC 1
 62
   250
420
  2234388
370
     9
100
AcDb2dPolyline
 66
     1
 10
0.0
 20
0.0
 30
0.0
  0
VERTEX
  5
3D
330
3C
100
AcDbEntity
  8
\U+30EC\U+30A4\U+30E4\U+30FC 1
 62
   250
420
  2234388
370
     9
100
AcDbVertex
100
AcDb2dVertex
 10
628.79345703125
 20
616.69873046875
 30
0.0
  0
VERTEX
  5
3E
330
3C
100
AcDbEntity
  8
\U+30EC\U+30A4\U+30E4\U+30FC 1
 62
   250
420
  2234388
370
     9
100
AcDbVertex
100
AcDb2dVertex
 10
628.79345703125
 20
606.0439453125
 30
0.0
  0
SEQEND
  5
3F
330
3C
100
AcDbEntity
  8
\U+30EC\U+30A4\U+30E4\U+30FC 1
370
     9
  0
POLYLINE
  5
40
330
1F
100
AcDbEntity
  8
\U+30EC\U+30A4\U+30E4\U+30FC 1
 62
   250
420
  2234388
370
     9
100
AcDb2dPolyline
 66
     1
 10
0.0
 20
0.0
 30
0.0
  0
VERTEX
  5
41
330
40
100
AcDbEntity
  8
\U+30EC\U+30A4\U+30E4\U+30FC 1
 62
   250
420
  2234388
370
     9
100
AcDbVertex
100
AcDb2dVertex
 10
630.05224609375
 20
616.69873046875
 30
0.0
  0
VERTEX
  5
42
330
40
100
AcDbEntity
  8
\U+30EC\U+30A4\U+30E4\U+30FC 1
 62
   250
420
  2234388
370
     9
100
AcDbVertex
100
AcDb2dVertex
 10
630.05224609375
 20
606.0439453125
 30
0.0
  0
SEQEND
  5
43
330
40
100
AcDbEntity
  8
\U+30EC\U+30A4\U+30E4\U+30FC 1
370
     9
  0
POLYLINE
  5
44
330
1F
100
AcDbEntity
  8
\U+30EC\U+30A4\U+30E4\U+30FC 1
 62
   250
420
  2234388
370
     9
100
AcDb2dPolyline
 66
     1
 10
0.0
 20
0.0
 30
0.0
  0
VERTEX
  5
45
330
44
100
AcDbEntity
  8
\U+30EC\U+30A4\U+30E4\U+30FC 1
 62
   250
420
  2234388
370
     9
100
AcDbVertex
100
AcDb2dVertex
 10
620.46826171875
 20
608.56396484375
 30
0.0
  0
VERTEX
  5
46
330
44
100
AcDbEntity
  8
\U+30EC\U+30A4\U+30E4\U+30FC 1
 62
   250
420
  2234388
370
     9
100
AcDbVertex
100
AcDb2dVertex
 10
663.9833984375
 20
608.56396484375
 30
0.0
  0
SEQEND
  5
47
330
44
100
AcDbEntity
  8
\U+30EC\U+30A4\U+30E4\U+30FC 1
370
     9
  0
POLYLINE
  5
48
330
1F
100
AcDbEntity
  8
\U+30EC\U+30A4\U+30E4\U+30FC 1
 62
   250
420
  2234388
370
     9
100
AcDb2dPolyline
 66
     1
 10
0.0
 20
0.0
 30
0.0
  0
VERTEX
  5
49
330
48
100
AcDbEntity
  8
\U+30EC\U+30A4\U+30E4\U+30FC 1
 62
   250
420
  2234388
370
     9
100
AcDbVertex
100
AcDb2dVertex
 10
631.56884765625
 20
697.16162109375
 30
0.0
  0
VERTEX
  5
4A
330
48
100
AcDbEntity
  8
\U+30EC\U+30A4\U+30E4\U+30FC 1
 62
   250
420
  2234388
370
     9
100
AcDbVertex
100
AcDb2dVertex
 10
664.173828125
 20
697.16162109375
 30
0.0
  0
SEQEND
  5
4B
330
48
100
AcDbEntity
  8
\U+30EC\U+30A4\U+30E4\U+30FC 1
370
     9
  0
POLYLINE
  5
4C
330
1F
100
AcDbEntity
  8
\U+30EC\U+30A4\U+30E4\U+30FC 1
 62
   250
420
  2234388
370
     9
100
AcDb2dPolyline
 66
     1
 10
0.0
 20
0.0
 30
0.0
  0
VERTEX
  5
4D
330
4C
100
AcDbEntity
  8
\U+30EC\U+30A4\U+30E4\U+30FC 1
 62
   250
420
  2234388
370
     9
100
AcDbVertex
100
AcDb2dVertex
 10
631.56884765625
 20
618.97021484375
 30
0.0
  0
VERTEX
  5
4E
330
4C
100
AcDbEntity
  8
\U+30EC\U+30A4\U+30E4\U+30FC 1
 62
   250
420
  2234388
370
     9
100
AcDbVertex
100
AcDb2dVertex
 10
664.173828125
 20
618.97021484375
 30
0.0
  0
SEQEND
  5
4F
330
4C
100
AcDbEntity
  8
\U+30EC\U+30A4\U+30E4\U+30FC 1
370
     9
  0
POLYLINE
  5
50
330
1F
100
AcDbEntity
  8
\U+30EC\U+30A4\U+30E4\U+30FC 1
 62
   250
420
  2234388
370
     9
100
AcDb2dPolyline
 66
     1
 10
0.0
 20
0.0
 30
0.0
  0
VERTEX
  5
51
330
50
100
AcDbEntity
  8
\U+30EC\U+30A4\U+30E4\U+30FC 1
 62
   250
420
  2234388
370
     9
100
AcDbVertex
100
AcDb2dVertex
 10
661.654296875
 20
696.11279296875
 30
0.0
  0
VERTEX
  5
52
330
50
100
AcDbEntity
  8
\U+30EC\U+30A4\U+30E4\U+30FC 1
 62
   250
420
  2234388
370
     9
100
AcDbVertex
100
AcDb2dVertex
 10
661.654296875
 20
620.9296875
 30
0.0
  0
SEQEND
  5
53
330
50
100
AcDbEntity
  8
\U+30EC\U+30A4\U+30E4\U+30FC 1
370
     9
  0
MTEXT
  5
54
330
1F
100
AcDbEntity
  8
\U+30EC\U+30A4\U+30E4\U+30FC 1
 62
   250
420
  2234388
100
AcDbMText
 10
643.2314453125
 20
608.96044921875
 30
0.0
 40
3.74
 41
0.0
 71
     7
 72
     1
  1
\fGothicBBBPro Medium|b0|i0|c0|p34;\W1;\U+FF10\U+FF0E\U+FF15
 73
     1
 44
1.0
  0
MTEXT
  5
55
330
1F
100
AcDbEntity
  8
\U+30EC\U+30A4\U+30E4\U+30FC 1
 62
   250
420
  2234388
100
AcDbMText
 10
659.9765625
 20
651.609375
 30
0.0
 40
3.74
 41
0.0
 71
     7
 72
     1
  1
\fGothicBBBPro Medium|b0|i0|c0|p34;\W1;\U+03C6\U+FF13\U+FF11
 11
-4.371139000186241E-8
 21
0.999999999999999
 31
0.0
 73
     1
 44
1.0
  0
POLYLINE
  5
56
330
1F
100
AcDbEntity
  8
\U+30EC\U+30A4\U+30E4\U+30FC 1
  6
AI-Linetype-1
 62
   250
420
  2234388
370
     9
100
AcDb2dPolyline
 66
     1
 10
0.0
 20
0.0
 30
0.0
  0
VERTEX
  5
57
330
56
100
AcDbEntity
  8
\U+30EC\U+30A4\U+30E4\U+30FC 1
  6
AI-Linetype-1
 62
   250
420
  2234388
370
     9
100
AcDbVertex
100
AcDb2dVertex
 10
620.14599609375
 20
658.06591796875
 30
0.0
  0
VERTEX
  5
58
330
56
100
AcDbEntity
  8
\U+30EC\U+30A4\U+30E4\U+30FC 1
  6
AI-Linetype-1
 62
   250
420
  2234388
370
     9
100
AcDbVertex
100
AcDb2dVertex
 10
635.64013671875
 20
658.06591796875
 30
0.0
  0
SEQEND
  5
59
330
56
100
AcDbEntity
  8
\U+30EC\U+30A4\U+30E4\U+30FC 1
  6
AI-Linetype-1
370
     9
  0
POLYLINE
  5
5B
330
1F
100
AcDbEntity
  8
\U+30EC\U+30A4\U+30E4\U+30FC 1
 62
   250
420
  2234388
370
     9
100
AcDb2dPolyline
 66
     1
 10
0.0
 20
0.0
 30
0.0
  0
VERTEX
  5
5C
330
5B
100
AcDbEntity
  8
\U+30EC\U+30A4\U+30E4\U+30FC 1
 62
   250
420
  2234388
370
     9
100
AcDbVertex
100
AcDb2dVertex
 10
630.05224609375
 20
619.22119140625
 30
0.0
  0
VERTEX
  5
5D
330
5B
100
AcDbEntity
  8
\U+30EC\U+30A4\U+30E4\U+30FC 1
 62
   250
420
  2234388
370
     9
100
AcDbVertex
100
AcDb2dVertex
 10
630.05224609375
 20
696.91015625
 30
0.0
  0
SEQEND
  5
5E
330
5B
100
AcDbEntity
  8
\U+30EC\U+30A4\U+30E4\U+30FC 1
370
     9
  0
POLYLINE
  5
5F
330
1F
100
AcDbEntity
  8
\U+30EC\U+30A4\U+30E4\U+30FC 1
 62
   250
420
  2234388
370
     9
100
AcDb2dPolyline
 66
     1
 10
0.0
 20
0.0
 30
0.0
  0
VERTEX
  5
60
330
5F
100
AcDbEntity
  8
\U+30EC\U+30A4\U+30E4\U+30FC 1
 62
   250
420
  2234388
370
     9
100
AcDbVertex
100
AcDb2dVertex
 10
629.80322265625
 20
690.85595703125
 30
0.0
  0
VERTEX
  5
61
330
5F
100
AcDbEntity
  8
\U+30EC\U+30A4\U+30E4\U+30FC 1
 62
   250
420
  2234388
370
     9
100
AcDbVertex
100
AcDb2dVertex
 10
629.044921875
 20
690.85595703125
 30
0.0
  0
SEQEND
  5
62
330
5F
100
AcDbEntity
  8
\U+30EC\U+30A4\U+30E4\U+30FC 1
370
     9
  0
POLYLINE
  5
63
330
1F
100
AcDbEntity
  8
\U+30EC\U+30A4\U+30E4\U+30FC 1
 62
   250
420
  2234388
370
     9
100
AcDb2dPolyline
 66
     1
 10
0.0
 20
0.0
 30
0.0
  0
VERTEX
  5
64
330
63
100
AcDbEntity
  8
\U+30EC\U+30A4\U+30E4\U+30FC 1
 62
   250
420
  2234388
370
     9
100
AcDbVertex
100
AcDb2dVertex
 10
629.80322265625
 20
697.16162109375
 30
0.0
  0
VERTEX
  5
65
330
63
100
AcDbEntity
  8
\U+30EC\U+30A4\U+30E4\U+30FC 1
 62
   250
420
  2234388
370
     9
100
AcDbVertex
100
AcDb2dVertex
 10
629.044921875
 20
697.16162109375
 30
0.0
  0
SEQEND
  5
66
330
63
100
AcDbEntity
  8
\U+30EC\U+30A4\U+30E4\U+30FC 1
370
     9
  0
POLYLINE
  5
67
330
1F
100
AcDbEntity
  8
\U+30EC\U+30A4\U+30E4\U+30FC 1
 62
   250
420
  2234388
370
     9
100
AcDb2dPolyline
 66
     1
 10
0.0
 20
0.0
 30
0.0
  0
VERTEX
  5
68
330
67
100
AcDbEntity
  8
\U+30EC\U+30A4\U+30E4\U+30FC 1
 62
   250
420
  2234388
370
     9
100
AcDbVertex
100
AcDb2dVertex
 10
629.04541015625
 20
618.97021484375
 30
0.0
  0
VERTEX
  5
69
330
67
100
AcDbEntity
  8
\U+30EC\U+30A4\U+30E4\U+30FC 1
 62
   250
420
  2234388
370
     9
100
AcDbVertex
100
AcDb2dVertex
 10
629.80322265625
 20
618.97021484375
 30
0.0
  0
SEQEND
  5
6A
330
67
100
AcDbEntity
  8
\U+30EC\U+30A4\U+30E4\U+30FC 1
370
     9
  0
POLYLINE
  5
6B
330
1F
100
AcDbEntity
  8
\U+30EC\U+30A4\U+30E4\U+30FC 1
 62
   250
420
  2234388
370
     9
100
AcDb2dPolyline
 66
     1
 10
0.0
 20
0.0
 30
0.0
  0
VERTEX
  5
6C
330
6B
100
AcDbEntity
  8
\U+30EC\U+30A4\U+30E4\U+30FC 1
 62
   250
420
  2234388
370
     9
100
AcDbVertex
100
AcDb2dVertex
 10
628.79345703125
 20
696.91064453125
 30
0.0
  0
VERTEX
  5
6D
330
6B
100
AcDbEntity
  8
\U+30EC\U+30A4\U+30E4\U+30FC 1
 62
   250
420
  2234388
370
     9
100
AcDbVertex
100
AcDb2dVertex
 10
628.79345703125
 20
619.2216796875
 30
0.0
  0
SEQEND
  5
6E
330
6B
100
AcDbEntity
  8
\U+30EC\U+30A4\U+30E4\U+30FC 1
370
     9
  0
POLYLINE
  5
6F
330
1F
100
AcDbEntity
  8
\U+30EC\U+30A4\U+30E4\U+30FC 1
 62
   250
420
  2234388
370
     9
100
AcDb2dPolyline
 66
     1
 10
0.0
 20
0.0
 30
0.0
  0
VERTEX
  5
70
330
6F
100
AcDbEntity
  8
\U+30EC\U+30A4\U+30E4\U+30FC 1
 62
   250
420
  2234388
370
     9
100
AcDbVertex
100
AcDb2dVertex
 10
630.05224609375
 20
696.91064453125
 30
0.0
  0
VERTEX
  5
71
330
6F
100
AcDbEntity
  8
\U+30EC\U+30A4\U+30E4\U+30FC 1
 62
   250
420
  2234388
370
     9
100
AcDbVertex
100
AcDb2dVertex
 10
629.80322265625
 20
697.16162109375
 30
0.0
  0
SEQEND
  5
72
330
6F
100
AcDbEntity
  8
\U+30EC\U+30A4\U+30E4\U+30FC 1
370
     9
  0
POLYLINE
  5
73
330
1F
100
AcDbEntity
  8
\U+30EC\U+30A4\U+30E4\U+30FC 1
 62
   250
420
  2234388
370
     9
100
AcDb2dPolyline
 66
     1
 10
0.0
 20
0.0
 30
0.0
  0
VERTEX
  5
74
330
73
100
AcDbEntity
  8
\U+30EC\U+30A4\U+30E4\U+30FC 1
 62
   250
420
  2234388
370
     9
100
AcDbVertex
100
AcDb2dVertex
 10
628.79345703125
 20
696.91064453125
 30
0.0
  0
VERTEX
  5
75
330
73
100
AcDbEntity
  8
\U+30EC\U+30A4\U+30E4\U+30FC 1
 62
   250
420
  2234388
370
     9
100
AcDbVertex
100
AcDb2dVertex
 10
629.04541015625
 20
697.16162109375
 30
0.0
  0
SEQEND
  5
76
330
73
100
AcDbEntity
  8
\U+30EC\U+30A4\U+30E4\U+30FC 1
370
     9
  0
POLYLINE
  5
77
330
1F
100
AcDbEntity
  8
\U+30EC\U+30A4\U+30E4\U+30FC 1
 62
   250
420
  2234388
370
     9
100
AcDb2dPolyline
 66
     1
 10
0.0
 20
0.0
 30
0.0
  0
VERTEX
  5
78
330
77
100
AcDbEntity
  8
\U+30EC\U+30A4\U+30E4\U+30FC 1
 62
   250
420
  2234388
370
     9
100
AcDbVertex
100
AcDb2dVertex
 10
628.79345703125
 20
619.22119140625
 30
0.0
  0
VERTEX
  5
79
330
77
100
AcDbEntity
  8
\U+30EC\U+30A4\U+30E4\U+30FC 1
 62
   250
420
  2234388
370
     9
100
AcDbVertex
100
AcDb2dVertex
 10
629.04541015625
 20
618.97021484375
 30
0.0
  0
SEQEND
  5
7A
330
77
100
AcDbEntity
  8
\U+30EC\U+30A4\U+30E4\U+30FC 1
370
     9
  0
POLYLINE
  5
7B
330
1F
100
AcDbEntity
  8
\U+30EC\U+30A4\U+30E4\U+30FC 1
 62
   250
420
  2234388
370
     9
100
AcDb2dPolyline
 66
     1
 10
0.0
 20
0.0
 30
0.0
  0
VERTEX
  5
7C
330
7B
100
AcDbEntity
  8
\U+30EC\U+30A4\U+30E4\U+30FC 1
 62
   250
420
  2234388
370
     9
100
AcDbVertex
100
AcDb2dVertex
 10
630.05224609375
 20
619.22119140625
 30
0.0
  0
VERTEX
  5
7D
330
7B
100
AcDbEntity
  8
\U+30EC\U+30A4\U+30E4\U+30FC 1
 62
   250
420
  2234388
370
     9
100
AcDbVertex
100
AcDb2dVertex
 10
629.80322265625
 20
618.97021484375
 30
0.0
  0
SEQEND
  5
7E
330
7B
100
AcDbEntity
  8
\U+30EC\U+30A4\U+30E4\U+30FC 1
370
     9
  0
POLYLINE
  5
7F
330
1F
100
AcDbEntity
  8
\U+30EC\U+30A4\U+30E4\U+30FC 1
 62
   250
420
  2234388
370
     9
100
AcDb2dPolyline
 66
     1
 10
0.0
 20
0.0
 30
0.0
  0
VERTEX
  5
80
330
7F
100
AcDbEntity
  8
\U+30EC\U+30A4\U+30E4\U+30FC 1
 62
   250
420
  2234388
370
     9
100
AcDbVertex
100
AcDb2dVertex
 10
628.79345703125
 20
691.10595703125
 30
0.0
  0
VERTEX
  5
81
330
7F
100
AcDbEntity
  8
\U+30EC\U+30A4\U+30E4\U+30FC 1
 62
   250
420
  2234388
370
     9
100
AcDbVertex
100
AcDb2dVertex
 10
629.04541015625
 20
690.85595703125
 30
0.0
  0
SEQEND
  5
82
330
7F
100
AcDbEntity
  8
\U+30EC\U+30A4\U+30E4\U+30FC 1
370
     9
  0
POLYLINE
  5
83
330
1F
100
AcDbEntity
  8
\U+30EC\U+30A4\U+30E4\U+30FC 1
 62
   250
420
  2234388
370
     9
100
AcDb2dPolyline
 66
     1
 10
0.0
 20
0.0
 30
0.0
  0
VERTEX
  5
84
330
83
100
AcDbEntity
  8
\U+30EC\U+30A4\U+30E4\U+30FC 1
 62
   250
420
  2234388
370
     9
100
AcDbVertex
100
AcDb2dVertex
 10
630.05224609375
 20
691.10595703125
 30
0.0
  0
VERTEX
  5
85
330
83
100
AcDbEntity
  8
\U+30EC\U+30A4\U+30E4\U+30FC 1
 62
   250
420
  2234388
370
     9
100
AcDbVertex
100
AcDb2dVertex
 10
629.80322265625
 20
690.85595703125
 30
0.0
  0
SEQEND
  5
86
330
83
100
AcDbEntity
  8
\U+30EC\U+30A4\U+30E4\U+30FC 1
370
     9
  0
POLYLINE
  5
87
330
1F
100
AcDbEntity
  8
\U+30EC\U+30A4\U+30E4\U+30FC 1
 62
   250
420
  2234388
370
     9
100
AcDb2dPolyline
 66
     1
 10
0.0
 20
0.0
 30
0.0
  0
VERTEX
  5
88
330
87
100
AcDbEntity
  8
\U+30EC\U+30A4\U+30E4\U+30FC 1
 62
   250
420
  2234388
370
     9
100
AcDbVertex
100
AcDb2dVertex
 10
628.88916015625
 20
691.01416015625
 30
0.0
  0
VERTEX
  5
89
330
87
100
AcDbEntity
  8
\U+30EC\U+30A4\U+30E4\U+30FC 1
 62
   250
420
  2234388
370
     9
100
AcDbVertex
100
AcDb2dVertex
 10
630.05224609375
 20
692.17822265625
 30
0.0
  0
SEQEND
  5
8A
330
87
100
AcDbEntity
  8
\U+30EC\U+30A4\U+30E4\U+30FC 1
370
     9
  0
POLYLINE
  5
8B
330
1F
100
AcDbEntity
  8
\U+30EC\U+30A4\U+30E4\U+30FC 1
 62
   250
420
  2234388
370
     9
100
AcDb2dPolyline
 66
     1
 10
0.0
 20
0.0
 30
0.0
  0
VERTEX
  5
8C
330
8B
100
AcDbEntity
  8
\U+30EC\U+30A4\U+30E4\U+30FC 1
 62
   250
420
  2234388
370
     9
100
AcDbVertex
100
AcDb2dVertex
 10
628.79345703125
 20
691.98779296875
 30
0.0
  0
VERTEX
  5
8D
330
8B
100
AcDbEntity
  8
\U+30EC\U+30A4\U+30E4\U+30FC 1
 62
   250
420
  2234388
370
     9
100
AcDbVertex
100
AcDb2dVertex
 10
630.052734375
 20
693.24658203125
 30
0.0
  0
SEQEND
  5
8E
330
8B
100
AcDbEntity
  8
\U+30EC\U+30A4\U+30E4\U+30FC 1
370
     9
  0
POLYLINE
  5
8F
330
1F
100
AcDbEntity
  8
\U+30EC\U+30A4\U+30E4\U+30FC 1
 62
   250
420
  2234388
370
     9
100
AcDb2dPolyline
 66
     1
 10
0.0
 20
0.0
 30
0.0
  0
VERTEX
  5
90
330
8F
100
AcDbEntity
  8
\U+30EC\U+30A4\U+30E4\U+30FC 1
 62
   250
420
  2234388
370
     9
100
AcDbVertex
100
AcDb2dVertex
 10
628.79345703125
 20
693.05712890625
 30
0.0
  0
VERTEX
  5
91
330
8F
100
AcDbEntity
  8
\U+30EC\U+30A4\U+30E4\U+30FC 1
 62
   250
420
  2234388
370
     9
100
AcDbVertex
100
AcDb2dVertex
 10
630.052734375
 20
694.318359375
 30
0.0
  0
SEQEND
  5
92
330
8F
100
AcDbEntity
  8
\U+30EC\U+30A4\U+30E4\U+30FC 1
370
     9
  0
POLYLINE
  5
93
330
1F
100
AcDbEntity
  8
\U+30EC\U+30A4\U+30E4\U+30FC 1
 62
   250
420
  2234388
370
     9
100
AcDb2dPolyline
 66
     1
 10
0.0
 20
0.0
 30
0.0
  0
VERTEX
  5
94
330
93
100
AcDbEntity
  8
\U+30EC\U+30A4\U+30E4\U+30FC 1
 62
   250
420
  2234388
370
     9
100
AcDbVertex
100
AcDb2dVertex
 10
628.79345703125
 20
694.12744140625
 30
0.0
  0
VERTEX
  5
95
330
93
100
AcDbEntity
  8
\U+30EC\U+30A4\U+30E4\U+30FC 1
 62
   250
420
  2234388
370
     9
100
AcDbVertex
100
AcDb2dVertex
 10
630.052734375
 20
695.39013671875
 30
0.0
  0
SEQEND
  5
96
330
93
100
AcDbEntity
  8
\U+30EC\U+30A4\U+30E4\U+30FC 1
370
     9
  0
POLYLINE
  5
97
330
1F
100
AcDbEntity
  8
\U+30EC\U+30A4\U+30E4\U+30FC 1
 62
   250
420
  2234388
370
     9
100
AcDb2dPolyline
 66
     1
 10
0.0
 20
0.0
 30
0.0
  0
VERTEX
  5
98
330
97
100
AcDbEntity
  8
\U+30EC\U+30A4\U+30E4\U+30FC 1
 62
   250
420
  2234388
370
     9
100
AcDbVertex
100
AcDb2dVertex
 10
628.79345703125
 20
695.19482421875
 30
0.0
  0
VERTEX
  5
99
330
97
100
AcDbEntity
  8
\U+30EC\U+30A4\U+30E4\U+30FC 1
 62
   250
420
  2234388
370
     9
100
AcDbVertex
100
AcDb2dVertex
 10
630.052734375
 20
696.4599609375
 30
0.0
  0
SEQEND
  5
9A
330
97
100
AcDbEntity
  8
\U+30EC\U+30A4\U+30E4\U+30FC 1
370
     9
  0
POLYLINE
  5
9B
330
1F
100
AcDbEntity
  8
\U+30EC\U+30A4\U+30E4\U+30FC 1
 62
   250
420
  2234388
370
     9
100
AcDb2dPolyline
 66
     1
 10
0.0
 20
0.0
 30
0.0
  0
VERTEX
  5
9C
330
9B
100
AcDbEntity
  8
\U+30EC\U+30A4\U+30E4\U+30FC 1
 62
   250
420
  2234388
370
     9
100
AcDbVertex
100
AcDb2dVertex
 10
628.79345703125
 20
696.26904296875
 30
0.0
  0
VERTEX
  5
9D
330
9B
100
AcDbEntity
  8
\U+30EC\U+30A4\U+30E4\U+30FC 1
 62
   250
420
  2234388
370
     9
100
AcDbVertex
100
AcDb2dVertex
 10
629.6884765625
 20
697.162109375
 30
0.0
  0
SEQEND
  5
9E
330
9B
100
AcDbEntity
  8
\U+30EC\U+30A4\U+30E4\U+30FC 1
370
     9
  0
POLYLINE
  5
9F
330
1F
100
AcDbEntity
  8
\U+30EC\U+30A4\U+30E4\U+30FC 1
370
     0
100
AcDb2dPolyline
 66
     1
 10
0.0
 20
0.0
 30
0.0
  0
VERTEX
  5
A0
330
9F
100
AcDbEntity
  8
\U+30EC\U+30A4\U+30E4\U+30FC 1
370
     0
100
AcDbVertex
100
AcDb2dVertex
 10
662.6083984375
 20
694.916015625
 30
0.0
  0
VERTEX
  5
A1
330
9F
100
AcDbEntity
  8
\U+30EC\U+30A4\U+30E4\U+30FC 1
370
     0
100
AcDbVertex
100
AcDb2dVertex
 10
661.658203125
 20
695.27783203125
 30
0.0
  0
VERTEX
  5
A2
330
9F
100
AcDbEntity
  8
\U+30EC\U+30A4\U+30E4\U+30FC 1
370
     0
100
AcDbVertex
100
AcDb2dVertex
 10
660.7099609375
 20
694.916015625
 30
0.0
  0
VERTEX
  5
A3
330
9F
100
AcDbEntity
  8
\U+30EC\U+30A4\U+30E4\U+30FC 1
370
     0
100
AcDbVertex
100
AcDb2dVertex
 10
661.658203125
 20
696.81591796875
 30
0.0
  0
VERTEX
  5
A4
330
9F
100
AcDbEntity
  8
\U+30EC\U+30A4\U+30E4\U+30FC 1
370
     0
100
AcDbVertex
100
AcDb2dVertex
 10
662.6083984375
 20
694.916015625
 30
0.0
  0
SEQEND
  5
A5
330
9F
100
AcDbEntity
  8
\U+30EC\U+30A4\U+30E4\U+30FC 1
370
     0
  0
HATCH
  5
A6
330
1F
100
AcDbEntity
  8
\U+30EC\U+30A4\U+30E4\U+30FC 1
 62
   250
420
  2234388
100
AcDbHatch
 10
0.0
 20
0.0
 30
0.0
210
0.0
220
0.0
230
1.0
  2
SOLID
 70
     1
 71
     0
 91
        1
 92
        1
 93
        4
 72
     1
 10
662.6083984375
 20
694.916015625
 11
661.658203125
 21
695.27783203125
 72
     1
 10
661.658203125
 20
695.27783203125
 11
660.7099609375
 21
694.916015625
 72
     1
 10
660.7099609375
 20
694.916015625
 11
661.658203125
 21
696.81591796875
 72
     1
 10
661.658203125
 20
696.81591796875
 11
662.6083984375
 21
694.916015625
 97
        0
 75
     2
 76
     1
 98
        0
  0
POLYLINE
  5
A7
330
1F
100
AcDbEntity
  8
\U+30EC\U+30A4\U+30E4\U+30FC 1
370
     0
100
AcDb2dPolyline
 66
     1
 10
0.0
 20
0.0
 30
0.0
  0
VERTEX
  5
A8
330
A7
100
AcDbEntity
  8
\U+30EC\U+30A4\U+30E4\U+30FC 1
370
     0
100
AcDbVertex
100
AcDb2dVertex
 10
660.7099609375
 20
621.16748046875
 30
0.0
  0
VERTEX
  5
A9
330
A7
100
AcDbEntity
  8
\U+30EC\U+30A4\U+30E4\U+30FC 1
370
     0
100
AcDbVertex
100
AcDb2dVertex
 10
661.658203125
 20
620.8056640625
 30
0.0
  0
VERTEX
  5
AA
330
A7
100
AcDbEntity
  8
\U+30EC\U+30A4\U+30E4\U+30FC 1
370
     0
100
AcDbVertex
100
AcDb2dVertex
 10
662.6083984375
 20
621.16748046875
 30
0.0
  0
VERTEX
  5
AB
330
A7
100
AcDbEntity
  8
\U+30EC\U+30A4\U+30E4\U+30FC 1
370
     0
100
AcDbVertex
100
AcDb2dVertex
 10
661.658203125
 20
619.26953125
 30
0.0
  0
VERTEX
  5
AC
330
A7
100
AcDbEntity
  8
\U+30EC\U+30A4\U+30E4\U+30FC 1
370
     0
100
AcDbVertex
100
AcDb2dVertex
 10
660.7099609375
 20
621.16748046875
 30
0.0
  0
SEQEND
  5
AD
330
A7
100
AcDbEntity
  8
\U+30EC\U+30A4\U+30E4\U+30FC 1
370
     0
  0
HATCH
  5
AE
330
1F
100
AcDbEntity
  8
\U+30EC\U+30A4\U+30E4\U+30FC 1
 62
   250
420
  2234388
100
AcDbHatch
 10
0.0
 20
0.0
 30
0.0
210
0.0
220
0.0
230
1.0
  2
SOLID
 70
     1
 71
     0
 91
        1
 92
        1
 93
        4
 72
     1
 10
660.7099609375
 20
621.16748046875
 11
661.658203125
 21
620.8056640625
 72
     1
 10
661.658203125
 20
620.8056640625
 11
662.6083984375
 21
621.16748046875
 72
     1
 10
662.6083984375
 20
621.16748046875
 11
661.658203125
 21
619.26953125
 72
     1
 10
661.658203125
 20
619.26953125
 11
660.7099609375
 21
621.16748046875
 97
        0
 75
     2
 76
     1
 98
        0
  0
POLYLINE
  5
AF
330
1F
100
AcDbEntity
  8
\U+30EC\U+30A4\U+30E4\U+30FC 1
370
     0
100
AcDb2dPolyline
 66
     1
 10
0.0
 20
0.0
 30
0.0
  0
VERTEX
  5
B0
330
AF
100
AcDbEntity
  8
\U+30EC\U+30A4\U+30E4\U+30FC 1
370
     0
100
AcDbVertex
100
AcDb2dVertex
 10
626.3046875
 20
607.6171875
 30
0.0
  0
VERTEX
  5
B1
330
AF
100
AcDbEntity
  8
\U+30EC\U+30A4\U+30E4\U+30FC 1
370
     0
100
AcDbVertex
100
AcDb2dVertex
 10
626.66748046875
 20
608.5673828125
 30
0.0
  0
VERTEX
  5
B2
330
AF
100
AcDbEntity
  8
\U+30EC\U+30A4\U+30E4\U+30FC 1
370
     0
100
AcDbVertex
100
AcDb2dVertex
 10
626.3046875
 20
609.51708984375
 30
0.0
  0
VERTEX
  5
B3
330
AF
100
AcDbEntity
  8
\U+30EC\U+30A4\U+30E4\U+30FC 1
370
     0
100
AcDbVertex
100
AcDb2dVertex
 10
628.20458984375
 20
608.5673828125
 30
0.0
  0
VERTEX
  5
B4
330
AF
100
AcDbEntity
  8
\U+30EC\U+30A4\U+30E4\U+30FC 1
370
     0
100
AcDbVertex
100
AcDb2dVertex
 10
626.3046875
 20
607.6171875
 30
0.0
  0
SEQEND
  5
B5
330
AF
100
AcDbEntity
  8
\U+30EC\U+30A4\U+30E4\U+30FC 1
370
     0
  0
HATCH
  5
B6
330
1F
100
AcDbEntity
  8
\U+30EC\U+30A4\U+30E4\U+30FC 1
 62
   250
420
  2234388
100
AcDbHatch
 10
0.0
 20
0.0
 30
0.0
210
0.0
220
0.0
230
1.0
  2
SOLID
 70
     1
 71
     0
 91
        1
 92
        1
 93
        4
 72
     1
 10
626.3046875
 20
607.6171875
 11
626.66748046875
 21
608.5673828125
 72
     1
 10
626.66748046875
 20
608.5673828125
 11
626.3046875
 21
609.51708984375
 72
     1
 10
626.3046875
 20
609.51708984375
 11
628.20458984375
 21
608.5673828125
 72
     1
 10
628.20458984375
 20
608.5673828125
 11
626.3046875
 21
607.6171875
 97
        0
 75
     2
 76
     1
 98
        0
  0
POLYLINE
  5
B7
330
1F
100
AcDbEntity
  8
\U+30EC\U+30A4\U+30E4\U+30FC 1
370
     0
100
AcDb2dPolyline
 66
     1
 10
0.0
 20
0.0
 30
0.0
  0
VERTEX
  5
B8
330
B7
100
AcDbEntity
  8
\U+30EC\U+30A4\U+30E4\U+30FC 1
370
     0
100
AcDbVertex
100
AcDb2dVertex
 10
632.546875
 20
609.51318359375
 30
0.0
  0
VERTEX
  5
B9
330
B7
100
AcDbEntity
  8
\U+30EC\U+30A4\U+30E4\U+30FC 1
370
     0
100
AcDbVertex
100
AcDb2dVertex
 10
632.18359375
 20
608.56298828125
 30
0.0
  0
VERTEX
  5
BA
330
B7
100
AcDbEntity
  8
\U+30EC\U+30A4\U+30E4\U+30FC 1
370
     0
100
AcDbVertex
100
AcDb2dVertex
 10
632.546875
 20
607.6142578125
 30
0.0
  0
VERTEX
  5
BB
330
B7
100
AcDbEntity
  8
\U+30EC\U+30A4\U+30E4\U+30FC 1
370
     0
100
AcDbVertex
100
AcDb2dVertex
 10
630.64794921875
 20
608.56298828125
 30
0.0
  0
VERTEX
  5
BC
330
B7
100
AcDbEntity
  8
\U+30EC\U+30A4\U+30E4\U+30FC 1
370
     0
100
AcDbVertex
100
AcDb2dVertex
 10
632.546875
 20
609.51318359375
 30
0.0
  0
SEQEND
  5
BD
330
B7
100
AcDbEntity
  8
\U+30EC\U+30A4\U+30E4\U+30FC 1
370
     0
  0
HATCH
  5
BE
330
1F
100
AcDbEntity
  8
\U+30EC\U+30A4\U+30E4\U+30FC 1
 62
   250
420
  2234388
100
AcDbHatch
 10
0.0
 20
0.0
 30
0.0
210
0.0
220
0.0
230
1.0
  2
SOLID
 70
     1
 71
     0
 91
        1
 92
        1
 93
        4
 72
     1
 10
632.546875
 20
609.51318359375
 11
632.18359375
 21
608.56298828125
 72
     1
 10
632.18359375
 20
608.56298828125
 11
632.546875
 21
607.6142578125
 72
     1
 10
632.546875
 20
607.6142578125
 11
630.64794921875
 21
608.56298828125
 72
     1
 10
630.64794921875
 20
608.56298828125
 11
632.546875
 21
609.51318359375
 97
        0
 75
     2
 76
     1
 98
        0
  0
POLYLINE
  5
BF
330
1F
100
AcDbEntity
  8
\U+30EC\U+30A4\U+30E4\U+30FC 1
 62
   250
420
  2234388
370
     9
100
AcDb2dPolyline
 66
     1
 10
0.0
 20
0.0
 30
0.0
  0
VERTEX
  5
C0
330
BF
100
AcDbEntity
  8
\U+30EC\U+30A4\U+30E4\U+30FC 1
 62
   250
420
  2234388
370
     9
100
AcDbVertex
100
AcDb2dVertex
 10
714.4853515625
 20
616.69873046875
 30
0.0
  0
VERTEX
  5
C1
330
BF
100
AcDbEntity
  8
\U+30EC\U+30A4\U+30E4\U+30FC 1
 62
   250
420
  2234388
370
     9
100
AcDbVertex
100
AcDb2dVertex
 10
714.4853515625
 20
606.0439453125
 30
0.0
  0
SEQEND
  5
C2
330
BF
100
AcDbEntity
  8
\U+30EC\U+30A4\U+30E4\U+30FC 1
370
     9
  0
POLYLINE
  5
C3
330
1F
100
AcDbEntity
  8
\U+30EC\U+30A4\U+30E4\U+30FC 1
 62
   250
420
  2234388
370
     9
100
AcDb2dPolyline
 66
     1
 10
0.0
 20
0.0
 30
0.0
  0
VERTEX
  5
C4
330
C3
100
AcDbEntity
  8
\U+30EC\U+30A4\U+30E4\U+30FC 1
 62
   250
420
  2234388
370
     9
100
AcDbVertex
100
AcDb2dVertex
 10
717.0087890625
 20
616.69873046875
 30
0.0
  0
VERTEX
  5
C5
330
C3
100
AcDbEntity
  8
\U+30EC\U+30A4\U+30E4\U+30FC 1
 62
   250
420
  2234388
370
     9
100
AcDbVertex
100
AcDb2dVertex
 10
717.0087890625
 20
606.0439453125
 30
0.0
  0
SEQEND
  5
C6
330
C3
100
AcDbEntity
  8
\U+30EC\U+30A4\U+30E4\U+30FC 1
370
     9
  0
POLYLINE
  5
C7
330
1F
100
AcDbEntity
  8
\U+30EC\U+30A4\U+30E4\U+30FC 1
 62
   250
420
  2234388
370
     9
100
AcDb2dPolyline
 66
     1
 10
0.0
 20
0.0
 30
0.0
  0
VERTEX
  5
C8
330
C7
100
AcDbEntity
  8
\U+30EC\U+30A4\U+30E4\U+30FC 1
 62
   250
420
  2234388
370
     9
100
AcDbVertex
100
AcDb2dVertex
 10
706.1611328125
 20
608.56396484375
 30
0.0
  0
VERTEX
  5
C9
330
C7
100
AcDbEntity
  8
\U+30EC\U+30A4\U+30E4\U+30FC 1
 62
   250
420
  2234388
370
     9
100
AcDbVertex
100
AcDb2dVertex
 10
750.7919921875
 20
608.56396484375
 30
0.0
  0
SEQEND
  5
CA
330
C7
100
AcDbEntity
  8
\U+30EC\U+30A4\U+30E4\U+30FC 1
370
     9
  0
POLYLINE
  5
CB
330
1F
100
AcDbEntity
  8
\U+30EC\U+30A4\U+30E4\U+30FC 1
 62
   250
420
  2234388
370
     9
100
AcDb2dPolyline
 66
     1
 10
0.0
 20
0.0
 30
0.0
  0
VERTEX
  5
CC
330
CB
100
AcDbEntity
  8
\U+30EC\U+30A4\U+30E4\U+30FC 1
 62
   250
420
  2234388
370
     9
100
AcDbVertex
100
AcDb2dVertex
 10
719.2763671875
 20
697.16162109375
 30
0.0
  0
VERTEX
  5
CD
330
CB
100
AcDbEntity
  8
\U+30EC\U+30A4\U+30E4\U+30FC 1
 62
   250
420
  2234388
370
     9
100
AcDbVertex
100
AcDb2dVertex
 10
750.982421875
 20
697.16162109375
 30
0.0
  0
SEQEND
  5
CE
330
CB
100
AcDbEntity
  8
\U+30EC\U+30A4\U+30E4\U+30FC 1
370
     9
  0
POLYLINE
  5
CF
330
1F
100
AcDbEntity
  8
\U+30EC\U+30A4\U+30E4\U+30FC 1
 62
   250
420
  2234388
370
     9
100
AcDb2dPolyline
 66
     1
 10
0.0
 20
0.0
 30
0.0
  0
VERTEX
  5
D0
330
CF
100
AcDbEntity
  8
\U+30EC\U+30A4\U+30E4\U+30FC 1
 62
   250
420
  2234388
370
     9
100
AcDbVertex
100
AcDb2dVertex
 10
719.2763671875
 20
618.97021484375
 30
0.0
  0
VERTEX
  5
D1
330
CF
100
AcDbEntity
  8
\U+30EC\U+30A4\U+30E4\U+30FC 1
 62
   250
420
  2234388
370
     9
100
AcDbVertex
100
AcDb2dVertex
 10
750.982421875
 20
618.97021484375
 30
0.0
  0
SEQEND
  5
D2
330
CF
100
AcDbEntity
  8
\U+30EC\U+30A4\U+30E4\U+30FC 1
370
     9
  0
POLYLINE
  5
D3
330
1F
100
AcDbEntity
  8
\U+30EC\U+30A4\U+30E4\U+30FC 1
 62
   250
420
  2234388
370
     9
100
AcDb2dPolyline
 66
     1
 10
0.0
 20
0.0
 30
0.0
  0
VERTEX
  5
D4
330
D3
100
AcDbEntity
  8
\U+30EC\U+30A4\U+30E4\U+30FC 1
 62
   250
420
  2234388
370
     9
100
AcDbVertex
100
AcDb2dVertex
 10
748.458984375
 20
696.59423828125
 30
0.0
  0
VERTEX
  5
D5
330
D3
100
AcDbEntity
  8
\U+30EC\U+30A4\U+30E4\U+30FC 1
 62
   250
420
  2234388
370
     9
100
AcDbVertex
100
AcDb2dVertex
 10
748.458984375
 20
620.21826171875
 30
0.0
  0
SEQEND
  5
D6
330
D3
100
AcDbEntity
  8
\U+30EC\U+30A4\U+30E4\U+30FC 1
370
     9
  0
MTEXT
  5
D7
330
1F
100
AcDbEntity
  8
\U+30EC\U+30A4\U+30E4\U+30FC 1
 62
   250
420
  2234388
100
AcDbMText
 10
731.42578125
 20
608.96044921875
 30
0.0
 40
3.74
 41
0.0
 71
     7
 72
     1
  1
\fGothicBBBPro Medium|b0|i0|c0|p34;\W1;\U+FF11
 73
     1
 44
1.0
  0
MTEXT
  5
D8
330
1F
100
AcDbEntity
  8
\U+30EC\U+30A4\U+30E4\U+30FC 1
 62
   250
420
  2234388
100
AcDbMText
 10
746.78125
 20
651.609375
 30
0.0
 40
3.74
 41
0.0
 71
     7
 72
     1
  1
\fGothicBBBPro Medium|b0|i0|c0|p34;\W1;\U+03C6\U+FF13\U+FF11
 11
-4.371139000186241E-8
 21
0.999999999999999
 31
0.0
 73
     1
 44
1.0
  0
POLYLINE
  5
D9
330
1F
100
AcDbEntity
  8
\U+30EC\U+30A4\U+30E4\U+30FC 1
 62
   250
420
  2234388
370
     9
100
AcDb2dPolyline
 66
     1
 10
0.0
 20
0.0
 30
0.0
  0
VERTEX
  5
DA
330
D9
100
AcDbEntity
  8
\U+30EC\U+30A4\U+30E4\U+30FC 1
 62
   250
420
  2234388
370
     9
100
AcDbVertex
100
AcDb2dVertex
 10
717.0087890625
 20
619.22119140625
 30
0.0
  0
VERTEX
  5
DB
330
D9
100
AcDbEntity
  8
\U+30EC\U+30A4\U+30E4\U+30FC 1
 62
   250
420
  2234388
370
     9
100
AcDbVertex
100
AcDb2dVertex
 10
717.0087890625
 20
696.91015625
 30
0.0
  0
SEQEND
  5
DC
330
D9
100
AcDbEntity
  8
\U+30EC\U+30A4\U+30E4\U+30FC 1
370
     9
  0
POLYLINE
  5
DD
330
1F
100
AcDbEntity
  8
\U+30EC\U+30A4\U+30E4\U+30FC 1
 62
   250
420
  2234388
370
     9
100
AcDb2dPolyline
 66
     1
 10
0.0
 20
0.0
 30
0.0
  0
VERTEX
  5
DE
330
DD
100
AcDbEntity
  8
\U+30EC\U+30A4\U+30E4\U+30FC 1
 62
   250
420
  2234388
370
     9
100
AcDbVertex
100
AcDb2dVertex
 10
716.7568359375
 20
697.16162109375
 30
0.0
  0
VERTEX
  5
DF
330
DD
100
AcDbEntity
  8
\U+30EC\U+30A4\U+30E4\U+30FC 1
 62
   250
420
  2234388
370
     9
100
AcDbVertex
100
AcDb2dVertex
 10
714.736328125
 20
697.16162109375
 30
0.0
  0
SEQEND
  5
E0
330
DD
100
AcDbEntity
  8
\U+30EC\U+30A4\U+30E4\U+30FC 1
370
     9
  0
POLYLINE
  5
E1
330
1F
100
AcDbEntity
  8
\U+30EC\U+30A4\U+30E4\U+30FC 1
 62
   250
420
  2234388
370
     9
100
AcDb2dPolyline
 66
     1
 10
0.0
 20
0.0
 30
0.0
  0
VERTEX
  5
E2
330
E1
100
AcDbEntity
  8
\U+30EC\U+30A4\U+30E4\U+30FC 1
 62
   250
420
  2234388
370
     9
100
AcDbVertex
100
AcDb2dVertex
 10
714.4853515625
 20
696.91064453125
 30
0.0
  0
VERTEX
  5
E3
330
E1
100
AcDbEntity
  8
\U+30EC\U+30A4\U+30E4\U+30FC 1
 62
   250
420
  2234388
370
     9
100
AcDbVertex
100
AcDb2dVertex
 10
714.4853515625
 20
619.2216796875
 30
0.0
  0
SEQEND
  5
E4
330
E1
100
AcDbEntity
  8
\U+30EC\U+30A4\U+30E4\U+30FC 1
370
     9
  0
POLYLINE
  5
E5
330
1F
100
AcDbEntity
  8
\U+30EC\U+30A4\U+30E4\U+30FC 1
 62
   250
420
  2234388
370
     9
100
AcDb2dPolyline
 66
     1
 10
0.0
 20
0.0
 30
0.0
  0
VERTEX
  5
E6
330
E5
100
AcDbEntity
  8
\U+30EC\U+30A4\U+30E4\U+30FC 1
 62
   250
420
  2234388
370
     9
100
AcDbVertex
100
AcDb2dVertex
 10
714.7373046875
 20
618.97021484375
 30
0.0
  0
VERTEX
  5
E7
330
E5
100
AcDbEntity
  8
\U+30EC\U+30A4\U+30E4\U+30FC 1
 62
   250
420
  2234388
370
     9
100
AcDbVertex
100
AcDb2dVertex
 10
716.7568359375
 20
618.97021484375
 30
0.0
  0
SEQEND
  5
E8
330
E5
100
AcDbEntity
  8
\U+30EC\U+30A4\U+30E4\U+30FC 1
370
     9
  0
POLYLINE
  5
E9
330
1F
100
AcDbEntity
  8
\U+30EC\U+30A4\U+30E4\U+30FC 1
 62
   250
420
  2234388
370
     9
100
AcDb2dPolyline
 66
     1
 10
0.0
 20
0.0
 30
0.0
  0
VERTEX
  5
EA
330
E9
100
AcDbEntity
  8
\U+30EC\U+30A4\U+30E4\U+30FC 1
 62
   250
420
  2234388
370
     9
100
AcDbVertex
100
AcDb2dVertex
 10
714.7373046875
 20
697.16162109375
 30
0.0
  0
VERTEX
  5
EB
330
E9
100
AcDbEntity
  8
\U+30EC\U+30A4\U+30E4\U+30FC 1
 62
   250
420
  2234388
370
     9
100
AcDbVertex
100
AcDb2dVertex
 10
714.4853515625
 20
696.91064453125
 30
0.0
  0
SEQEND
  5
EC
330
E9
100
AcDbEntity
  8
\U+30EC\U+30A4\U+30E4\U+30FC 1
370
     9
  0
POLYLINE
  5
ED
330
1F
100
AcDbEntity
  8
\U+30EC\U+30A4\U+30E4\U+30FC 1
 62
   250
420
  2234388
370
     9
100
AcDb2dPolyline
 66
     1
 10
0.0
 20
0.0
 30
0.0
  0
VERTEX
  5
EE
330
ED
100
AcDbEntity
  8
\U+30EC\U+30A4\U+30E4\U+30FC 1
 62
   250
420
  2234388
370
     9
100
AcDbVertex
100
AcDb2dVertex
 10
716.7568359375
 20
697.16162109375
 30
0.0
  0
VERTEX
  5
EF
330
ED
100
AcDbEntity
  8
\U+30EC\U+30A4\U+30E4\U+30FC 1
 62
   250
420
  2234388
370
     9
100
AcDbVertex
100
AcDb2dVertex
 10
717.0087890625
 20
696.91064453125
 30
0.0
  0
SEQEND
  5
F0
330
ED
100
AcDbEntity
  8
\U+30EC\U+30A4\U+30E4\U+30FC 1
370
     9
  0
POLYLINE
  5
F1
330
1F
100
AcDbEntity
  8
\U+30EC\U+30A4\U+30E4\U+30FC 1
 62
   250
420
  2234388
370
     9
100
AcDb2dPolyline
 66
     1
 10
0.0
 20
0.0
 30
0.0
  0
VERTEX
  5
F2
330
F1
100
AcDbEntity
  8
\U+30EC\U+30A4\U+30E4\U+30FC 1
 62
   250
420
  2234388
370
     9
100
AcDbVertex
100
AcDb2dVertex
 10
717.0087890625
 20
619.22119140625
 30
0.0
  0
VERTEX
  5
F3
330
F1
100
AcDbEntity
  8
\U+30EC\U+30A4\U+30E4\U+30FC 1
 62
   250
420
  2234388
370
     9
100
AcDbVertex
100
AcDb2dVertex
 10
716.7568359375
 20
618.97021484375
 30
0.0
  0
SEQEND
  5
F4
330
F1
100
AcDbEntity
  8
\U+30EC\U+30A4\U+30E4\U+30FC 1
370
     9
  0
POLYLINE
  5
F5
330
1F
100
AcDbEntity
  8
\U+30EC\U+30A4\U+30E4\U+30FC 1
 62
   250
420
  2234388
370
     9
100
AcDb2dPolyline
 66
     1
 10
0.0
 20
0.0
 30
0.0
  0
VERTEX
  5
F6
330
F5
100
AcDbEntity
  8
\U+30EC\U+30A4\U+30E4\U+30FC 1
 62
   250
420
  2234388
370
     9
100
AcDbVertex
100
AcDb2dVertex
 10
714.4853515625
 20
619.22119140625
 30
0.0
  0
VERTEX
  5
F7
330
F5
100
AcDbEntity
  8
\U+30EC\U+30A4\U+30E4\U+30FC 1
 62
   250
420
  2234388
370
     9
100
AcDbVertex
100
AcDb2dVertex
 10
714.7373046875
 20
618.97021484375
 30
0.0
  0
SEQEND
  5
F8
330
F5
100
AcDbEntity
  8
\U+30EC\U+30A4\U+30E4\U+30FC 1
370
     9
  0
POLYLINE
  5
F9
330
1F
100
AcDbEntity
  8
\U+30EC\U+30A4\U+30E4\U+30FC 1
 62
   250
420
  2234388
370
     9
100
AcDb2dPolyline
 66
     1
 10
0.0
 20
0.0
 30
0.0
  0
VERTEX
  5
FA
330
F9
100
AcDbEntity
  8
\U+30EC\U+30A4\U+30E4\U+30FC 1
 62
   250
420
  2234388
370
     9
100
AcDbVertex
100
AcDb2dVertex
 10
714.4853515625
 20
691.10595703125
 30
0.0
  0
VERTEX
  5
FB
330
F9
100
AcDbEntity
  8
\U+30EC\U+30A4\U+30E4\U+30FC 1
 62
   250
420
  2234388
370
     9
100
AcDbVertex
100
AcDb2dVertex
 10
714.7373046875
 20
690.85595703125
 30
0.0
  0
SEQEND
  5
FC
330
F9
100
AcDbEntity
  8
\U+30EC\U+30A4\U+30E4\U+30FC 1
370
     9
  0
POLYLINE
  5
FD
330
1F
100
AcDbEntity
  8
\U+30EC\U+30A4\U+30E4\U+30FC 1
 62
   250
420
  2234388
370
     9
100
AcDb2dPolyline
 66
     1
 10
0.0
 20
0.0
 30
0.0
  0
VERTEX
  5
FE
330
FD
100
AcDbEntity
  8
\U+30EC\U+30A4\U+30E4\U+30FC 1
 62
   250
420
  2234388
370
     9
100
AcDbVertex
100
AcDb2dVertex
 10
717.0087890625
 20
691.10595703125
 30
0.0
  0
VERTEX
  5
FF
330
FD
100
AcDbEntity
  8
\U+30EC\U+30A4\U+30E4\U+30FC 1
 62
   250
420
  2234388
370
     9
100
AcDbVertex
100
AcDb2dVertex
 10
716.7568359375
 20
690.85595703125
 30
0.0
  0
SEQEND
  5
100
330
FD
100
AcDbEntity
  8
\U+30EC\U+30A4\U+30E4\U+30FC 1
370
     9
  0
POLYLINE
  5
101
330
1F
100
AcDbEntity
  8
\U+30EC\U+30A4\U+30E4\U+30FC 1
 62
   250
420
  2234388
370
     9
100
AcDb2dPolyline
 66
     1
 10
0.0
 20
0.0
 30
0.0
  0
VERTEX
  5
102
330
101
100
AcDbEntity
  8
\U+30EC\U+30A4\U+30E4\U+30FC 1
 62
   250
420
  2234388
370
     9
100
AcDbVertex
100
AcDb2dVertex
 10
716.7568359375
 20
690.85595703125
 30
0.0
  0
VERTEX
  5
103
330
101
100
AcDbEntity
  8
\U+30EC\U+30A4\U+30E4\U+30FC 1
 62
   250
420
  2234388
370
     9
100
AcDbVertex
100
AcDb2dVertex
 10
714.736328125
 20
690.85595703125
 30
0.0
  0
SEQEND
  5
104
330
101
100
AcDbEntity
  8
\U+30EC\U+30A4\U+30E4\U+30FC 1
370
     9
  0
POLYLINE
  5
105
330
1F
100
AcDbEntity
  8
\U+30EC\U+30A4\U+30E4\U+30FC 1
 62
   250
420
  2234388
370
     9
100
AcDb2dPolyline
 66
     1
 10
0.0
 20
0.0
 30
0.0
  0
VERTEX
  5
106
330
105
100
AcDbEntity
  8
\U+30EC\U+30A4\U+30E4\U+30FC 1
 62
   250
420
  2234388
370
     9
100
AcDbVertex
100
AcDb2dVertex
 10
714.9716796875
 20
690.85595703125
 30
0.0
  0
VERTEX
  5
107
330
105
100
AcDbEntity
  8
\U+30EC\U+30A4\U+30E4\U+30FC 1
 62
   250
420
  2234388
370
     9
100
AcDbVertex
100
AcDb2dVertex
 10
717.0087890625
 20
692.88916015625
 30
0.0
  0
SEQEND
  5
108
330
105
100
AcDbEntity
  8
\U+30EC\U+30A4\U+30E4\U+30FC 1
370
     9
  0
POLYLINE
  5
109
330
1F
100
AcDbEntity
  8
\U+30EC\U+30A4\U+30E4\U+30FC 1
 62
   250
420
  2234388
370
     9
100
AcDb2dPolyline
 66
     1
 10
0.0
 20
0.0
 30
0.0
  0
VERTEX
  5
10A
330
109
100
AcDbEntity
  8
\U+30EC\U+30A4\U+30E4\U+30FC 1
 62
   250
420
  2234388
370
     9
100
AcDbVertex
100
AcDb2dVertex
 10
714.4853515625
 20
692.15185546875
 30
0.0
  0
VERTEX
  5
10B
330
109
100
AcDbEntity
  8
\U+30EC\U+30A4\U+30E4\U+30FC 1
 62
   250
420
  2234388
370
     9
100
AcDbVertex
100
AcDb2dVertex
 10
717.0087890625
 20
694.67578125
 30
0.0
  0
SEQEND
  5
10C
330
109
100
AcDbEntity
  8
\U+30EC\U+30A4\U+30E4\U+30FC 1
370
     9
  0
POLYLINE
  5
10D
330
1F
100
AcDbEntity
  8
\U+30EC\U+30A4\U+30E4\U+30FC 1
 62
   250
420
  2234388
370
     9
100
AcDb2dPolyline
 66
     1
 10
0.0
 20
0.0
 30
0.0
  0
VERTEX
  5
10E
330
10D
100
AcDbEntity
  8
\U+30EC\U+30A4\U+30E4\U+30FC 1
 62
   250
420
  2234388
370
     9
100
AcDbVertex
100
AcDb2dVertex
 10
714.4853515625
 20
693.93701171875
 30
0.0
  0
VERTEX
  5
10F
330
10D
100
AcDbEntity
  8
\U+30EC\U+30A4\U+30E4\U+30FC 1
 62
   250
420
  2234388
370
     9
100
AcDbVertex
100
AcDb2dVertex
 10
717.0087890625
 20
696.458984375
 30
0.0
  0
SEQEND
  5
110
330
10D
100
AcDbEntity
  8
\U+30EC\U+30A4\U+30E4\U+30FC 1
370
     9
  0
POLYLINE
  5
111
330
1F
100
AcDbEntity
  8
\U+30EC\U+30A4\U+30E4\U+30FC 1
 62
   250
420
  2234388
370
     9
100
AcDb2dPolyline
 66
     1
 10
0.0
 20
0.0
 30
0.0
  0
VERTEX
  5
112
330
111
100
AcDbEntity
  8
\U+30EC\U+30A4\U+30E4\U+30FC 1
 62
   250
420
  2234388
370
     9
100
AcDbVertex
100
AcDb2dVertex
 10
714.4853515625
 20
695.72216796875
 30
0.0
  0
VERTEX
  5
113
330
111
100
AcDbEntity
  8
\U+30EC\U+30A4\U+30E4\U+30FC 1
 62
   250
420
  2234388
370
     9
100
AcDbVertex
100
AcDb2dVertex
 10
715.927734375
 20
697.1611328125
 30
0.0
  0
SEQEND
  5
114
330
111
100
AcDbEntity
  8
\U+30EC\U+30A4\U+30E4\U+30FC 1
370
     9
  0
POLYLINE
  5
115
330
1F
100
AcDbEntity
  8
\U+30EC\U+30A4\U+30E4\U+30FC 1
  6
AI-Linetype-2
 62
   250
420
  2234388
370
     9
100
AcDb2dPolyline
 66
     1
 10
0.0
 20
0.0
 30
0.0
  0
VERTEX
  5
116
330
115
100
AcDbEntity
  8
\U+30EC\U+30A4\U+30E4\U+30FC 1
  6
AI-Linetype-2
 62
   250
420
  2234388
370
     9
100
AcDbVertex
100
AcDb2dVertex
 10
708.177734375
 20
658.06591796875
 30
0.0
  0
VERTEX
  5
117
330
115
100
AcDbEntity
  8
\U+30EC\U+30A4\U+30E4\U+30FC 1
  6
AI-Linetype-2
 62
   250
420
  2234388
370
     9
100
AcDbVertex
100
AcDb2dVertex
 10
723.3134765625
 20
658.06591796875
 30
0.0
  0
SEQEND
  5
118
330
115
100
AcDbEntity
  8
\U+30EC\U+30A4\U+30E4\U+30FC 1
  6
AI-Linetype-2
370
     9
  0
POLYLINE
  5
11A
330
1F
100
AcDbEntity
  8
\U+30EC\U+30A4\U+30E4\U+30FC 1
370
     0
100
AcDb2dPolyline
 66
     1
 10
0.0
 20
0.0
 30
0.0
  0
VERTEX
  5
11B
330
11A
100
AcDbEntity
  8
\U+30EC\U+30A4\U+30E4\U+30FC 1
370
     0
100
AcDbVertex
100
AcDb2dVertex
 10
749.396484375
 20
694.63232421875
 30
0.0
  0
VERTEX
  5
11C
330
11A
100
AcDbEntity
  8
\U+30EC\U+30A4\U+30E4\U+30FC 1
370
     0
100
AcDbVertex
100
AcDb2dVertex
 10
748.4462890625
 20
694.994140625
 30
0.0
  0
VERTEX
  5
11D
330
11A
100
AcDbEntity
  8
\U+30EC\U+30A4\U+30E4\U+30FC 1
370
     0
100
AcDbVertex
100
AcDb2dVertex
 10
747.498046875
 20
694.63232421875
 30
0.0
  0
VERTEX
  5
11E
330
11A
100
AcDbEntity
  8
\U+30EC\U+30A4\U+30E4\U+30FC 1
370
     0
100
AcDbVertex
100
AcDb2dVertex
 10
748.4462890625
 20
696.5322265625
 30
0.0
  0
VERTEX
  5
11F
330
11A
100
AcDbEntity
  8
\U+30EC\U+30A4\U+30E4\U+30FC 1
370
     0
100
AcDbVertex
100
AcDb2dVertex
 10
749.396484375
 20
694.63232421875
 30
0.0
  0
SEQEND
  5
120
330
11A
100
AcDbEntity
  8
\U+30EC\U+30A4\U+30E4\U+30FC 1
370
     0
  0
HATCH
  5
121
330
1F
100
AcDbEntity
  8
\U+30EC\U+30A4\U+30E4\U+30FC 1
 62
   250
420
  2234388
100
AcDbHatch
 10
0.0
 20
0.0
 30
0.0
210
0.0
220
0.0
230
1.0
  2
SOLID
 70
     1
 71
     0
 91
        1
 92
        1
 93
        4
 72
     1
 10
749.396484375
 20
694.63232421875
 11
748.4462890625
 21
694.994140625
 72
     1
 10
748.4462890625
 20
694.994140625
 11
747.498046875
 21
694.63232421875
 72
     1
 10
747.498046875
 20
694.63232421875
 11
748.4462890625
 21
696.5322265625
 72
     1
 10
748.4462890625
 20
696.5322265625
 11
749.396484375
 21
694.63232421875
 97
        0
 75
     2
 76
     1
 98
        0
  0
POLYLINE
  5
122
330
1F
100
AcDbEntity
  8
\U+30EC\U+30A4\U+30E4\U+30FC 1
370
     0
100
AcDb2dPolyline
 66
     1
 10
0.0
 20
0.0
 30
0.0
  0
VERTEX
  5
123
330
122
100
AcDbEntity
  8
\U+30EC\U+30A4\U+30E4\U+30FC 1
370
     0
100
AcDbVertex
100
AcDb2dVertex
 10
747.498046875
 20
621.1669921875
 30
0.0
  0
VERTEX
  5
124
330
122
100
AcDbEntity
  8
\U+30EC\U+30A4\U+30E4\U+30FC 1
370
     0
100
AcDbVertex
100
AcDb2dVertex
 10
748.4462890625
 20
620.8046875
 30
0.0
  0
VERTEX
  5
125
330
122
100
AcDbEntity
  8
\U+30EC\U+30A4\U+30E4\U+30FC 1
370
     0
100
AcDbVertex
100
AcDb2dVertex
 10
749.3955078125
 20
621.1669921875
 30
0.0
  0
VERTEX
  5
126
330
122
100
AcDbEntity
  8
\U+30EC\U+30A4\U+30E4\U+30FC 1
370
     0
100
AcDbVertex
100
AcDb2dVertex
 10
748.4462890625
 20
619.26806640625
 30
0.0
  0
VERTEX
  5
127
330
122
100
AcDbEntity
  8
\U+30EC\U+30A4\U+30E4\U+30FC 1
370
     0
100
AcDbVertex
100
AcDb2dVertex
 10
747.498046875
 20
621.1669921875
 30
0.0
  0
SEQEND
  5
128
330
122
100
AcDbEntity
  8
\U+30EC\U+30A4\U+30E4\U+30FC 1
370
     0
  0
HATCH
  5
129
330
1F
100
AcDbEntity
  8
\U+30EC\U+30A4\U+30E4\U+30FC 1
 62
   250
420
  2234388
100
AcDbHatch
 10
0.0
 20
0.0
 30
0.0
210
0.0
220
0.0
230
1.0
  2
SOLID
 70
     1
 71
     0
 91
        1
 92
        1
 93
        4
 72
     1
 10
747.498046875
 20
621.1669921875
 11
748.4462890625
 21
620.8046875
 72
     1
 10
748.4462890625
 20
620.8046875
 11
749.3955078125
 21
621.1669921875
 72
     1
 10
749.3955078125
 20
621.1669921875
 11
748.4462890625
 21
619.26806640625
 72
     1
 10
748.4462890625
 20
619.26806640625
 11
747.498046875
 21
621.1669921875
 97
        0
 75
     2
 76
     1
 98
        0
  0
POLYLINE
  5
12A
330
1F
100
AcDbEntity
  8
\U+30EC\U+30A4\U+30E4\U+30FC 1
370
     0
100
AcDb2dPolyline
 66
     1
 10
0.0
 20
0.0
 30
0.0
  0
VERTEX
  5
12B
330
12A
100
AcDbEntity
  8
\U+30EC\U+30A4\U+30E4\U+30FC 1
370
     0
100
AcDbVertex
100
AcDb2dVertex
 10
712.0361328125
 20
607.61962890625
 30
0.0
  0
VERTEX
  5
12C
330
12A
100
AcDbEntity
  8
\U+30EC\U+30A4\U+30E4\U+30FC 1
370
     0
100
AcDbVertex
100
AcDb2dVertex
 10
712.39453125
 20
608.5673828125
 30
0.0
  0
VERTEX
  5
12D
330
12A
100
AcDbEntity
  8
\U+30EC\U+30A4\U+30E4\U+30FC 1
370
     0
100
AcDbVertex
100
AcDb2dVertex
 10
712.0361328125
 20
609.515625
 30
0.0
  0
VERTEX
  5
12E
330
12A
100
AcDbEntity
  8
\U+30EC\U+30A4\U+30E4\U+30FC 1
370
     0
100
AcDbVertex
100
AcDb2dVertex
 10
713.931640625
 20
608.5673828125
 30
0.0
  0
VERTEX
  5
12F
330
12A
100
AcDbEntity
  8
\U+30EC\U+30A4\U+30E4\U+30FC 1
370
     0
100
AcDbVertex
100
AcDb2dVertex
 10
712.0361328125
 20
607.61962890625
 30
0.0
  0
SEQEND
  5
130
330
12A
100
AcDbEntity
  8
\U+30EC\U+30A4\U+30E4\U+30FC 1
370
     0
  0
HATCH
  5
131
330
1F
100
AcDbEntity
  8
\U+30EC\U+30A4\U+30E4\U+30FC 1
 62
   250
420
  2234388
100
AcDbHatch
 10
0.0
 20
0.0
 30
0.0
210
0.0
220
0.0
230
1.0
  2
SOLID
 70
     1
 71
     0
 91
        1
 92
        1
 93
        4
 72
     1
 10
712.0361328125
 20
607.61962890625
 11
712.39453125
 21
608.5673828125
 72
     1
 10
712.39453125
 20
608.5673828125
 11
712.0361328125
 21
609.515625
 72
     1
 10
712.0361328125
 20
609.515625
 11
713.931640625
 21
608.5673828125
 72
     1
 10
713.931640625
 20
608.5673828125
 11
712.0361328125
 21
607.61962890625
 97
        0
 75
     2
 76
     1
 98
        0
  0
POLYLINE
  5
132
330
1F
100
AcDbEntity
  8
\U+30EC\U+30A4\U+30E4\U+30FC 1
370
     0
100
AcDb2dPolyline
 66
     1
 10
0.0
 20
0.0
 30
0.0
  0
VERTEX
  5
133
330
132
100
AcDbEntity
  8
\U+30EC\U+30A4\U+30E4\U+30FC 1
370
     0
100
AcDbVertex
100
AcDb2dVertex
 10
719.4345703125
 20
609.51220703125
 30
0.0
  0
VERTEX
  5
134
330
132
100
AcDbEntity
  8
\U+30EC\U+30A4\U+30E4\U+30FC 1
370
     0
100
AcDbVertex
100
AcDb2dVertex
 10
719.0751953125
 20
608.56396484375
 30
0.0
  0
VERTEX
  5
135
330
132
100
AcDbEntity
  8
\U+30EC\U+30A4\U+30E4\U+30FC 1
370
     0
100
AcDbVertex
100
AcDb2dVertex
 10
719.4345703125
 20
607.6162109375
 30
0.0
  0
VERTEX
  5
136
330
132
100
AcDbEntity
  8
\U+30EC\U+30A4\U+30E4\U+30FC 1
370
     0
100
AcDbVertex
100
AcDb2dVertex
 10
717.5419921875
 20
608.56396484375
 30
0.0
  0
VERTEX
  5
137
330
132
100
AcDbEntity
  8
\U+30EC\U+30A4\U+30E4\U+30FC 1
370
     0
100
AcDbVertex
100
AcDb2dVertex
 10
719.4345703125
 20
609.51220703125
 30
0.0
  0
SEQEND
  5
138
330
132
100
AcDbEntity
  8
\U+30EC\U+30A4\U+30E4\U+30FC 1
370
     0
  0
HATCH
  5
139
330
1F
100
AcDbEntity
  8
\U+30EC\U+30A4\U+30E4\U+30FC 1
 62
   250
420
  2234388
100
AcDbHatch
 10
0.0
 20
0.0
 30
0.0
210
0.0
220
0.0
230
1.0
  2
SOLID
 70
     1
 71
     0
 91
        1
 92
        1
 93
        4
 72
     1
 10
719.4345703125
 20
609.51220703125
 11
719.0751953125
 21
608.56396484375
 72
     1
 10
719.0751953125
 20
608.56396484375
 11
719.4345703125
 21
607.6162109375
 72
     1
 10
719.4345703125
 20
607.6162109375
 11
717.5419921875
 21
608.56396484375
 72
     1
 10
717.5419921875
 20
608.56396484375
 11
719.4345703125
 21
609.51220703125
 97
        0
 75
     2
 76
     1
 98
        0
  0
POLYLINE
  5
13A
330
1F
100
AcDbEntity
  8
\U+30EC\U+30A4\U+30E4\U+30FC 1
 62
   250
420
  2234388
370
     9
100
AcDb2dPolyline
 66
     1
 10
0.0
 20
0.0
 30
0.0
  0
VERTEX
  5
13B
330
13A
100
AcDbEntity
  8
\U+30EC\U+30A4\U+30E4\U+30FC 1
 62
   250
420
  2234388
370
     9
100
AcDbVertex
100
AcDb2dVertex
 10
804.6875
 20
697.16162109375
 30
0.0
  0
VERTEX
  5
13C
330
13A
100
AcDbEntity
  8
\U+30EC\U+30A4\U+30E4\U+30FC 1
 62
   250
420
  2234388
370
     9
100
AcDbVertex
100
AcDb2dVertex
 10
792.0986328125
 20
697.16162109375
 30
0.0
  0
SEQEND
  5
13D
330
13A
100
AcDbEntity
  8
\U+30EC\U+30A4\U+30E4\U+30FC 1
370
     9
  0
POLYLINE
  5
13E
330
1F
100
AcDbEntity
  8
\U+30EC\U+30A4\U+30E4\U+30FC 1
 62
   250
420
  2234388
370
     9
100
AcDb2dPolyline
 66
     1
 10
0.0
 20
0.0
 30
0.0
  0
VERTEX
  5
13F
330
13E
100
AcDbEntity
  8
\U+30EC\U+30A4\U+30E4\U+30FC 1
 62
   250
420
  2234388
370
     9
100
AcDbVertex
100
AcDb2dVertex
 10
804.6875
 20
618.97021484375
 30
0.0
  0
VERTEX
  5
140
330
13E
100
AcDbEntity
  8
\U+30EC\U+30A4\U+30E4\U+30FC 1
 62
   250
420
  2234388
370
     9
100
AcDbVertex
100
AcDb2dVertex
 10
792.0986328125
 20
618.97021484375
 30
0.0
  0
SEQEND
  5
141
330
13E
100
AcDbEntity
  8
\U+30EC\U+30A4\U+30E4\U+30FC 1
370
     9
  0
POLYLINE
  5
142
330
1F
100
AcDbEntity
  8
\U+30EC\U+30A4\U+30E4\U+30FC 1
 62
   250
420
  2234388
370
     9
100
AcDb2dPolyline
 66
     1
 10
0.0
 20
0.0
 30
0.0
  0
VERTEX
  5
143
330
142
100
AcDbEntity
  8
\U+30EC\U+30A4\U+30E4\U+30FC 1
 62
   250
420
  2234388
370
     9
100
AcDbVertex
100
AcDb2dVertex
 10
794.6181640625
 20
697.16162109375
 30
0.0
  0
VERTEX
  5
144
330
142
100
AcDbEntity
  8
\U+30EC\U+30A4\U+30E4\U+30FC 1
 62
   250
420
  2234388
370
     9
100
AcDbVertex
100
AcDb2dVertex
 10
794.6181640625
 20
620.71240234375
 30
0.0
  0
SEQEND
  5
145
330
142
100
AcDbEntity
  8
\U+30EC\U+30A4\U+30E4\U+30FC 1
370
     9
  0
POLYLINE
  5
146
330
1F
100
AcDbEntity
  8
\U+30EC\U+30A4\U+30E4\U+30FC 1
 62
   250
420
  2234388
370
     9
100
AcDb2dPolyline
 66
     1
 10
0.0
 20
0.0
 30
0.0
  0
VERTEX
  5
147
330
146
100
AcDbEntity
  8
\U+30EC\U+30A4\U+30E4\U+30FC 1
 62
   250
420
  2234388
370
     9
100
AcDbVertex
100
AcDb2dVertex
 10
829.150390625
 20
625.27392578125
 30
0.0
  0
VERTEX
  5
148
330
146
100
AcDbEntity
  8
\U+30EC\U+30A4\U+30E4\U+30FC 1
 62
   250
420
  2234388
370
     9
100
AcDbVertex
100
AcDb2dVertex
 10
829.150390625
 20
593.873046875
 30
0.0
  0
SEQEND
  5
149
330
146
100
AcDbEntity
  8
\U+30EC\U+30A4\U+30E4\U+30FC 1
370
     9
  0
POLYLINE
  5
14A
330
1F
100
AcDbEntity
  8
\U+30EC\U+30A4\U+30E4\U+30FC 1
 62
   250
420
  2234388
370
     9
100
AcDb2dPolyline
 66
     1
 10
0.0
 20
0.0
 30
0.0
  0
VERTEX
  5
14B
330
14A
100
AcDbEntity
  8
\U+30EC\U+30A4\U+30E4\U+30FC 1
 62
   250
420
  2234388
370
     9
100
AcDbVertex
100
AcDb2dVertex
 10
806.4560546875
 20
617.20166015625
 30
0.0
  0
VERTEX
  5
14C
330
14A
100
AcDbEntity
  8
\U+30EC\U+30A4\U+30E4\U+30FC 1
 62
   250
420
  2234388
370
     9
100
AcDbVertex
100
AcDb2dVertex
 10
806.4560546875
 20
593.87255859375
 30
0.0
  0
SEQEND
  5
14D
330
14A
100
AcDbEntity
  8
\U+30EC\U+30A4\U+30E4\U+30FC 1
370
     9
  0
POLYLINE
  5
14E
330
1F
100
AcDbEntity
  8
\U+30EC\U+30A4\U+30E4\U+30FC 1
 62
   250
420
  2234388
370
     9
100
AcDb2dPolyline
 66
     1
 10
0.0
 20
0.0
 30
0.0
  0
VERTEX
  5
14F
330
14E
100
AcDbEntity
  8
\U+30EC\U+30A4\U+30E4\U+30FC 1
 62
   250
420
  2234388
370
     9
100
AcDbVertex
100
AcDb2dVertex
 10
806.4560546875
 20
596.39599609375
 30
0.0
  0
VERTEX
  5
150
330
14E
100
AcDbEntity
  8
\U+30EC\U+30A4\U+30E4\U+30FC 1
 62
   250
420
  2234388
370
     9
100
AcDbVertex
100
AcDb2dVertex
 10
827.7763671875
 20
596.39599609375
 30
0.0
  0
SEQEND
  5
151
330
14E
100
AcDbEntity
  8
\U+30EC\U+30A4\U+30E4\U+30FC 1
370
     9
  0
POLYLINE
  5
152
330
1F
100
AcDbEntity
  8
\U+30EC\U+30A4\U+30E4\U+30FC 1
 62
   250
420
  2234388
370
     9
100
AcDb2dPolyline
 66
     1
 10
0.0
 20
0.0
 30
0.0
  0
VERTEX
  5
153
330
152
100
AcDbEntity
  8
\U+30EC\U+30A4\U+30E4\U+30FC 1
 62
   250
420
  2234388
370
     9
100
AcDbVertex
100
AcDb2dVertex
 10
819.064453125
 20
617.20166015625
 30
0.0
  0
VERTEX
  5
154
330
152
100
AcDbEntity
  8
\U+30EC\U+30A4\U+30E4\U+30FC 1
 62
   250
420
  2234388
370
     9
100
AcDbVertex
100
AcDb2dVertex
 10
819.064453125
 20
606.0439453125
 30
0.0
  0
SEQEND
  5
155
330
152
100
AcDbEntity
  8
\U+30EC\U+30A4\U+30E4\U+30FC 1
370
     9
  0
POLYLINE
  5
156
330
1F
100
AcDbEntity
  8
\U+30EC\U+30A4\U+30E4\U+30FC 1
 62
   250
420
  2234388
370
     9
100
AcDb2dPolyline
 66
     1
 10
0.0
 20
0.0
 30
0.0
  0
VERTEX
  5
157
330
156
100
AcDbEntity
  8
\U+30EC\U+30A4\U+30E4\U+30FC 1
 62
   250
420
  2234388
370
     9
100
AcDbVertex
100
AcDb2dVertex
 10
829.150390625
 20
625.27392578125
 30
0.0
  0
VERTEX
  5
158
330
156
100
AcDbEntity
  8
\U+30EC\U+30A4\U+30E4\U+30FC 1
 62
   250
420
  2234388
370
     9
100
AcDbVertex
100
AcDb2dVertex
 10
829.150390625
 20
606.0439453125
 30
0.0
  0
SEQEND
  5
159
330
156
100
AcDbEntity
  8
\U+30EC\U+30A4\U+30E4\U+30FC 1
370
     9
  0
INSERT
  5
15B
330
1F
100
AcDbEntity
  8
\U+30EC\U+30A4\U+30E4\U+30FC 1
100
AcDbBlockReference
  2
block 2
 10
0.0
 20
0.0
 30
0.0
  0
MTEXT
  5
187
330
1F
100
AcDbEntity
  8
\U+30EC\U+30A4\U+30E4\U+30FC 1
 62
   250
420
  2234388
100
AcDbMText
 10
792.9423828125
 20
651.6083984375
 30
0.0
 40
3.74
 41
0.0
 71
     7
 72
     1
  1
\fGothicBBBPro Medium|b0|i0|c0|p34;\W1;\U+03C6\U+FF13\U+FF11
 11
-4.371139000186241E-8
 21
0.999999999999999
 31
0.0
 73
     1
 44
1.0
  0
MTEXT
  5
188
330
1F
100
AcDbEntity
  8
\U+30EC\U+30A4\U+30E4\U+30FC 1
 62
   250
420
  2234388
100
AcDbMText
 10
815.052734375
 20
596.79052734375
 30
0.0
 40
3.74
 41
0.0
 71
     7
 72
     1
  1
\fGothicBBBPro Medium|b0|i0|c0|p34;\W1;\U+FF19
 73
     1
 44
1.0
  0
MTEXT
  5
189
330
1F
100
AcDbEntity
  8
\U+30EC\U+30A4\U+30E4\U+30FC 1
 62
   250
420
  2234388
100
AcDbMText
 10
834.654296875
 20
608.9619140625
 30
0.0
 40
3.74
 41
0.0
 71
     7
 72
     1
  1
\fGothicBBBPro Medium|b0|i0|c0|p34;\W1;\U+FF14
 73
     1
 44
1.0
  0
MTEXT
  5
18A
330
1F
100
AcDbEntity
  8
\U+30EC\U+30A4\U+30E4\U+30FC 1
 62
   250
420
  2234388
100
AcDbMText
 10
806.7919921875
 20
704.75
 30
0.0
 40
3.74
 41
0.0
 71
     7
 72
     1
  1
\fGothicBBBPro Medium|b0|i0|c0|p34;\W1;\U+FF14\U+FF0E\U+FF11
 73
     1
 44
1.0
  0
MTEXT
  5
18B
330
1F
100
AcDbEntity
  8
\U+30EC\U+30A4\U+30E4\U+30FC 1
 62
   250
420
  2234388
100
AcDbMText
 10
795.736328125
 20
608.9619140625
 30
0.0
 40
3.74
 41
0.0
 71
     7
 72
     1
  1
\fGothicBBBPro Medium|b0|i0|c0|p34;\W1;\U+FF15
 73
     1
 44
1.0
  0
INSERT
  5
18D
330
1F
100
AcDbEntity
  8
\U+30EC\U+30A4\U+30E4\U+30FC 1
100
AcDbBlockReference
  2
block 3
 10
0.0
 20
0.0
 30
0.0
  0
MTEXT
  5
30B
330
1F
100
AcDbEntity
  8
\U+30EC\U+30A4\U+30E4\U+30FC 1
 62
   250
420
  2234388
100
AcDbMText
 10
881.6123046875
 20
651.6083984375
 30
0.0
 40
3.74
 41
0.0
 71
     7
 72
     1
  1
\fGothicBBBPro Medium|b0|i0|c0|p34;\W1;\U+03C6\U+FF13\U+FF11
 11
-4.371139000186241E-8
 21
0.999999999999999
 31
0.0
 73
     1
 44
1.0
  0
MTEXT
  5
30C
330
1F
100
AcDbEntity
  8
\U+30EC\U+30A4\U+30E4\U+30FC 1
 62
   250
420
  2234388
100
AcDbMText
 10
904.673828125
 20
611.08544921875
 30
0.0
 40
3.74
 41
0.0
 71
     7
 72
     1
  1
\fGothicBBBPro Medium|b0|i0|c0|p34;\W1;\U+FF11\U+FF10
 73
     1
 44
1.0
  0
MTEXT
  5
30D
330
1F
100
AcDbEntity
  8
\U+30EC\U+30A4\U+30E4\U+30FC 1
 62
   250
420
  2234388
100
AcDbMText
 10
909.2880859375
 20
594.66259765625
 30
0.0
 40
3.74
 41
0.0
 71
     7
 72
     1
  1
\fGothicBBBPro Medium|b0|i0|c0|p34;\W1;\U+FF11\U+FF14
 73
     1
 44
1.0
  0
MTEXT
  5
30E
330
1F
100
AcDbEntity
  8
\U+30EC\U+30A4\U+30E4\U+30FC 1
 62
   250
420
  2234388
100
AcDbMText
 10
937.740234375
 20
611.08544921875
 30
0.0
 40
3.74
 41
0.0
 71
     7
 72
     1
  1
\fGothicBBBPro Medium|b0|i0|c0|p34;\W1;\U+FF14
 73
     1
 44
1.0
  0
INSERT
  5
310
330
1F
100
AcDbEntity
  8
\U+30EC\U+30A4\U+30E4\U+30FC 1
100
AcDbBlockReference
  2
block 4
 10
0.0
 20
0.0
 30
0.0
  0
MTEXT
  5
4B2
330
1F
100
AcDbEntity
  8
\U+30EC\U+30A4\U+30E4\U+30FC 1
 62
   250
420
  2234388
100
AcDbMText
 10
986.5390625
 20
651.6103515625
 30
0.0
 40
3.74
 41
0.0
 71
     7
 72
     1
  1
\fGothicBBBPro Medium|b0|i0|c0|p34;\W1;\U+03C6\U+FF13\U+FF11
 11
-4.371139000186241E-8
 21
0.999999999999999
 31
0.0
 73
     1
 44
1.0
  0
MTEXT
  5
4B3
330
1F
100
AcDbEntity
  8
\U+30EC\U+30A4\U+30E4\U+30FC 1
 62
   250
420
  2234388
100
AcDbMText
 10
1026.0390625
 20
594.66455078125
 30
0.0
 40
3.74
 41
0.0
 71
     7
 72
     1
  1
\fGothicBBBPro Medium|b0|i0|c0|p34;\W1;\U+FF12\U+FF14
 73
     1
 44
1.0
  0
MTEXT
  5
4B4
330
1F
100
AcDbEntity
  8
\U+30EC\U+30A4\U+30E4\U+30FC 1
 62
   250
420
  2234388
100
AcDbMText
 10
1021.4462890625
 20
611.08740234375
 30
0.0
 40
3.74
 41
0.0
 71
     7
 72
     1
  1
\fGothicBBBPro Medium|b0|i0|c0|p34;\W1;\U+FF12\U+FF10
 73
     1
 44
1.0
  0
MTEXT
  5
4B5
330
1F
100
AcDbEntity
  8
\U+30EC\U+30A4\U+30E4\U+30FC 1
 62
   250
420
  2234388
100
AcDbMText
 10
1067.2119140625
 20
611.08740234375
 30
0.0
 40
3.74
 41
0.0
 71
     7
 72
     1
  1
\fGothicBBBPro Medium|b0|i0|c0|p34;\W1;\U+FF14
 73
     1
 44
1.0
  0
INSERT
  5
4B7
330
1F
100
AcDbEntity
  8
\U+30EC\U+30A4\U+30E4\U+30FC 1
100
AcDbBlockReference
  2
block 5
 10
0.0
 20
0.0
 30
0.0
  0
MTEXT
  5
651
330
1F
100
AcDbEntity
  8
\U+30EC\U+30A4\U+30E4\U+30FC 1
 62
   250
420
  2234388
100
AcDbMText
 10
623.7900390625
 20
719.33203125
 30
0.0
 40
3.74
 41
0.0
 71
     7
 72
     1
  1
\fGothicBBBPro Medium|b0|i0|c0|p34;\W1;RICOH FP-RGZ5
 73
     1
 44
1.0
  0
MTEXT
  5
652
330
1F
100
AcDbEntity
  8
\U+30EC\U+30A4\U+30E4\U+30FC 1
 62
   250
420
  2234388
100
AcDbMText
 10
630.30712890625
 20
712.73193359375
 30
0.0
 40
3.74
 41
0.0
 71
     7
 72
     1
  1
\fGothicBBBPro Medium|b0|i0|c0|p34;\W1;\U+FF08\U+FF10\U+FF0E\U+FF15 \U+FF4D\U+FF4D\U+FF09
 73
     1
 44
1.0
  0
MTEXT
  5
653
330
1F
100
AcDbEntity
  8
\U+30EC\U+30A4\U+30E4\U+30FC 1
 62
   250
420
  2234388
100
AcDbMText
 10
710.62890625
 20
719.33203125
 30
0.0
 40
3.74
 41
0.0
 71
     7
 72
     1
  1
\fGothicBBBPro Medium|b0|i0|c0|p34;\W1;RICOH FP-RG01
 73
     1
 44
1.0
  0
MTEXT
  5
654
330
1F
100
AcDbEntity
  8
\U+30EC\U+30A4\U+30E4\U+30FC 1
 62
   250
420
  2234388
100
AcDbMText
 10
719.693359375
 20
712.73193359375
 30
0.0
 40
3.74
 41
0.0
 71
     7
 72
     1
  1
\fGothicBBBPro Medium|b0|i0|c0|p34;\W1;\U+FF08\U+FF11 \U+FF4D\U+FF4D\U+FF09
 73
     1
 44
1.0
  0
MTEXT
  5
655
330
1F
100
AcDbEntity
  8
\U+30EC\U+30A4\U+30E4\U+30FC 1
 62
   250
420
  2234388
100
AcDbMText
 10
789.900390625
 20
719.33203125
 30
0.0
 40
3.74
 41
0.0
 71
     7
 72
     1
  1
\fGothicBBBPro Medium|b0|i0|c0|p34;\W1;RICOH FP-RG05
 73
     1
 44
1.0
  0
MTEXT
  5
656
330
1F
100
AcDbEntity
  8
\U+30EC\U+30A4\U+30E4\U+30FC 1
 62
   250
420
  2234388
100
AcDbMText
 10
798.96484375
 20
712.73193359375
 30
0.0
 40
3.74
 41
0.0
 71
     7
 72
     1
  1
\fGothicBBBPro Medium|b0|i0|c0|p34;\W1;\U+FF08\U+FF15 \U+FF4D\U+FF4D\U+FF09
 73
     1
 44
1.0
  0
MTEXT
  5
657
330
1F
100
AcDbEntity
  8
\U+30EC\U+30A4\U+30E4\U+30FC 1
 62
   250
420
  2234388
100
AcDbMText
 10
882.328125
 20
719.33203125
 30
0.0
 40
3.74
 41
0.0
 71
     7
 72
     1
  1
\fGothicBBBPro Medium|b0|i0|c0|p34;\W1;RICOH FP-RG10
 73
     1
 44
1.0
  0
MTEXT
  5
658
330
1F
100
AcDbEntity
  8
\U+30EC\U+30A4\U+30E4\U+30FC 1
 62
   250
420
  2234388
100
AcDbMText
 10
889.66015625
 20
712.73193359375
 30
0.0
 40
3.74
 41
0.0
 71
     7
 72
     1
  1
\fGothicBBBPro Medium|b0|i0|c0|p34;\W1;\U+FF08\U+FF11\U+FF10 \U+FF4D\U+FF4D\U+FF09
 73
     1
 44
1.0
  0
MTEXT
  5
659
330
1F
100
AcDbEntity
  8
\U+30EC\U+30A4\U+30E4\U+30FC 1
 62
   250
420
  2234388
100
AcDbMText
 10
999.17578125
 20
719.33203125
 30
0.0
 40
3.74
 41
0.0
 71
     7
 72
     1
  1
\fGothicBBBPro Medium|b0|i0|c0|p34;\W1;RICOH FP-RG20
 73
     1
 44
1.0
  0
MTEXT
  5
65A
330
1F
100
AcDbEntity
  8
\U+30EC\U+30A4\U+30E4\U+30FC 1
 62
   250
420
  2234388
100
AcDbMText
 10
1006.5078125
 20
712.73193359375
 30
0.0
 40
3.74
 41
0.0
 71
     7
 72
     1
  1
\fGothicBBBPro Medium|b0|i0|c0|p34;\W1;\U+FF08\U+FF12\U+FF10 \U+FF4D\U+FF4D\U+FF09
 73
     1
 44
1.0
  0
ENDSEC
  0
SECTION
  2
OBJECTS
  0
DICTIONARY
  5
C
330
0
100
AcDbDictionary
281
     1
  3
ACAD_GROUP
350
D
  3
ACAD_LAYOUT
350
1A
  3
ACAD_MLINESTYLE
350
17
  3
ACAD_PLOTSETTINGS
350
19
  3
ACAD_PLOTSTYLENAME
350
E
  3
ACAD_TABLESTYLE
350
65B
  3
ACAD_VISUALSTYLE
350
2A
  0
DICTIONARY
  5
D
102
{ACAD_REACTORS
330
C
102
}
330
C
100
AcDbDictionary
281
     1
  0
DICTIONARY
  5
1A
102
{ACAD_REACTORS
330
C
102
}
330
C
100
AcDbDictionary
281
     1
  3
Layout1
350
1E
  3
Layout2
350
26
  3
Model
350
22
  0
DICTIONARY
  5
17
102
{ACAD_REACTORS
330
C
102
}
330
C
100
AcDbDictionary
281
     1
  3
Standard
350
18
  0
DICTIONARY
  5
19
102
{ACAD_REACTORS
330
C
102
}
330
C
100
AcDbDictionary
281
     1
  0
ACDBDICTIONARYWDFLT
  5
E
102
{ACAD_REACTORS
330
C
102
}
330
C
100
AcDbDictionary
281
     1
  3
Normal
350
F
100
AcDbDictionaryWithDefault
340
F
  0
DICTIONARY
  5
65B
102
{ACAD_REACTORS
330
C
102
}
330
C
100
AcDbDictionary
281
     1
  0
DICTIONARY
  5
2A
102
{ACAD_REACTORS
330
C
102
}
330
C
100
AcDbDictionary
281
     1
  3
2dWireframe
350
2F
  3
3D Hidden
350
31
  3
3dWireframe
350
30
  3
Basic
350
32
  3
Brighten
350
36
  3
ColorChange
350
3A
  3
Conceptual
350
34
  3
Dim
350
35
  3
Facepattern
350
39
  3
Flat
350
2B
  3
FlatWithEdges
350
2C
  3
Gouraud
350
2D
  3
GouraudWithEdges
350
2E
  3
Linepattern
350
38
  3
Realistic
350
33
  3
Thicken
350
37
  0
LAYOUT
  5
1E
102
{ACAD_REACTORS
330
1A
102
}
330
1A
100
AcDbPlotSettings
  1

  2
none_device
  4

  6

 40
0.0
 41
0.0
 42
0.0
 43
0.0
 44
0.0
 45
0.0
 46
0.0
 47
0.0
 48
0.0
 49
0.0
140
0.0
141
0.0
142
1.0
143
1.0
 70
   688
 72
     0
 73
     0
 74
     5
  7

 75
    16
 76
     0
 77
     2
 78
   300
147
1.0
148
0.0
149
0.0
100
AcDbLayout
  1
Layout1
 70
     1
 71
     1
 10
0.0
 20
0.0
 11
12.0
 21
9.0
 12
0.0
 22
0.0
 32
0.0
 14
1.000000000000000E+20
 24
1.000000000000000E+20
 34
1.000000000000000E+20
 15
-1.000000000000000E+20
 25
-1.000000000000000E+20
 35
-1.000000000000000E+20
146
0.0
 13
0.0
 23
0.0
 33
0.0
 16
1.0
 26
0.0
 36
0.0
 17
0.0
 27
1.0
 37
0.0
 76
     0
330
1B
  0
LAYOUT
  5
26
102
{ACAD_REACTORS
330
1A
102
}
330
1A
100
AcDbPlotSettings
  1

  2
none_device
  4

  6

 40
0.0
 41
0.0
 42
0.0
 43
0.0
 44
0.0
 45
0.0
 46
0.0
 47
0.0
 48
0.0
 49
0.0
140
0.0
141
0.0
142
1.0
143
1.0
 70
   688
 72
     0
 73
     0
 74
     5
  7

 75
    16
 76
     0
 77
     2
 78
   300
147
1.0
148
0.0
149
0.0
100
AcDbLayout
  1
Layout2
 70
     1
 71
     2
 10
0.0
 20
0.0
 11
0.0
 21
0.0
 12
0.0
 22
0.0
 32
0.0
 14
0.0
 24
0.0
 34
0.0
 15
0.0
 25
0.0
 35
0.0
146
0.0
 13
0.0
 23
0.0
 33
0.0
 16
1.0
 26
0.0
 36
0.0
 17
0.0
 27
1.0
 37
0.0
 76
     0
330
23
  0
LAYOUT
  5
22
102
{ACAD_REACTORS
330
1A
102
}
330
1A
100
AcDbPlotSettings
  1

  2
none_device
  4

  6

 40
0.0
 41
0.0
 42
0.0
 43
0.0
 44
0.0
 45
0.0
 46
0.0
 47
0.0
 48
0.0
 49
0.0
140
0.0
141
0.0
142
1.0
143
1.0
 70
  1712
 72
     0
 73
     0
 74
     0
  7

 75
     0
 76
     0
 77
     2
 78
   300
147
1.0
148
0.0
149
0.0
100
AcDbLayout
  1
Model
 70
     1
 71
     0
 10
0.0
 20
0.0
 11
12.0
 21
9.0
 12
0.0
 22
0.0
 32
0.0
 14
1.000000000000000E+20
 24
1.000000000000000E+20
 34
1.000000000000000E+20
 15
-1.000000000000000E+20
 25
-1.000000000000000E+20
 35
-1.000000000000000E+20
146
0.0
 13
0.0
 23
0.0
 33
0.0
 16
1.0
 26
0.0
 36
0.0
 17
0.0
 27
1.0
 37
0.0
 76
     0
330
1F
331
29
  0
MLINESTYLE
  5
18
102
{ACAD_REACTORS
330
17
102
}
330
17
100
AcDbMlineStyle
  2
Standard
 70
     0
  3

 62
   256
 51
90.0
 52
90.0
 71
     2
 49
0.5
 62
   256
  6
BYLAYER
 49
-0.5
 62
   256
  6
BYLAYER
  0
ACDBPLACEHOLDER
  5
F
102
{ACAD_REACTORS
330
E
102
}
330
E
  0
VISUALSTYLE
  5
2F
102
{ACAD_REACTORS
330
2A
102
}
330
2A
100
AcDbVisualStyle
  2
2dWireframe
 70
     4
 71
     0
 72
     2
 73
     0
 90
        0
 40
-0.6
 41
-30.0
 62
     5
 63
     7
421
 16777215
 74
     1
 91
        4
 64
     7
 65
   257
 75
     1
175
     1
 42
1.0
 92
        0
 66
   257
 43
1.0
 76
     1
 77
     6
 78
     2
 67
     7
 79
     5
170
     0
171
     0
290
     0
174
     0
 93
        1
 44
0.0
173
     0
291
     0
 45
0.0
1001
ACAD
1000
AcDbSavedByObjectVersion
1070
     0
  0
VISUALSTYLE
  5
31
102
{ACAD_REACTORS
330
2A
102
}
330
2A
100
AcDbVisualStyle
  2
3D Hidden
 70
     6
 71
     1
 72
     2
 73
     2
 90
        0
 40
-0.6
 41
-30.0
 62
     5
 63
     7
421
 16777215
 74
     2
 91
        2
 64
     7
 65
   257
 75
     2
175
     1
 42
40.0
 92
        0
 66
   257
 43
1.0
 76
     1
 77
     6
 78
     2
 67
     7
 79
     3
170
     0
171
     0
290
     0
174
     0
 93
        1
 44
0.0
173
     0
291
     0
 45
0.0
1001
ACAD
1000
AcDbSavedByObjectVersion
1070
     0
  0
VISUALSTYLE
  5
30
102
{ACAD_REACTORS
330
2A
102
}
330
2A
100
AcDbVisualStyle
  2
3dWireframe
 70
     5
 71
     0
 72
     2
 73
     0
 90
        0
 40
-0.6
 41
-30.0
 62
     5
 63
     7
421
 16777215
 74
     1
 91
        4
 64
     7
 65
   257
 75
     1
175
     1
 42
1.0
 92
        0
 66
   257
 43
1.0
 76
     1
 77
     6
 78
     2
 67
     7
 79
     5
170
     0
171
     0
290
     0
174
     0
 93
        1
 44
0.0
173
     0
291
     0
 45
0.0
1001
ACAD
1000
AcDbSavedByObjectVersion
1070
     0
  0
VISUALSTYLE
  5
32
102
{ACAD_REACTORS
330
2A
102
}
330
2A
100
AcDbVisualStyle
  2
Basic
 70
     7
 71
     1
 72
     0
 73
     1
 90
        0
 40
-0.6
 41
-30.0
 62
     5
 63
     7
421
 16777215
 74
     0
 91
        4
 64
     7
 65
   257
 75
     1
175
     1
 42
1.0
 92
        8
 66
     7
 43
1.0
 76
     1
 77
     6
 78
     2
 67
     7
 79
     5
170
     0
171
     0
290
     0
174
     0
 93
        1
 44
0.0
173
     0
291
     1
 45
0.0
1001
ACAD
1000
AcDbSavedByObjectVersion
1070
     0
  0
VISUALSTYLE
  5
36
102
{ACAD_REACTORS
330
2A
102
}
330
2A
100
AcDbVisualStyle
  2
Brighten
 70
    12
 71
     2
 72
     2
 73
     0
 90
        0
 40
-0.6
 41
-30.0
 62
     5
 63
     7
421
 16777215
 74
     1
 91
        4
 64
     7
 65
   257
 75
     1
175
     1
 42
1.0
 92
        8
 66
     7
 43
1.0
 76
     1
 77
     6
 78
     2
 67
     7
 79
     5
170
     0
171
     0
290
     0
174
     0
 93
        1
 44
50.0
173
     0
291
     1
 45
0.0
1001
ACAD
1000
AcDbSavedByObjectVersion
1070
     0
  0
VISUALSTYLE
  5
3A
102
{ACAD_REACTORS
330
2A
102
}
330
2A
100
AcDbVisualStyle
  2
ColorChange
 70
    16
 71
     2
 72
     2
 73
     3
 90
        0
 40
-0.6
 41
-30.0
 62
     5
 63
     8
421
  8421504
 74
     1
 91
        4
 64
     7
 65
   257
 75
     1
175
     1
 42
1.0
 92
        8
 66
     8
424
  8421504
 43
1.0
 76
     1
 77
     6
 78
     2
 67
     7
 79
     5
170
     0
171
     0
290
     0
174
     0
 93
        1
 44
0.0
173
     0
291
     1
 45
0.0
1001
ACAD
1000
AcDbSavedByObjectVersion
1070
     0
  0
VISUALSTYLE
  5
34
102
{ACAD_REACTORS
330
2A
102
}
330
2A
100
AcDbVisualStyle
  2
Conceptual
 70
     9
 71
     3
 72
     2
 73
     0
 90
        0
 40
-0.6
 41
-30.0
 62
     5
 63
     7
421
 16777215
 74
     2
 91
        2
 64
     7
 65
   257
 75
     1
175
     1
 42
40.0
 92
        8
 66
     7
 43
1.0
 76
     1
 77
     6
 78
     2
 67
     7
 79
     3
170
     0
171
     0
290
     0
174
     0
 93
        1
 44
0.0
173
     0
291
     0
 45
0.0
1001
ACAD
1000
AcDbSavedByObjectVersion
1070
     0
  0
VISUALSTYLE
  5
35
102
{ACAD_REACTORS
330
2A
102
}
330
2A
100
AcDbVisualStyle
  2
Dim
 70
    11
 71
     2
 72
     2
 73
     0
 90
        0
 40
-0.6
 41
-30.0
 62
     5
 63
     7
421
 16777215
 74
     1
 91
        4
 64
     7
 65
   257
 75
     1
175
     1
 42
1.0
 92
        8
 66
     7
 43
1.0
 76
     1
 77
     6
 78
     2
 67
     7
 79
     5
170
     0
171
     0
290
     0
174
     0
 93
        1
 44
-50.0
173
     0
291
     1
 45
0.0
1001
ACAD
1000
AcDbSavedByObjectVersion
1070
     0
  0
VISUALSTYLE
  5
39
102
{ACAD_REACTORS
330
2A
102
}
330
2A
100
AcDbVisualStyle
  2
Facepattern
 70
    15
 71
     2
 72
     2
 73
     0
 90
        0
 40
-0.6
 41
-30.0
 62
     5
 63
     7
421
 16777215
 74
     1
 91
        4
 64
     7
 65
   257
 75
     1
175
     1
 42
1.0
 92
        8
 66
     7
 43
1.0
 76
     1
 77
     6
 78
     2
 67
     7
 79
     5
170
     0
171
     0
290
     0
174
     0
 93
        1
 44
0.0
173
     0
291
     1
 45
0.0
1001
ACAD
1000
AcDbSavedByObjectVersion
1070
     0
  0
VISUALSTYLE
  5
2B
102
{ACAD_REACTORS
330
2A
102
}
330
2A
100
AcDbVisualStyle
  2
Flat
 70
     0
 71
     2
 72
     1
 73
     1
 90
        2
 40
-0.6
 41
30.0
 62
     5
 63
     7
421
 16777215
 74
     0
 91
        4
 64
     7
 65
   257
 75
     1
175
     1
 42
1.0
 92
        8
 66
     7
 43
1.0
 76
     1
 77
     6
 78
     2
 67
     7
 79
     5
170
     0
171
     0
290
     0
174
     0
 93
       13
 44
0.0
173
     0
291
     1
 45
0.0
1001
ACAD
1000
AcDbSavedByObjectVersion
1070
     0
  0
VISUALSTYLE
  5
2C
102
{ACAD_REACTORS
330
2A
102
}
330
2A
100
AcDbVisualStyle
  2
FlatWithEdges
 70
     1
 71
     2
 72
     1
 73
     1
 90
        2
 40
-0.6
 41
30.0
 62
     5
 63
     7
421
 16777215
 74
     1
 91
        4
 64
     7
 65
   257
 75
     1
175
     1
 42
1.0
 92
        0
 66
   257
 43
1.0
 76
     1
 77
     6
 78
     2
 67
     7
 79
     5
170
     0
171
     0
290
     0
174
     0
 93
       13
 44
0.0
173
     0
291
     1
 45
0.0
1001
ACAD
1000
AcDbSavedByObjectVersion
1070
     0
  0
VISUALSTYLE
  5
2D
102
{ACAD_REACTORS
330
2A
102
}
330
2A
100
AcDbVisualStyle
  2
Gouraud
 70
     2
 71
     2
 72
     2
 73
     1
 90
        2
 40
-0.6
 41
30.0
 62
     5
 63
     7
421
 16777215
 74
     0
 91
        4
 64
     7
 65
   257
 75
     1
175
     1
 42
1.0
 92
        0
 66
     7
 43
1.0
 76
     1
 77
     6
 78
     2
 67
     7
 79
     5
170
     0
171
     0
290
     0
174
     0
 93
       13
 44
0.0
173
     0
291
     1
 45
0.0
1001
ACAD
1000
AcDbSavedByObjectVersion
1070
     0
  0
VISUALSTYLE
  5
2E
102
{ACAD_REACTORS
330
2A
102
}
330
2A
100
AcDbVisualStyle
  2
GouraudWithEdges
 70
     3
 71
     2
 72
     2
 73
     1
 90
        2
 40
-0.6
 41
30.0
 62
     5
 63
     7
421
 16777215
 74
     1
 91
        4
 64
     7
 65
   257
 75
     1
175
     1
 42
1.0
 92
        0
 66
   257
 43
1.0
 76
     1
 77
     6
 78
     2
 67
     7
 79
     5
170
     0
171
     0
290
     0
174
     0
 93
       13
 44
0.0
173
     0
291
     1
 45
0.0
1001
ACAD
1000
AcDbSavedByObjectVersion
1070
     0
  0
VISUALSTYLE
  5
38
102
{ACAD_REACTORS
330
2A
102
}
330
2A
100
AcDbVisualStyle
  2
Linepattern
 70
    14
 71
     2
 72
     2
 73
     0
 90
        0
 40
-0.6
 41
-30.0
 62
     5
 63
     7
421
 16777215
 74
     1
 91
        4
 64
     7
 65
   257
 75
     7
175
     7
 42
1.0
 92
        8
 66
     7
 43
1.0
 76
     1
 77
     6
 78
     2
 67
     7
 79
     5
170
     0
171
     0
290
     0
174
     0
 93
        1
 44
0.0
173
     0
291
     1
 45
0.0
1001
ACAD
1000
AcDbSavedByObjectVersion
1070
     0
  0
VISUALSTYLE
  5
33
102
{ACAD_REACTORS
330
2A
102
}
330
2A
100
AcDbVisualStyle
  2
Realistic
 70
     8
 71
     2
 72
     2
 73
     0
 90
        0
 40
-0.6
 41
-30.0
 62
     5
 63
     7
421
 16777215
 74
     1
 91
        0
 64
     7
 65
   257
 75
     1
175
     1
 42
1.0
 92
        8
 66
     8
424
  7895160
 43
1.0
 76
     1
 77
     6
 78
     2
 67
     7
 79
     5
170
     0
171
     0
290
     0
174
     0
 93
       13
 44
0.0
173
     0
291
     0
 45
0.0
1001
ACAD
1000
AcDbSavedByObjectVersion
1070
     0
  0
VISUALSTYLE
  5
37
102
{ACAD_REACTORS
330
2A
102
}
330
2A
100
AcDbVisualStyle
  2
Thicken
 70
    13
 71
     2
 72
     2
 73
     0
 90
        0
 40
-0.6
 41
-30.0
 62
     5
 63
     7
421
 16777215
 74
     1
 91
        4
 64
     7
 65
   257
 75
     1
175
     1
 42
1.0
 92
       12
 66
     7
 43
1.0
 76
     1
 77
     6
 78
     2
 67
     7
 79
     5
170
     0
171
     0
290
     0
174
     0
 93
        1
 44
0.0
173
     0
291
     1
 45
0.0
1001
ACAD
1000
AcDbSavedByObjectVersion
1070
     0
  0
ENDSEC
  0
EOF
