  0
SECTION
  2
HEADER
  9
$ACADVER
  1
AC1012
  9
$DWGCODEPAGE
  3
ansi_932
  9
$INSBASE
 10
0.0
 20
0.0
 30
0.0
  9
$EXTMIN
 10
0.0
 20
0.0
 30
0.0
  9
$EXTMAX
 10
297.0
 20
210.0
 30
0.0
  9
$LIMMIN
 10
0.0
 20
0.0
  9
$LIMMAX
 10
297.0
 20
210.0
  9
$ORTHOMODE
 70
     0
  9
$REGENMODE
 70
     1
  9
$FILLMODE
 70
     1
  9
$QTEXTMODE
 70
     0
  9
$MIRRTEXT
 70
     1
  9
$DRAGMODE
 70
     2
  9
$LTSCALE
 40
1.0
  9
$OSMODE
 70
    37
  9
$ATTMODE
 70
     1
  9
$TEXTSIZE
 40
2.5
  9
$TRACEWID
 40
1.0
  9
$TEXTSTYLE
  7
STANDARD
  9
$CLAYER
  8
0
  9
$CELTYPE
  6
BYLAYER
  9
$CECOLOR
 62
   256
  9
$CELTSCALE
 40
1.0
  9
$DELOBJ
 70
     1
  9
$DISPSILH
 70
     0
  9
$DIMSCALE
 40
1.0
  9
$DIMASZ
 40
2.5
  9
$DIMEXO
 40
0.625
  9
$DIMDLI
 40
3.75
  9
$DIMRND
 40
0.0
  9
$DIMDLE
 40
0.0
  9
$DIMEXE
 40
1.25
  9
$DIMTP
 40
0.0
  9
$DIMTM
 40
0.0
  9
$DIMTXT
 40
2.5
  9
$DIMCEN
 40
2.5
  9
$DIMTSZ
 40
0.0
  9
$DIMTOL
 70
     0
  9
$DIMLIM
 70
     0
  9
$DIMTIH
 70
     0
  9
$DIMTOH
 70
     0
  9
$DIMSE1
 70
     0
  9
$DIMSE2
 70
     0
  9
$DIMTAD
 70
     1
  9
$DIMZIN
 70
     8
  9
$DIMBLK
  1

  9
$DIMASO
 70
     1
  9
$DIMSHO
 70
     1
  9
$DIMPOST
  1

  9
$DIMAPOST
  1

  9
$DIMALT
 70
     0
  9
$DIMALTD
 70
     3
  9
$DIMALTF
 40
0.0393700787
  9
$DIMLFAC
 40
1.0
  9
$DIMTOFL
 70
     1
  9
$DIMTVP
 40
0.0
  9
$DIMTIX
 70
     0
  9
$DIMSOXD
 70
     0
  9
$DIMSAH
 70
     0
  9
$DIMBLK1
  1

  9
$DIMBLK2
  1

  9
$DIMSTYLE
  2
ISO-25
  9
$DIMCLRD
 70
     0
  9
$DIMCLRE
 70
     0
  9
$DIMCLRT
 70
     0
  9
$DIMTFAC
 40
1.0
  9
$DIMGAP
 40
0.625
  9
$DIMJUST
 70
     0
  9
$DIMSD1
 70
     0
  9
$DIMSD2
 70
     0
  9
$DIMTOLJ
 70
     0
  9
$DIMTZIN
 70
     8
  9
$DIMALTZ
 70
     0
  9
$DIMALTTZ
 70
     0
  9
$DIMFIT
 70
     3
  9
$DIMUPT
 70
     0
  9
$DIMUNIT
 70
     2
  9
$DIMDEC
 70
     2
  9
$DIMTDEC
 70
     2
  9
$DIMALTU
 70
     2
  9
$DIMALTTD
 70
     3
  9
$DIMTXSTY
  7
STANDARD
  9
$DIMAUNIT
 70
     0
  9
$LUNITS
 70
     2
  9
$LUPREC
 70
     4
  9
$SKETCHINC
 40
1.0
  9
$FILLETRAD
 40
10.0
  9
$AUNITS
 70
     0
  9
$AUPREC
 70
     0
  9
$MENU
  1
.
  9
$ELEVATION
 40
0.0
  9
$PELEVATION
 40
0.0
  9
$THICKNESS
 40
0.0
  9
$LIMCHECK
 70
     0
  9
$CHAMFERA
 40
10.0
  9
$CHAMFERB
 40
10.0
  9
$CHAMFERC
 40
20.0
  9
$CHAMFERD
 40
0.0
  9
$SKPOLY
 70
     0
  9
$TDCREATE
 40
2456542.649620879
  9
$TDUPDATE
 40
2456542.649620891
  9
$TDINDWG
 40
0.0000000116
  9
$TDUSRTIMER
 40
0.0000000116
  9
$USRTIMER
 70
     1
  9
$ANGBASE
 50
0.0
  9
$ANGDIR
 70
     0
  9
$PDMODE
 70
     0
  9
$PDSIZE
 40
0.0
  9
$PLINEWID
 40
0.0
  9
$COORDS
 70
     1
  9
$SPLFRAME
 70
     0
  9
$SPLINETYPE
 70
     6
  9
$SPLINESEGS
 70
     8
  9
$ATTDIA
 70
     0
  9
$ATTREQ
 70
     1
  9
$HANDLING
 70
     1
  9
$HANDSEED
  5
192
  9
$SURFTAB1
 70
     6
  9
$SURFTAB2
 70
     6
  9
$SURFTYPE
 70
     6
  9
$SURFU
 70
     6
  9
$SURFV
 70
     6
  9
$UCSNAME
  2

  9
$UCSORG
 10
0.0
 20
0.0
 30
0.0
  9
$UCSXDIR
 10
1.0
 20
0.0
 30
0.0
  9
$UCSYDIR
 10
0.0
 20
1.0
 30
0.0
  9
$PUCSNAME
  2

  9
$PUCSORG
 10
0.0
 20
0.0
 30
0.0
  9
$PUCSXDIR
 10
1.0
 20
0.0
 30
0.0
  9
$PUCSYDIR
 10
0.0
 20
1.0
 30
0.0
  9
$USERI1
 70
     0
  9
$USERI2
 70
     0
  9
$USERI3
 70
     0
  9
$USERI4
 70
     0
  9
$USERI5
 70
     0
  9
$USERR1
 40
0.0
  9
$USERR2
 40
0.0
  9
$USERR3
 40
0.0
  9
$USERR4
 40
0.0
  9
$USERR5
 40
0.0
  9
$WORLDVIEW
 70
     1
  9
$SHADEDGE
 70
     3
  9
$SHADEDIF
 70
    70
  9
$TILEMODE
 70
     1
  9
$MAXACTVP
 70
    64
  9
$PINSBASE
 10
0.0
 20
0.0
 30
0.0
  9
$PLIMCHECK
 70
     0
  9
$PEXTMIN
 10
0.0
 20
0.0
 30
0.0
  9
$PEXTMAX
 10
297.0
 20
210.0
 30
0.0
  9
$PLIMMIN
 10
0.0
 20
0.0
  9
$PLIMMAX
 10
297.0
 20
210.0
  9
$UNITMODE
 70
     0
  9
$VISRETAIN
 70
     1
  9
$PLINEGEN
 70
     0
  9
$PSLTSCALE
 70
     1
  9
$TREEDEPTH
 70
  3020
  9
$PICKSTYLE
 70
     1
  9
$CMLSTYLE
  2
STANDARD
  9
$CMLJUST
 70
     0
  9
$CMLSCALE
 40
20.0
  9
$SAVEIMAGES
 70
     1
  0
ENDSEC
  0
SECTION
  2
CLASSES
  0
CLASS
  1
ACDBDICTIONARYWDFLT
  2
AcDbDictionaryWithDefault
  3
ObjectDBX Classes
 90
    32768
280
     0
281
     0
  0
CLASS
  1
VISUALSTYLE
  2
AcDbVisualStyle
  3
ObjectDBX Classes
 90
     4095
280
     0
281
     0
  0
CLASS
  1
SCALE
  2
AcDbScale
  3
ObjectDBX Classes
 90
     1153
280
     0
281
     0
  0
CLASS
  1
DICTIONARYVAR
  2
AcDbDictionaryVar
  3
ObjectDBX Classes
 90
        0
280
     0
281
     0
  0
CLASS
  1
XRECORD
  2
AcDbXrecord
  3
AutoCAD 2000
 90
    32768
280
     0
281
     0
  0
CLASS
  1
LWPOLYLINE
  2
AcDbPolyline
  3
AutoCAD 2000
 90
    32768
280
     0
281
     1
  0
CLASS
  1
HATCH
  2
AcDbHatch
  3
AutoCAD 2000
 90
    32768
280
     0
281
     1
  0
CLASS
  1
ACDBPLACEHOLDER
  2
AcDbPlaceHolder
  3
ObjectDBX Classes
 90
        0
280
     0
281
     0
  0
CLASS
  1
LAYOUT
  2
AcDbLayout
  3
ObjectDBX Classes
 90
        0
280
     0
281
     0
  0
ENDSEC
  0
SECTION
  2
TABLES
  0
TABLE
  2
VPORT
  5
8
330
0
100
AcDbSymbolTable
 70
     1
  0
VPORT
  5
29
330
8
100
AcDbSymbolTableRecord
100
AcDbViewportTableRecord
  2
*ACTIVE
 70
     0
 10
0.0
 20
0.0
 11
1.0
 21
1.0
 12
344.1869158879
 22
148.5
 13
0.0
 23
0.0
 14
10.0
 24
10.0
 15
10.0
 25
10.0
 16
0.0
 26
0.0
 36
1.0
 17
0.0
 27
0.0
 37
0.0
 40
297.0
 41
1.9729729729
 42
50.0
 43
0.0
 44
0.0
 50
0.0
 51
0.0
 71
     0
 72
   100
 73
     1
 74
     3
 75
     0
 76
     0
 77
     0
 78
     0
  0
ENDTAB
  0
TABLE
  2
LTYPE
  5
5
330
0
100
AcDbSymbolTable
 70
     3
  0
LTYPE
  5
14
330
5
100
AcDbSymbolTableRecord
100
AcDbLinetypeTableRecord
  2
BYBLOCK
 70
     0
  3

 72
    65
 73
     0
 40
0.0
  0
LTYPE
  5
15
330
5
100
AcDbSymbolTableRecord
100
AcDbLinetypeTableRecord
  2
BYLAYER
 70
     0
  3

 72
    65
 73
     0
 40
0.0
  0
LTYPE
  5
16
330
5
100
AcDbSymbolTableRecord
100
AcDbLinetypeTableRecord
  2
CONTINUOUS
 70
     0
  3
Solid line
 72
    65
 73
     0
 40
0.0
  0
LTYPE
  5
152
330
5
100
AcDbSymbolTableRecord
100
AcDbLinetypeTableRecord
  2
CENTER2
 70
     0
  3
Center (.5x) ___ _ ___ _ ___ _ ___ _ ___ _ ___
 72
    65
 73
     4
 40
28.575
 49
19.05
 74
     4
 75
     0
340
0
 46
0.0
 50
0.0
 44
0.0
 45
0.0
 49
-3.175
 74
     4
 75
     0
340
0
 46
0.0
 50
0.0
 44
0.0
 45
0.0
 49
3.175
 74
     4
 75
     0
340
0
 46
0.0
 50
0.0
 44
0.0
 45
0.0
 49
-3.175
 74
     4
 75
     0
340
0
 46
0.0
 50
0.0
 44
0.0
 45
0.0
  0
LTYPE
  5
154
330
5
100
AcDbSymbolTableRecord
100
AcDbLinetypeTableRecord
  2
DASHDOT2
 70
     0
  3
Dash dot (.5x) _._._._._._._._._._._._._._._.
 72
    65
 73
     4
 40
12.7
 49
6.35
 74
     4
 75
     0
340
0
 46
0.0
 50
0.0
 44
0.0
 45
0.0
 49
-3.175
 74
     4
 75
     0
340
0
 46
0.0
 50
0.0
 44
0.0
 45
0.0
 49
0.0
 74
     4
 75
     0
340
0
 46
0.0
 50
0.0
 44
0.0
 45
0.0
 49
-3.175
 74
     4
 75
     0
340
0
 46
0.0
 50
0.0
 44
0.0
 45
0.0
  0
ENDTAB
  0
TABLE
  2
LAYER
  5
2
330
0
100
AcDbSymbolTable
 70
     3
  0
LAYER
  5
10
330
2
100
AcDbSymbolTableRecord
100
AcDbLayerTableRecord
  2
0
 70
     0
 62
     7
  6
CONTINUOUS
  0
LAYER
  5
3B
330
2
100
AcDbSymbolTableRecord
100
AcDbLayerTableRecord
  2
DEFAULT
 70
     0
 62
     7
  6
CONTINUOUS
  0
LAYER
  5
A2
330
2
100
AcDbSymbolTableRecord
100
AcDbLayerTableRecord
  2
DV1_デフォルト
 70
     0
 62
     7
  6
CONTINUOUS
  0
ENDTAB
  0
TABLE
  2
STYLE
  5
3
330
0
100
AcDbSymbolTable
 70
     3
  0
STYLE
  5
11
330
3
100
AcDbSymbolTableRecord
100
AcDbTextStyleTableRecord
  2
STANDARD
 70
     0
 40
0.0
 41
1.0
 50
0.0
 71
     0
 42
2.5
  3
txt
  4

  0
STYLE
  5
65
330
3
100
AcDbSymbolTableRecord
100
AcDbTextStyleTableRecord
  2
SEACAD_SEMECA1_TTF
 70
     0
 40
0.0
 41
1.0
 50
0.0
 71
     0
 42
0.2
  3
semeca1.ttf
  4

  0
STYLE
  5
67
330
3
100
AcDbSymbolTableRecord
100
AcDbTextStyleTableRecord
  2
SEACAD_SEANSI_TTF
 70
     0
 40
0.0
 41
1.0
 50
0.0
 71
     0
 42
0.2
  3
seansi.ttf
  4

  0
ENDTAB
  0
TABLE
  2
VIEW
  5
6
330
0
100
AcDbSymbolTable
 70
     0
  0
ENDTAB
  0
TABLE
  2
UCS
  5
7
330
0
100
AcDbSymbolTable
 70
     0
  0
ENDTAB
  0
TABLE
  2
APPID
  5
9
330
0
100
AcDbSymbolTable
 70
     1
  0
APPID
  5
12
330
9
100
AcDbSymbolTableRecord
100
AcDbRegAppTableRecord
  2
ACAD
 70
     0
  0
ENDTAB
  0
TABLE
  2
DIMSTYLE
  5
A
330
0
100
AcDbSymbolTable
 70
     1
  0
DIMSTYLE
105
27
330
A
100
AcDbSymbolTableRecord
100
AcDbDimStyleTableRecord
  2
ISO-25
 70
     0
  3

  4

  5

  6

  7

 40
1.0
 41
2.5
 42
0.625
 43
3.75
 44
1.25
 45
0.0
 46
0.0
 47
0.0
 48
0.0
140
2.5
141
2.5
142
0.0
143
0.0393700787
144
1.0
145
0.0
146
1.0
147
0.625
 71
     0
 72
     0
 73
     0
 74
     0
 75
     0
 76
     0
 77
     1
 78
     8
170
     0
171
     3
172
     1
173
     0
174
     0
175
     0
176
     0
177
     0
178
     0
270
     2
271
     2
272
     2
273
     2
274
     3
340
11
275
     0
280
     0
281
     0
282
     0
283
     0
284
     8
285
     0
286
     0
287
     3
288
     0
  0
ENDTAB
  0
TABLE
  2
BLOCK_RECORD
  5
1
330
0
100
AcDbSymbolTable
 70
     8
  0
BLOCK_RECORD
  5
1F
330
1
100
AcDbSymbolTableRecord
100
AcDbBlockTableRecord
  2
*MODEL_SPACE
  0
BLOCK_RECORD
  5
1B
330
1
100
AcDbSymbolTableRecord
100
AcDbBlockTableRecord
  2
*PAPER_SPACE
  0
BLOCK_RECORD
  5
3C
330
1
100
AcDbSymbolTableRecord
100
AcDbBlockTableRecord
  2
GDIMGGROUP
  0
BLOCK_RECORD
  5
6C
330
1
100
AcDbSymbolTableRecord
100
AcDbBlockTableRecord
  2
GDIMGGROUP1
  0
BLOCK_RECORD
  5
77
330
1
100
AcDbSymbolTableRecord
100
AcDbBlockTableRecord
  2
GDIMGGROUP2
  0
BLOCK_RECORD
  5
81
330
1
100
AcDbSymbolTableRecord
100
AcDbBlockTableRecord
  2
GDIMGGROUP3
  0
BLOCK_RECORD
  5
8B
330
1
100
AcDbSymbolTableRecord
100
AcDbBlockTableRecord
  2
GDIMGGROUP4
  0
BLOCK_RECORD
  5
95
330
1
100
AcDbSymbolTableRecord
100
AcDbBlockTableRecord
  2
GDIMGGROUP5
  0
BLOCK_RECORD
  5
A0
330
1
100
AcDbSymbolTableRecord
100
AcDbBlockTableRecord
  2
SE
  0
ENDTAB
  0
ENDSEC
  0
SECTION
  2
BLOCKS
  0
BLOCK
  5
20
330
1F
100
AcDbEntity
  8
0
100
AcDbBlockBegin
  2
*MODEL_SPACE
 70
     0
 10
0.0
 20
0.0
 30
0.0
  3
*MODEL_SPACE
  1

  0
ENDBLK
  5
21
330
1F
100
AcDbEntity
  8
0
100
AcDbBlockEnd
  0
BLOCK
  5
1C
330
1B
100
AcDbEntity
 67
     1
  8
0
100
AcDbBlockBegin
  2
*PAPER_SPACE
 70
     0
 10
0.0
 20
0.0
 30
0.0
  3
*PAPER_SPACE
  1

  0
ENDBLK
  5
1D
330
1B
100
AcDbEntity
 67
     1
  8
0
100
AcDbBlockEnd
  0
BLOCK
  5
6A
330
3C
100
AcDbEntity
  8
0
100
AcDbBlockBegin
  2
GDIMGGROUP
 70
     0
 10
0.0
 20
0.0
 30
0.0
  3
GDIMGGROUP
  1

  0
POLYLINE
  5
3E
330
3C
100
AcDbEntity
  8
DEFAULT
  6
CONTINUOUS
 62
   136
100
AcDb2dPolyline
 66
     1
 10
0.0
 20
0.0
 30
0.0
  0
VERTEX
  5
162
330
3E
100
AcDbEntity
  8
DEFAULT
  6
CONTINUOUS
 62
   136
100
AcDbVertex
100
AcDb2dVertex
 10
125.3082420248
 20
127.8892702464
 30
0.0
  0
VERTEX
  5
163
330
3E
100
AcDbEntity
  8
DEFAULT
  6
CONTINUOUS
 62
   136
100
AcDbVertex
100
AcDb2dVertex
 10
124.8415753748
 20
130.6892701466
 30
0.0
  0
VERTEX
  5
164
330
3E
100
AcDbEntity
  8
DEFAULT
  6
CONTINUOUS
 62
   136
100
AcDbVertex
100
AcDb2dVertex
 10
124.3749087247
 20
127.8892702464
 30
0.0
  0
SEQEND
  5
165
330
3E
100
AcDbEntity
  8
DEFAULT
  6
CONTINUOUS
 62
   136
  0
POLYLINE
  5
3F
330
3C
100
AcDbEntity
  8
DEFAULT
  6
CONTINUOUS
 62
   136
100
AcDb2dPolyline
 66
     1
 10
0.0
 20
0.0
 30
0.0
  0
VERTEX
  5
166
330
3F
100
AcDbEntity
  8
DEFAULT
  6
CONTINUOUS
 62
   136
100
AcDbVertex
100
AcDb2dVertex
 10
125.3082420248
 20
106.4892693464
 30
0.0
  0
VERTEX
  5
167
330
3F
100
AcDbEntity
  8
DEFAULT
  6
CONTINUOUS
 62
   136
100
AcDbVertex
100
AcDb2dVertex
 10
124.8415753748
 20
103.6892694462
 30
0.0
  0
VERTEX
  5
168
330
3F
100
AcDbEntity
  8
DEFAULT
  6
CONTINUOUS
 62
   136
100
AcDbVertex
100
AcDb2dVertex
 10
124.3749087247
 20
106.4892693464
 30
0.0
  0
SEQEND
  5
169
330
3F
100
AcDbEntity
  8
DEFAULT
  6
CONTINUOUS
 62
   136
  0
LINE
  5
40
330
3C
100
AcDbEntity
  8
DEFAULT
  6
CONTINUOUS
 62
   136
100
AcDbLine
 10
135.8595285368
 20
130.6892701466
 30
0.0
 11
123.4415754247
 21
130.6892701466
 31
0.0
  0
LINE
  5
41
330
3C
100
AcDbEntity
  8
DEFAULT
  6
CONTINUOUS
 62
   136
100
AcDbLine
 10
135.8595285368
 20
103.6892701466
 30
0.0
 11
123.4415754247
 21
103.6892701466
 31
0.0
  0
LINE
  5
42
330
3C
100
AcDbEntity
  8
DEFAULT
  6
CONTINUOUS
 62
   136
100
AcDbLine
 10
124.8415753748
 20
130.6892701466
 30
0.0
 11
124.8415753748
 21
103.6892694462
 31
0.0
  0
TEXT
  5
66
330
3C
100
AcDbEntity
  8
DEFAULT
  6
CONTINUOUS
 62
   136
100
AcDbText
 10
124.1415753748
 20
107.8859493
 30
0.0
 40
2.8
  1
O
 50
90.0
  7
SEACAD_SEMECA1_TTF
 11
121.3415753748
 21
107.8859493
 31
0.0
100
AcDbText
 73
     3
  0
TEXT
  5
68
330
3C
100
AcDbEntity
  8
DEFAULT
  6
CONTINUOUS
 62
   136
100
AcDbText
 10
124.1415753748
 20
111.3589317562
 30
0.0
 40
2.8
  1
27
 50
90.0
  7
SEACAD_SEANSI_TTF
 11
121.3415753748
 21
111.3589317562
 31
0.0
100
AcDbText
 73
     3
  0
TEXT
  5
69
330
3C
100
AcDbEntity
  8
DEFAULT
  6
CONTINUOUS
 62
   136
100
AcDbText
 10
124.1415753748
 20
115.7364927318
 30
0.0
 40
2.8
  1
 P=0.5
 50
90.0
  7
SEACAD_SEANSI_TTF
 11
121.3415753748
 21
115.7364927318
 31
0.0
100
AcDbText
 73
     3
  0
ENDBLK
  5
6B
330
3C
100
AcDbEntity
  8
0
100
AcDbBlockEnd
  0
BLOCK
  5
75
330
6C
100
AcDbEntity
  8
0
100
AcDbBlockBegin
  2
GDIMGGROUP1
 70
     0
 10
0.0
 20
0.0
 30
0.0
  3
GDIMGGROUP1
  1

  0
POLYLINE
  5
6E
330
6C
100
AcDbEntity
  8
DEFAULT
  6
CONTINUOUS
 62
   136
100
AcDb2dPolyline
 66
     1
 10
0.0
 20
0.0
 30
0.0
  0
VERTEX
  5
16A
330
6E
100
AcDbEntity
  8
DEFAULT
  6
CONTINUOUS
 62
   136
100
AcDbVertex
100
AcDb2dVertex
 10
118.9749080747
 20
128.7392702274
 30
0.0
  0
VERTEX
  5
16B
330
6E
100
AcDbEntity
  8
DEFAULT
  6
CONTINUOUS
 62
   136
100
AcDbVertex
100
AcDb2dVertex
 10
118.4415747549
 20
131.9392701466
 30
0.0
  0
VERTEX
  5
16C
330
6E
100
AcDbEntity
  8
DEFAULT
  6
CONTINUOUS
 62
   136
100
AcDbVertex
100
AcDb2dVertex
 10
117.908241435
 20
128.7392702274
 30
0.0
  0
SEQEND
  5
16D
330
6E
100
AcDbEntity
  8
DEFAULT
  6
CONTINUOUS
 62
   136
  0
POLYLINE
  5
6F
330
6C
100
AcDbEntity
  8
DEFAULT
  6
CONTINUOUS
 62
   136
100
AcDb2dPolyline
 66
     1
 10
0.0
 20
0.0
 30
0.0
  0
VERTEX
  5
16E
330
6F
100
AcDbEntity
  8
DEFAULT
  6
CONTINUOUS
 62
   136
100
AcDbVertex
100
AcDb2dVertex
 10
118.9749080747
 20
105.6392698869
 30
0.0
  0
VERTEX
  5
16F
330
6F
100
AcDbEntity
  8
DEFAULT
  6
CONTINUOUS
 62
   136
100
AcDbVertex
100
AcDb2dVertex
 10
118.4415747549
 20
102.4392699677
 30
0.0
  0
VERTEX
  5
170
330
6F
100
AcDbEntity
  8
DEFAULT
  6
CONTINUOUS
 62
   136
100
AcDbVertex
100
AcDb2dVertex
 10
117.908241435
 20
105.6392698869
 30
0.0
  0
SEQEND
  5
171
330
6F
100
AcDbEntity
  8
DEFAULT
  6
CONTINUOUS
 62
   136
  0
LINE
  5
70
330
6C
100
AcDbEntity
  8
DEFAULT
  6
CONTINUOUS
 62
   136
100
AcDbLine
 10
139.8995285991
 20
131.9392701466
 30
0.0
 11
116.8415747953
 21
131.9392701466
 31
0.0
  0
LINE
  5
71
330
6C
100
AcDbEntity
  8
DEFAULT
  6
CONTINUOUS
 62
   136
100
AcDbLine
 10
139.8995285991
 20
102.4392701466
 30
0.0
 11
116.8415747953
 21
102.4392701466
 31
0.0
  0
LINE
  5
72
330
6C
100
AcDbEntity
  8
DEFAULT
  6
CONTINUOUS
 62
   136
100
AcDbLine
 10
118.4415747549
 20
131.9392701466
 30
0.0
 11
118.4415747549
 21
102.4392699677
 31
0.0
  0
TEXT
  5
73
330
6C
100
AcDbEntity
  8
DEFAULT
  6
CONTINUOUS
 62
   136
100
AcDbText
 10
117.6415747549
 20
111.2047086536
 30
0.0
 40
3.2
  1
O
 50
90.0
  7
SEACAD_SEMECA1_TTF
 11
114.4415747549
 21
111.2047086536
 31
0.0
100
AcDbText
 73
     3
  0
TEXT
  5
74
330
6C
100
AcDbEntity
  8
DEFAULT
  6
CONTINUOUS
 62
   136
100
AcDbText
 10
117.6415747549
 20
115.1738314607
 30
0.0
 40
3.2
  1
29.5
 50
90.0
  7
SEACAD_SEANSI_TTF
 11
114.4415747549
 21
115.1738314607
 31
0.0
100
AcDbText
 73
     3
  0
ENDBLK
  5
76
330
6C
100
AcDbEntity
  8
0
100
AcDbBlockEnd
  0
BLOCK
  5
7F
330
77
100
AcDbEntity
  8
0
100
AcDbBlockBegin
  2
GDIMGGROUP2
 70
     0
 10
0.0
 20
0.0
 30
0.0
  3
GDIMGGROUP2
  1

  0
POLYLINE
  5
79
330
77
100
AcDbEntity
  8
DEFAULT
  6
CONTINUOUS
 62
   136
100
AcDb2dPolyline
 66
     1
 10
0.0
 20
0.0
 30
0.0
  0
VERTEX
  5
172
330
79
100
AcDbEntity
  8
DEFAULT
  6
CONTINUOUS
 62
   136
100
AcDbVertex
100
AcDb2dVertex
 10
140.1795284859
 20
88.399869711
 30
0.0
  0
VERTEX
  5
173
330
79
100
AcDbEntity
  8
DEFAULT
  6
CONTINUOUS
 62
   136
100
AcDbVertex
100
AcDb2dVertex
 10
136.9795285667
 20
87.8665363912
 30
0.0
  0
VERTEX
  5
174
330
79
100
AcDbEntity
  8
DEFAULT
  6
CONTINUOUS
 62
   136
100
AcDbVertex
100
AcDb2dVertex
 10
140.1795284859
 20
87.3332030713
 30
0.0
  0
SEQEND
  5
175
330
79
100
AcDbEntity
  8
DEFAULT
  6
CONTINUOUS
 62
   136
  0
POLYLINE
  5
7A
330
77
100
AcDbEntity
  8
DEFAULT
  6
CONTINUOUS
 62
   136
100
AcDb2dPolyline
 66
     1
 10
0.0
 20
0.0
 30
0.0
  0
VERTEX
  5
176
330
7A
100
AcDbEntity
  8
DEFAULT
  6
CONTINUOUS
 62
   136
100
AcDbVertex
100
AcDb2dVertex
 10
165.9795298278
 20
88.399869711
 30
0.0
  0
VERTEX
  5
177
330
7A
100
AcDbEntity
  8
DEFAULT
  6
CONTINUOUS
 62
   136
100
AcDbVertex
100
AcDb2dVertex
 10
169.1795297469
 20
87.8665363912
 30
0.0
  0
VERTEX
  5
178
330
7A
100
AcDbEntity
  8
DEFAULT
  6
CONTINUOUS
 62
   136
100
AcDbVertex
100
AcDb2dVertex
 10
165.9795298278
 20
87.3332030713
 30
0.0
  0
SEQEND
  5
179
330
7A
100
AcDbEntity
  8
DEFAULT
  6
CONTINUOUS
 62
   136
  0
LINE
  5
7B
330
77
100
AcDbEntity
  8
DEFAULT
  6
CONTINUOUS
 62
   136
100
AcDbLine
 10
136.9795285667
 20
101.8592701789
 30
0.0
 11
136.9795285667
 21
86.2665364316
 31
0.0
  0
LINE
  5
7C
330
77
100
AcDbEntity
  8
DEFAULT
  6
CONTINUOUS
 62
   136
100
AcDbLine
 10
169.1795285667
 20
101.9092701789
 30
0.0
 11
169.1795285667
 21
86.2665364316
 31
0.0
  0
LINE
  5
7D
330
77
100
AcDbEntity
  8
DEFAULT
  6
CONTINUOUS
 62
   136
100
AcDbLine
 10
136.9795285667
 20
87.8665363912
 30
0.0
 11
169.1795297469
 21
87.8665363912
 31
0.0
  0
TEXT
  5
7E
330
77
100
AcDbEntity
  8
DEFAULT
  6
CONTINUOUS
 62
   136
100
AcDbText
 10
149.0795291568
 20
88.6665363912
 30
0.0
 40
3.2
  1
32.2
  7
SEACAD_SEANSI_TTF
 11
149.0795291568
 21
91.8665363912
 31
0.0
100
AcDbText
 73
     3
  0
ENDBLK
  5
80
330
77
100
AcDbEntity
  8
0
100
AcDbBlockEnd
  0
BLOCK
  5
89
330
81
100
AcDbEntity
  8
0
100
AcDbBlockBegin
  2
GDIMGGROUP3
 70
     0
 10
0.0
 20
0.0
 30
0.0
  3
GDIMGGROUP3
  1

  0
POLYLINE
  5
83
330
81
100
AcDbEntity
  8
DEFAULT
  6
CONTINUOUS
 62
   136
100
AcDb2dPolyline
 66
     1
 10
0.0
 20
0.0
 30
0.0
  0
VERTEX
  5
17A
330
83
100
AcDbEntity
  8
DEFAULT
  6
CONTINUOUS
 62
   136
100
AcDbVertex
100
AcDb2dVertex
 10
165.9795286476
 20
96.0500779898
 30
0.0
  0
VERTEX
  5
17B
330
83
100
AcDbEntity
  8
DEFAULT
  6
CONTINUOUS
 62
   136
100
AcDbVertex
100
AcDb2dVertex
 10
169.1795285667
 20
95.5167446699
 30
0.0
  0
VERTEX
  5
17C
330
83
100
AcDbEntity
  8
DEFAULT
  6
CONTINUOUS
 62
   136
100
AcDbVertex
100
AcDb2dVertex
 10
165.9795286476
 20
94.98341135
 30
0.0
  0
SEQEND
  5
17D
330
83
100
AcDbEntity
  8
DEFAULT
  6
CONTINUOUS
 62
   136
  0
POLYLINE
  5
84
330
81
100
AcDbEntity
  8
DEFAULT
  6
CONTINUOUS
 62
   136
100
AcDb2dPolyline
 66
     1
 10
0.0
 20
0.0
 30
0.0
  0
VERTEX
  5
17E
330
84
100
AcDbEntity
  8
DEFAULT
  6
CONTINUOUS
 62
   136
100
AcDbVertex
100
AcDb2dVertex
 10
176.3795284859
 20
96.0500779898
 30
0.0
  0
VERTEX
  5
17F
330
84
100
AcDbEntity
  8
DEFAULT
  6
CONTINUOUS
 62
   136
100
AcDbVertex
100
AcDb2dVertex
 10
173.1795285667
 20
95.5167446699
 30
0.0
  0
VERTEX
  5
180
330
84
100
AcDbEntity
  8
DEFAULT
  6
CONTINUOUS
 62
   136
100
AcDbVertex
100
AcDb2dVertex
 10
176.3795284859
 20
94.98341135
 30
0.0
  0
SEQEND
  5
181
330
84
100
AcDbEntity
  8
DEFAULT
  6
CONTINUOUS
 62
   136
  0
LINE
  5
85
330
81
100
AcDbEntity
  8
DEFAULT
  6
CONTINUOUS
 62
   136
100
AcDbLine
 10
169.1795285667
 20
102.1887860595
 30
0.0
 11
169.1795285667
 21
93.9167447103
 31
0.0
  0
LINE
  5
86
330
81
100
AcDbEntity
  8
DEFAULT
  6
CONTINUOUS
 62
   136
100
AcDbLine
 10
173.1795285667
 20
104.1430406877
 30
0.0
 11
173.1795285667
 21
93.9167447103
 31
0.0
  0
LINE
  5
87
330
81
100
AcDbEntity
  8
DEFAULT
  6
CONTINUOUS
 62
   136
100
AcDbLine
 10
162.7795287284
 20
95.5167446699
 30
0.0
 11
179.5795285951
 21
95.5167446699
 31
0.0
  0
TEXT
  5
88
330
81
100
AcDbEntity
  8
DEFAULT
  6
CONTINUOUS
 62
   136
100
AcDbText
 10
170.0087969544
 20
96.3167446699
 30
0.0
 40
3.2
  1
4
  7
SEACAD_SEANSI_TTF
 11
170.0087969544
 21
99.5167446699
 31
0.0
100
AcDbText
 73
     3
  0
ENDBLK
  5
8A
330
81
100
AcDbEntity
  8
0
100
AcDbBlockEnd
  0
BLOCK
  5
93
330
8B
100
AcDbEntity
  8
0
100
AcDbBlockBegin
  2
GDIMGGROUP4
 70
     0
 10
0.0
 20
0.0
 30
0.0
  3
GDIMGGROUP4
  1

  0
POLYLINE
  5
8D
330
8B
100
AcDbEntity
  8
DEFAULT
  6
CONTINUOUS
 62
   136
100
AcDb2dPolyline
 66
     1
 10
0.0
 20
0.0
 30
0.0
  0
VERTEX
  5
182
330
8D
100
AcDbEntity
  8
DEFAULT
  6
CONTINUOUS
 62
   136
100
AcDbVertex
100
AcDb2dVertex
 10
172.3795284859
 20
88.3998697959
 30
0.0
  0
VERTEX
  5
183
330
8D
100
AcDbEntity
  8
DEFAULT
  6
CONTINUOUS
 62
   136
100
AcDbVertex
100
AcDb2dVertex
 10
169.1795285667
 20
87.8665364761
 30
0.0
  0
VERTEX
  5
184
330
8D
100
AcDbEntity
  8
DEFAULT
  6
CONTINUOUS
 62
   136
100
AcDbVertex
100
AcDb2dVertex
 10
172.3795284859
 20
87.3332031562
 30
0.0
  0
SEQEND
  5
185
330
8D
100
AcDbEntity
  8
DEFAULT
  6
CONTINUOUS
 62
   136
  0
POLYLINE
  5
8E
330
8B
100
AcDbEntity
  8
DEFAULT
  6
CONTINUOUS
 62
   136
100
AcDb2dPolyline
 66
     1
 10
0.0
 20
0.0
 30
0.0
  0
VERTEX
  5
186
330
8E
100
AcDbEntity
  8
DEFAULT
  6
CONTINUOUS
 62
   136
100
AcDbVertex
100
AcDb2dVertex
 10
173.5973803668
 20
88.3998697959
 30
0.0
  0
VERTEX
  5
187
330
8E
100
AcDbEntity
  8
DEFAULT
  6
CONTINUOUS
 62
   136
100
AcDbVertex
100
AcDb2dVertex
 10
176.797380286
 20
87.8665364761
 30
0.0
  0
VERTEX
  5
188
330
8E
100
AcDbEntity
  8
DEFAULT
  6
CONTINUOUS
 62
   136
100
AcDbVertex
100
AcDb2dVertex
 10
173.5973803668
 20
87.3332031562
 30
0.0
  0
SEQEND
  5
189
330
8E
100
AcDbEntity
  8
DEFAULT
  6
CONTINUOUS
 62
   136
  0
LINE
  5
8F
330
8B
100
AcDbEntity
  8
DEFAULT
  6
CONTINUOUS
 62
   136
100
AcDbLine
 10
169.1795285667
 20
102.1887860595
 30
0.0
 11
169.1795285667
 21
86.2665365165
 31
0.0
  0
LINE
  5
90
330
8B
100
AcDbEntity
  8
DEFAULT
  6
CONTINUOUS
 62
   136
100
AcDbLine
 10
176.7973801632
 20
106.2592701789
 30
0.0
 11
176.7973801632
 21
86.2665365165
 31
0.0
  0
LINE
  5
91
330
8B
100
AcDbEntity
  8
DEFAULT
  6
CONTINUOUS
 62
   136
100
AcDbLine
 10
169.1795285667
 20
87.8665364761
 30
0.0
 11
176.797380286
 21
87.8665364761
 31
0.0
  0
TEXT
  5
92
330
8B
100
AcDbEntity
  8
DEFAULT
  6
CONTINUOUS
 62
   136
100
AcDbText
 10
170.1591861337
 20
88.6665364761
 30
0.0
 40
3.2
  1
7.6
  7
SEACAD_SEANSI_TTF
 11
170.1591861337
 21
91.8665364761
 31
0.0
100
AcDbText
 73
     3
  0
ENDBLK
  5
94
330
8B
100
AcDbEntity
  8
0
100
AcDbBlockEnd
  0
BLOCK
  5
9E
330
95
100
AcDbEntity
  8
0
100
AcDbBlockBegin
  2
GDIMGGROUP5
 70
     0
 10
0.0
 20
0.0
 30
0.0
  3
GDIMGGROUP5
  1

  0
POLYLINE
  5
97
330
95
100
AcDbEntity
  8
DEFAULT
  6
CONTINUOUS
 62
   136
100
AcDb2dPolyline
 66
     1
 10
0.0
 20
0.0
 30
0.0
  0
VERTEX
  5
18A
330
97
100
AcDbEntity
  8
DEFAULT
  6
CONTINUOUS
 62
   136
100
AcDbVertex
100
AcDb2dVertex
 10
186.5916958064
 20
123.8392702274
 30
0.0
  0
VERTEX
  5
18B
330
97
100
AcDbEntity
  8
DEFAULT
  6
CONTINUOUS
 62
   136
100
AcDbVertex
100
AcDb2dVertex
 10
187.1250291263
 20
127.0392701466
 30
0.0
  0
VERTEX
  5
18C
330
97
100
AcDbEntity
  8
DEFAULT
  6
CONTINUOUS
 62
   136
100
AcDbVertex
100
AcDb2dVertex
 10
187.6583624462
 20
123.8392702274
 30
0.0
  0
SEQEND
  5
18D
330
97
100
AcDbEntity
  8
DEFAULT
  6
CONTINUOUS
 62
   136
  0
POLYLINE
  5
98
330
95
100
AcDbEntity
  8
DEFAULT
  6
CONTINUOUS
 62
   136
100
AcDb2dPolyline
 66
     1
 10
0.0
 20
0.0
 30
0.0
  0
VERTEX
  5
18E
330
98
100
AcDbEntity
  8
DEFAULT
  6
CONTINUOUS
 62
   136
100
AcDbVertex
100
AcDb2dVertex
 10
186.5916958064
 20
110.5392700031
 30
0.0
  0
VERTEX
  5
18F
330
98
100
AcDbEntity
  8
DEFAULT
  6
CONTINUOUS
 62
   136
100
AcDbVertex
100
AcDb2dVertex
 10
187.1250291263
 20
107.339270084
 30
0.0
  0
VERTEX
  5
190
330
98
100
AcDbEntity
  8
DEFAULT
  6
CONTINUOUS
 62
   136
100
AcDbVertex
100
AcDb2dVertex
 10
187.6583624462
 20
110.5392700031
 30
0.0
  0
SEQEND
  5
191
330
98
100
AcDbEntity
  8
DEFAULT
  6
CONTINUOUS
 62
   136
  0
LINE
  5
99
330
95
100
AcDbEntity
  8
DEFAULT
  6
CONTINUOUS
 62
   136
100
AcDbLine
 10
177.8773801309
 20
127.0392701466
 30
0.0
 11
188.7250290859
 21
127.0392701466
 31
0.0
  0
LINE
  5
9A
330
95
100
AcDbEntity
  8
DEFAULT
  6
CONTINUOUS
 62
   136
100
AcDbLine
 10
177.8773801309
 20
107.3392701466
 30
0.0
 11
188.7250290859
 21
107.3392701466
 31
0.0
  0
LINE
  5
9B
330
95
100
AcDbEntity
  8
DEFAULT
  6
CONTINUOUS
 62
   136
100
AcDbLine
 10
187.1250291263
 20
127.0392701466
 30
0.0
 11
187.1250291263
 21
107.339270084
 31
0.0
  0
TEXT
  5
9C
330
95
100
AcDbEntity
  8
DEFAULT
  6
CONTINUOUS
 62
   136
100
AcDbText
 10
186.3250291263
 20
111.2047087118
 30
0.0
 40
3.2
  1
O
 50
90.0
  7
SEACAD_SEMECA1_TTF
 11
183.1250291263
 21
111.2047087118
 31
0.0
100
AcDbText
 73
     3
  0
TEXT
  5
9D
330
95
100
AcDbEntity
  8
DEFAULT
  6
CONTINUOUS
 62
   136
100
AcDbText
 10
186.3250291263
 20
115.1738315188
 30
0.0
 40
3.2
  1
19.7
 50
90.0
  7
SEACAD_SEANSI_TTF
 11
183.1250291263
 21
115.1738315188
 31
0.0
100
AcDbText
 73
     3
  0
ENDBLK
  5
9F
330
95
100
AcDbEntity
  8
0
100
AcDbBlockEnd
  0
BLOCK
  5
15A
330
A0
100
AcDbEntity
  8
0
100
AcDbBlockBegin
  2
SE
 70
     0
 10
0.0
 20
0.0
 30
0.0
  3
SE
  1

  0
ELLIPSE
  5
A3
330
A0
100
AcDbEntity
  8
DV1_デフォルト
  6
CONTINUOUS
 62
     7
100
AcDbEllipse
 10
144.6295285667
 20
104.4500364569
 30
0.0
 11
-0.8500000000000001
 21
-3.491175447067548E-15
 31
0.0
210
0.0
220
0.0
230
1.0
 40
0.5
 41
0.4243897085931264
 42
2.717202944996581
  0
ELLIPSE
  5
A4
330
A0
100
AcDbEntity
  8
DV1_デフォルト
  6
CONTINUOUS
 62
     7
100
AcDbEllipse
 10
144.6295285667
 20
104.4500364569
 30
0.0
 11
0.8500000000000035
 21
-3.319042480436538E-15
 31
0.0
210
0.0
220
0.0
230
1.0
 40
0.5
 41
0.4243897085932204
 42
2.717202944996657
  0
LINE
  5
A5
330
A0
100
AcDbEntity
  8
DV1_デフォルト
  6
CONTINUOUS
 62
     7
100
AcDbLine
 10
143.8549318975
 20
104.5836685987
 30
0.0
 11
143.8549318975
 21
104.2750364569
 31
0.0
  0
LINE
  5
A6
330
A0
100
AcDbEntity
  8
DV1_デフォルト
  6
CONTINUOUS
 62
     7
100
AcDbLine
 10
145.404125236
 20
104.2750364569
 30
0.0
 11
145.404125236
 21
104.587505688
 31
0.0
  0
LINE
  5
A7
330
A0
100
AcDbEntity
  8
DV1_デフォルト
  6
CONTINUOUS
 62
     7
100
AcDbLine
 10
145.36717835
 20
104.6250364569
 30
0.0
 11
143.8978962513
 21
104.6250364569
 31
0.0
  0
LINE
  5
A8
330
A0
100
AcDbEntity
  8
DV1_デフォルト
  6
CONTINUOUS
 62
     7
100
AcDbLine
 10
143.8549318975
 20
104.2750364569
 30
0.0
 11
145.404125236
 21
104.2750364569
 31
0.0
  0
LINE
  5
A9
330
A0
100
AcDbEntity
  8
DV1_デフォルト
  6
CONTINUOUS
 62
     7
100
AcDbLine
 10
176.7973801632
 20
107.5392701466
 30
0.0
 11
176.7973801632
 21
126.8392701466
 31
0.0
  0
LINE
  5
AA
330
A0
100
AcDbEntity
  8
DV1_デフォルト
  6
CONTINUOUS
 62
     7
100
AcDbLine
 10
176.5973801633
 20
107.3392701466
 30
0.0
 11
176.5973801633
 21
127.0392701466
 31
0.0
  0
LINE
  5
AB
330
A0
100
AcDbEntity
  8
DV1_デフォルト
  6
CONTINUOUS
 62
     7
100
AcDbLine
 10
173.4973801632
 20
107.3392701466
 30
0.0
 11
173.4973801632
 21
127.0392701466
 31
0.0
  0
LINE
  5
AC
330
A0
100
AcDbEntity
  8
DV1_デフォルト
  6
CONTINUOUS
 62
     7
100
AcDbLine
 10
173.2973801632
 20
107.5392701466
 30
0.0
 11
173.2973801632
 21
126.8392701465
 31
0.0
  0
LINE
  5
AD
330
A0
100
AcDbEntity
  8
DV1_デフォルト
  6
CONTINUOUS
 62
     7
100
AcDbLine
 10
176.5973801633
 20
107.3392701466
 30
0.0
 11
176.7973801632
 21
107.5392701466
 31
0.0
  0
LINE
  5
AE
330
A0
100
AcDbEntity
  8
DV1_デフォルト
  6
CONTINUOUS
 62
     7
100
AcDbLine
 10
176.7973801632
 20
126.8392701466
 30
0.0
 11
176.5973801633
 21
127.0392701466
 31
0.0
  0
LINE
  5
AF
330
A0
100
AcDbEntity
  8
DV1_デフォルト
  6
CONTINUOUS
 62
     7
100
AcDbLine
 10
173.4973801632
 20
107.3392701466
 30
0.0
 11
176.5973801633
 21
107.3392701466
 31
0.0
  0
LINE
  5
B0
330
A0
100
AcDbEntity
  8
DV1_デフォルト
  6
CONTINUOUS
 62
     7
100
AcDbLine
 10
176.5973801633
 20
127.0392701466
 30
0.0
 11
173.4973801632
 21
127.0392701466
 31
0.0
  0
LINE
  5
B1
330
A0
100
AcDbEntity
  8
DV1_デフォルト
  6
CONTINUOUS
 62
     7
100
AcDbLine
 10
173.4973801632
 20
127.0392701466
 30
0.0
 11
173.2973801632
 21
126.8392701465
 31
0.0
  0
LINE
  5
B2
330
A0
100
AcDbEntity
  8
DV1_デフォルト
  6
CONTINUOUS
 62
     7
100
AcDbLine
 10
173.2973801632
 20
107.5392701466
 30
0.0
 11
173.4973801632
 21
107.3392701466
 31
0.0
  0
LINE
  5
B3
330
A0
100
AcDbEntity
  8
DV1_デフォルト
  6
CONTINUOUS
 62
     7
100
AcDbLine
 10
173.2973801632
 20
126.0677687432
 30
0.0
 11
173.1795285667
 21
125.9499171467
 31
0.0
  0
LINE
  5
B4
330
A0
100
AcDbEntity
  8
DV1_デフォルト
  6
CONTINUOUS
 62
     7
100
AcDbLine
 10
173.1795285667
 20
108.4286231464
 30
0.0
 11
173.2973801632
 21
108.31077155
 31
0.0
  0
LINE
  5
B5
330
A0
100
AcDbEntity
  8
DV1_デフォルト
  6
CONTINUOUS
 62
     7
100
AcDbLine
 10
136.9795285667
 20
103.1392701466
 30
0.0
 11
136.9795285667
 21
131.2392701466
 31
0.0
  0
LINE
  5
B6
330
A0
100
AcDbEntity
  8
DV1_デフォルト
  6
CONTINUOUS
 62
     7
100
AcDbLine
 10
137.1795285667
 20
102.9392701466
 30
0.0
 11
137.1795285667
 21
131.4392701466
 31
0.0
  0
LINE
  5
B7
330
A0
100
AcDbEntity
  8
DV1_デフォルト
  6
CONTINUOUS
 62
     7
100
AcDbLine
 10
140.9795285667
 20
102.6392701466
 30
0.0
 11
140.9795285667
 21
131.7392701466
 31
0.0
  0
LINE
  5
B8
330
A0
100
AcDbEntity
  8
DV1_デフォルト
  6
CONTINUOUS
 62
     7
100
AcDbLine
 10
141.1795285667
 20
102.4392701466
 30
0.0
 11
141.1795285667
 21
131.9392701466
 31
0.0
  0
LINE
  5
B9
330
A0
100
AcDbEntity
  8
DV1_デフォルト
  6
CONTINUOUS
 62
     7
100
AcDbLine
 10
154.3795285667
 20
102.4392701466
 30
0.0
 11
154.3795285667
 21
131.9392701466
 31
0.0
  0
LINE
  5
BA
330
A0
100
AcDbEntity
  8
DV1_デフォルト
  6
CONTINUOUS
 62
     7
100
AcDbLine
 10
154.5795285667
 20
102.6392701466
 30
0.0
 11
154.5795285667
 21
131.7392701466
 31
0.0
  0
SPLINE
  5
BB
330
A0
100
AcDbEntity
  8
DV1_デフォルト
  6
CONTINUOUS
 62
     7
100
AcDbSpline
210
0.0
220
0.0
230
1.0
 70
    11
 71
     3
 72
    62
 73
    58
 74
     0
 42
0.0000000024169249
 43
0.0000000001
 40
0.0
 40
0.0
 40
0.0
 40
0.0
 40
0.0536437625248038
 40
0.0536437625248038
 40
0.0536437625248038
 40
0.1072837268652057
 40
0.1072837268652057
 40
0.1072837268652057
 40
0.1609806380991683
 40
0.1609806380991683
 40
0.1609806380991683
 40
0.2147164776083283
 40
0.2147164776083283
 40
0.2147164776083283
 40
0.2683910030146922
 40
0.2683910030146922
 40
0.2683910030146922
 40
0.3219998298234013
 40
0.3219998298234013
 40
0.3219998298234013
 40
0.3756407693719443
 40
0.3756407693719443
 40
0.3756407693719443
 40
0.4293616608687382
 40
0.4293616608687382
 40
0.4293616608687382
 40
0.4830858085964148
 40
0.4830858085964148
 40
0.4830858085964148
 40
0.5367310619609308
 40
0.5367310619609308
 40
0.5367310619609308
 40
0.5903385209363424
 40
0.5903385209363424
 40
0.5903385209363424
 40
0.6440081508453726
 40
0.6440081508453726
 40
0.6440081508453726
 40
0.6977429473034766
 40
0.6977429473034766
 40
0.6977429473034766
 40
0.7514442747489366
 40
0.7514442747489366
 40
0.7514442747489366
 40
0.8050658824174288
 40
0.8050658824174288
 40
0.8050658824174288
 40
0.8586857575115533
 40
0.8586857575115533
 40
0.8586857575115533
 40
0.9123844453896965
 40
0.9123844453896965
 40
0.9123844453896965
 40
0.9661199207640259
 40
0.9661199207640259
 40
0.9661199207640259
 40
1.0
 40
1.0
 40
1.0
 40
1.0
 10
144.6295285667465
 20
129.5169169306602
 30
0.0
 10
144.7245758124265
 20
129.5169169306602
 30
0.0
 10
144.8209334417994
 20
129.5259558892216
 30
0.0
 10
144.910618591501
 20
129.543151464444
 30
0.0
 10
145.0003001312859
 20
129.5603463475273
 30
0.0
 10
145.0857823396371
 20
129.5861573743309
 30
0.0
 10
145.1600145404519
 20
129.6181184388693
 30
0.0
 10
145.2343242646109
 20
129.6501128814914
 30
0.0
 10
145.2994102479196
 20
129.6891340888965
 30
0.0
 10
145.3498959300177
 20
129.731573127188
 30
0.0
 10
145.4004160174881
 20
129.7740410871629
 30
0.0
 10
145.4377085619784
 20
129.8210887795896
 30
0.0
 10
145.4586694786577
 20
129.8685412775964
 30
0.0
 10
145.4796066782997
 20
129.9159400836448
 30
0.0
 10
145.4848255078606
 20
129.9650436438095
 30
0.0
 10
145.4738902589426
 20
130.0117349699781
 30
0.0
 10
145.4629678760038
 20
130.0583713609886
 30
0.0
 10
145.435631144345
 20
130.1038907621689
 30
0.0
 10
145.3941503680308
 20
130.1447404138929
 30
0.0
 10
145.3526442673595
 20
130.1856150046672
 30
0.0
 10
145.2958363970479
 20
130.22295521718
 30
0.0
 10
145.2284170201685
 20
130.2540521214584
 30
0.0
 10
145.1609000100107
 20
130.2851940586761
 30
0.0
 10
145.0808766457882
 20
130.3109521563117
 30
0.0
 10
144.9949601038725
 20
130.3295617433373
 30
0.0
 10
144.909040970075
 20
130.3481718917665
 30
0.0
 10
144.8148527823715
 20
130.3601604917905
 30
0.0
 10
144.7202114028614
 20
130.3647331803782
 30
0.0
 10
144.6257062348344
 20
130.3692992877782
 30
0.0
 10
144.5281415868245
 20
130.3666007003346
 30
0.0
 10
144.4356064774084
 20
130.3568143870847
 30
0.0
 10
144.3431325689541
 20
130.3470345463163
 30
0.0
 10
144.2531339584239
 20
130.3299001260862
 30
0.0
 10
144.1730354235952
 20
130.3065519071448
 30
0.0
 10
144.0928448147993
 20
130.2831768492213
 30
0.0
 10
144.0203663940337
 20
130.2529133262538
 30
0.0
 10
143.9615775847459
 20
130.2178707369933
 30
0.0
 10
143.9027201938412
 20
130.1827872678875
 30
0.0
 10
143.8559612581382
 20
130.1419257320791
 30
0.0
 10
143.8251834551883
 20
130.0983400187363
 30
0.0
 10
143.7944251528329
 20
130.0547819209878
 30
0.0
 10
143.778780899576
 20
130.0072878093465
 30
0.0
 10
143.7795568324879
 20
129.9596775017138
 30
0.0
 10
143.7803316467518
 20
129.9121358329769
 30
0.0
 10
143.7974992614397
 20
129.8631679742908
 30
0.0
 10
143.8296307001906
 20
129.8169616694506
 30
0.0
 10
143.8617620490876
 20
129.770755493824
 30
0.0
 10
143.9097385462229
 20
129.7260498238381
 30
0.0
 10
143.9695939176152
 20
129.6868615836704
 30
0.0
 10
144.029535496811
 20
129.6476169019165
 30
0.0
 10
144.1030429506096
 20
129.6128415304205
 30
0.0
 10
144.1840479074003
 20
129.5857957912137
 30
0.0
 10
144.2651048821684
 20
129.5587326843703
 30
0.0
 10
144.3559101774255
 20
129.5386799450746
 30
0.0
 10
144.4489367281723
 20
129.5275788548299
 30
0.0
 10
144.5080951695983
 20
129.5205193305142
 30
0.0
 10
144.5689836094951
 20
129.5169169306602
 30
0.0
 10
144.6295285667465
 20
129.5169169306602
 30
0.0
  0
SPLINE
  5
BC
330
A0
100
AcDbEntity
  8
DV1_デフォルト
  6
CONTINUOUS
 62
     7
100
AcDbSpline
210
0.0
220
0.0
230
1.0
 70
    11
 71
     3
 72
    62
 73
    58
 74
     0
 42
0.0000000024168959
 43
0.0000000001
 40
0.0
 40
0.0
 40
0.0
 40
0.0
 40
0.0536437625248038
 40
0.0536437625248038
 40
0.0536437625248038
 40
0.1072837268652058
 40
0.1072837268652058
 40
0.1072837268652058
 40
0.1609806380991685
 40
0.1609806380991685
 40
0.1609806380991685
 40
0.2147164776083284
 40
0.2147164776083284
 40
0.2147164776083284
 40
0.2683910030146923
 40
0.2683910030146923
 40
0.2683910030146923
 40
0.3219998298234013
 40
0.3219998298234013
 40
0.3219998298234013
 40
0.3756407693719444
 40
0.3756407693719444
 40
0.3756407693719444
 40
0.4293616608687383
 40
0.4293616608687383
 40
0.4293616608687383
 40
0.4830858085964146
 40
0.4830858085964146
 40
0.4830858085964146
 40
0.5367310619609306
 40
0.5367310619609306
 40
0.5367310619609306
 40
0.5903385209363421
 40
0.5903385209363421
 40
0.5903385209363421
 40
0.6440081508453723
 40
0.6440081508453723
 40
0.6440081508453723
 40
0.6977429473034764
 40
0.6977429473034764
 40
0.6977429473034764
 40
0.7514442747489365
 40
0.7514442747489365
 40
0.7514442747489365
 40
0.8050658824174287
 40
0.8050658824174287
 40
0.8050658824174287
 40
0.8586857575115531
 40
0.8586857575115531
 40
0.8586857575115531
 40
0.9123844453896965
 40
0.9123844453896965
 40
0.9123844453896965
 40
0.9661199207640258
 40
0.9661199207640258
 40
0.9661199207640258
 40
1.0
 40
1.0
 40
1.0
 40
1.0
 10
144.6295285667465
 20
104.0116233624615
 30
0.0
 10
144.7245758124265
 20
104.0116233624615
 30
0.0
 10
144.8209334417994
 20
104.0189806473455
 30
0.0
 10
144.910618591501
 20
104.0332115427967
 30
0.0
 10
145.0003001312859
 20
104.0474418654402
 30
0.0
 10
145.0857823396371
 20
104.0689476388718
 30
0.0
 10
145.1600145404519
 20
104.0962798274978
 30
0.0
 10
145.2343242646109
 20
104.1236405601067
 30
0.0
 10
145.2994102479196
 20
104.1576124686857
 30
0.0
 10
145.3498959300177
 20
104.195778888234
 30
0.0
 10
145.4004160174881
 20
104.2339713177285
 30
0.0
 10
145.4377085619784
 20
104.2774369106877
 30
0.0
 10
145.4586694786577
 20
104.3228484125474
 30
0.0
 10
145.4796066782997
 20
104.3682085318126
 30
0.0
 10
145.4848255078606
 20
104.416770884011
 30
0.0
 10
145.4738902589426
 20
104.4645464749255
 30
0.0
 10
145.4629678760038
 20
104.5122658549791
 30
0.0
 10
145.435631144345
 20
104.5605108759294
 30
0.0
 10
145.3941503680308
 20
104.6050861582653
 30
0.0
 10
145.3526442673595
 20
104.6496886541798
 30
0.0
 10
145.2958363970479
 20
104.6918313724528
 30
0.0
 10
145.2284170201685
 20
104.7276735663455
 30
0.0
 10
145.1609000100107
 20
104.7635676650622
 30
0.0
 10
145.0808766457882
 20
104.7941143048391
 30
0.0
 10
144.9949601038725
 20
104.8164157079112
 30
0.0
 10
144.909040970075
 20
104.8387177837595
 30
0.0
 10
144.8148527823715
 20
104.8533738411448
 30
0.0
 10
144.7202114028614
 20
104.8589559891163
 30
0.0
 10
144.6257062348344
 20
104.8645301030475
 30
0.0
 10
144.5281415868245
 20
104.8612060910776
 30
0.0
 10
144.4356064774084
 20
104.8493092693708
 30
0.0
 10
144.3431325689541
 20
104.8374203159957
 30
0.0
 10
144.2531339584239
 20
104.8166527855996
 30
0.0
 10
144.1730354235952
 20
104.7890058266685
 30
0.0
 10
144.0928448147993
 20
104.7613270873159
 30
0.0
 10
144.0203663940337
 20
104.726008136331
 30
0.0
 10
143.9615775847459
 20
104.6863514805318
 30
0.0
 10
143.9027201938412
 20
104.6466485622278
 30
0.0
 10
143.8559612581382
 20
104.6015188093791
 30
0.0
 10
143.8251834551883
 20
104.5550255670943
 30
0.0
 10
143.7944251528329
 20
104.5085617825933
 30
0.0
 10
143.778780899576
 20
104.4594637732496
 30
0.0
 10
143.7795568324879
 20
104.4119309113174
 30
0.0
 10
143.7803316467518
 20
104.3644665766287
 30
0.0
 10
143.7974992614397
 20
104.3172538172484
 30
0.0
 10
143.8296307001906
 20
104.2740661838021
 30
0.0
 10
143.8617620490876
 20
104.2308786711278
 30
0.0
 10
143.9097385462229
 20
104.1905144550996
 30
0.0
 10
143.9695939176152
 20
104.1559677249868
 30
0.0
 10
144.029535496811
 20
104.1213712383083
 30
0.0
 10
144.1030429506096
 20
104.0916367410178
 30
0.0
 10
144.1840479074003
 20
104.0688336081176
 30
0.0
 10
144.2651048821684
 20
104.0460158320042
 30
0.0
 10
144.3559101774255
 20
104.029492518666
 30
0.0
 10
144.4489367281723
 20
104.0203673209033
 30
0.0
 10
144.5080951695983
 20
104.0145643273169
 30
0.0
 10
144.5689836094951
 20
104.0116233624615
 30
0.0
 10
144.6295285667465
 20
104.0116233624615
 30
0.0
  0
ARC
  5
BD
330
A0
100
AcDbEntity
  8
DV1_デフォルト
  6
CONTINUOUS
 62
     7
100
AcDbCircle
 10
150.8795285667
 20
146.2290903793
 30
0.0
 40
14.31755392555185
100
AcDbArc
 50
266.4332133142
 51
273.5667866442
  0
LINE
  5
BE
330
A0
100
AcDbEntity
  8
DV1_デフォルト
  6
CONTINUOUS
 62
     7
100
AcDbLine
 10
137.1795285667
 20
131.4392701466
 30
0.0
 11
136.9795285667
 21
131.2392701466
 31
0.0
  0
LINE
  5
BF
330
A0
100
AcDbEntity
  8
DV1_デフォルト
  6
CONTINUOUS
 62
     7
100
AcDbLine
 10
136.9795285667
 20
103.1392701466
 30
0.0
 11
137.1795285667
 21
102.9392701466
 31
0.0
  0
LINE
  5
C0
330
A0
100
AcDbEntity
  8
DV1_デフォルト
  6
CONTINUOUS
 62
     7
100
AcDbLine
 10
137.1795285667
 20
102.9392701466
 30
0.0
 11
140.9795285667
 21
102.9392701466
 31
0.0
  0
LINE
  5
C1
330
A0
100
AcDbEntity
  8
DV1_デフォルト
  6
CONTINUOUS
 62
     7
100
AcDbLine
 10
140.9795285667
 20
131.4392701466
 30
0.0
 11
137.1795285667
 21
131.4392701466
 31
0.0
  0
LINE
  5
C2
330
A0
100
AcDbEntity
  8
DV1_デフォルト
  6
CONTINUOUS
 62
     7
100
AcDbLine
 10
141.1795285667
 20
131.9392701466
 30
0.0
 11
140.9795285667
 21
131.7392701466
 31
0.0
  0
LINE
  5
C3
330
A0
100
AcDbEntity
  8
DV1_デフォルト
  6
CONTINUOUS
 62
     7
100
AcDbLine
 10
140.9795285667
 20
102.6392701466
 30
0.0
 11
141.1795285667
 21
102.4392701466
 31
0.0
  0
LINE
  5
C4
330
A0
100
AcDbEntity
  8
DV1_デフォルト
  6
CONTINUOUS
 62
     7
100
AcDbLine
 10
141.1795285667
 20
102.4392701466
 30
0.0
 11
154.3795285667
 21
102.4392701466
 31
0.0
  0
LINE
  5
C5
330
A0
100
AcDbEntity
  8
DV1_デフォルト
  6
CONTINUOUS
 62
     7
100
AcDbLine
 10
149.9888974189
 20
131.9392701466
 30
0.0
 11
141.1795285667
 21
131.9392701466
 31
0.0
  0
LINE
  5
C6
330
A0
100
AcDbEntity
  8
DV1_デフォルト
  6
CONTINUOUS
 62
     7
100
AcDbLine
 10
154.3795285667
 20
131.9392701466
 30
0.0
 11
151.7701556674
 21
131.9392701466
 31
0.0
  0
LINE
  5
C7
330
A0
100
AcDbEntity
  8
DV1_デフォルト
  6
CONTINUOUS
 62
     7
100
AcDbLine
 10
154.3795285667
 20
102.4392701466
 30
0.0
 11
154.5795285667
 21
102.6392701466
 31
0.0
  0
LINE
  5
C8
330
A0
100
AcDbEntity
  8
DV1_デフォルト
  6
CONTINUOUS
 62
     7
100
AcDbLine
 10
154.5795285667
 20
131.7392701466
 30
0.0
 11
154.3795285667
 21
131.9392701466
 31
0.0
  0
ELLIPSE
  5
C9
330
A0
100
AcDbEntity
  8
DV1_デフォルト
  6
CONTINUOUS
 62
     7
100
AcDbEllipse
 10
162.1295285667
 20
121.048262109
 30
0.0
 11
-0.9999999999999991
 21
8.695509337512099E-15
 31
0.0
210
0.0
220
0.0
230
1.0
 40
0.9659258263
 41
3.083045687282997
 42
3.141592653589802
  0
ELLIPSE
  5
CA
330
A0
100
AcDbEntity
  8
DV1_デフォルト
  6
CONTINUOUS
 62
     7
100
AcDbEllipse
 10
162.1295285667
 20
121.048262109
 30
0.0
 11
-0.9999999999999991
 21
8.695509337512099E-15
 31
0.0
210
0.0
220
0.0
230
1.0
 40
0.9659258263
 41
6.229982287388657
 42
6.283185307179581
  0
ELLIPSE
  5
CB
330
A0
100
AcDbEntity
  8
DV1_デフォルト
  6
CONTINUOUS
 62
     7
100
AcDbEllipse
 10
162.1295285667
 20
120.9964983
 30
0.0
 11
0.9999999999999983
 21
6.127526718014301E-15
 31
0.0
210
0.0
220
0.0
230
1.0
 40
0.9659258263
 41
3.141592653589802
 42
6.28318530717958
  0
ARC
  5
CC
330
A0
100
AcDbEntity
  8
DV1_デフォルト
  6
CONTINUOUS
 62
     7
100
AcDbCircle
 10
162.1295285667
 20
61.4870894057
 30
0.0
 40
58.96267034047523
100
AcDbArc
 50
89.805653682
 51
90.1943463179
  0
LINE
  5
CD
330
A0
100
AcDbEntity
  8
DV1_デフォルト
  6
CONTINUOUS
 62
     7
100
AcDbLine
 10
161.9295285667
 20
120.9327226573
 30
0.0
 11
161.4587081735
 21
120.9327226573
 31
0.0
  0
LINE
  5
CE
330
A0
100
AcDbEntity
  8
DV1_デフォルト
  6
CONTINUOUS
 62
     7
100
AcDbLine
 10
161.4295285667
 20
121.3187537912
 30
0.0
 11
161.4295285667
 21
120.9323834607
 31
0.0
  0
LINE
  5
CF
330
A0
100
AcDbEntity
  8
DV1_デフォルト
  6
CONTINUOUS
 62
     7
100
AcDbLine
 10
161.9295285667
 20
121.2414472743
 30
0.0
 11
161.9295285667
 21
121.3190929878
 31
0.0
  0
LINE
  5
D0
330
A0
100
AcDbEntity
  8
DV1_デフォルト
  6
CONTINUOUS
 62
     7
100
AcDbLine
 10
161.9295285667
 20
121.3190929878
 30
0.0
 11
161.9295285667
 21
121.7738705652
 31
0.0
  0
ARC
  5
D1
330
A0
100
AcDbEntity
  8
DV1_デフォルト
  6
CONTINUOUS
 62
     7
100
AcDbCircle
 10
162.1295285667
 20
62.839385603
 30
0.0
 40
58.96267029997096
100
AcDbArc
 50
89.8056536819
 51
90.1943463181
  0
LINE
  5
D2
330
A0
100
AcDbEntity
  8
DV1_デフォルト
  6
CONTINUOUS
 62
     7
100
AcDbLine
 10
162.3295285667
 20
121.2414472743
 30
0.0
 11
162.3295285667
 21
121.3190929878
 31
0.0
  0
LINE
  5
D3
330
A0
100
AcDbEntity
  8
DV1_デフォルト
  6
CONTINUOUS
 62
     7
100
AcDbLine
 10
162.3295285667
 20
121.3190929878
 30
0.0
 11
162.80034896
 21
121.3190929878
 31
0.0
  0
LINE
  5
D4
330
A0
100
AcDbEntity
  8
DV1_デフォルト
  6
CONTINUOUS
 62
     7
100
AcDbLine
 10
162.8295285667
 20
120.9323834607
 30
0.0
 11
162.8295285667
 21
121.3187537912
 31
0.0
  0
LINE
  5
D5
330
A0
100
AcDbEntity
  8
DV1_デフォルト
  6
CONTINUOUS
 62
     7
100
AcDbLine
 10
162.3295285667
 20
120.9327226573
 30
0.0
 11
162.3295285667
 21
120.4779450799
 31
0.0
  0
LINE
  5
D6
330
A0
100
AcDbEntity
  8
DV1_デフォルト
  6
CONTINUOUS
 62
     7
100
AcDbLine
 10
161.9295285667
 20
120.4779450799
 30
0.0
 11
161.9295285667
 21
120.9327226573
 31
0.0
  0
LINE
  5
D7
330
A0
100
AcDbEntity
  8
DV1_デフォルト
  6
CONTINUOUS
 62
     7
100
AcDbLine
 10
161.9295285667
 20
120.4779450799
 30
0.0
 11
161.9295285667
 21
120.4494205476
 31
0.0
  0
ARC
  5
D8
330
A0
100
AcDbEntity
  8
DV1_デフォルト
  6
CONTINUOUS
 62
     7
100
AcDbCircle
 10
161.4586614545
 20
119.6814748871
 30
0.0
 40
1.251247771066602
100
AcDbArc
 50
89.9978606961
 51
91.3341421281
  0
LINE
  5
D9
330
A0
100
AcDbEntity
  8
DV1_デフォルト
  6
CONTINUOUS
 62
     7
100
AcDbLine
 10
161.4587081735
 20
121.3190929878
 30
0.0
 11
161.9295285667
 21
121.3190929878
 31
0.0
  0
LINE
  5
DA
330
A0
100
AcDbEntity
  8
DV1_デフォルト
  6
CONTINUOUS
 62
     7
100
AcDbLine
 10
161.4587081735
 20
121.3190929878
 30
0.0
 11
161.4295285667
 21
121.3187537912
 31
0.0
  0
LINE
  5
DB
330
A0
100
AcDbEntity
  8
DV1_デフォルト
  6
CONTINUOUS
 62
     7
100
AcDbLine
 10
161.9295285667
 20
121.8017167044
 30
0.0
 11
161.9295285667
 21
121.7738705652
 31
0.0
  0
LINE
  5
DC
330
A0
100
AcDbEntity
  8
DV1_デフォルト
  6
CONTINUOUS
 62
     7
100
AcDbLine
 10
162.3295285667
 20
121.7738705652
 30
0.0
 11
162.3295285667
 21
121.3190929878
 31
0.0
  0
LINE
  5
DD
330
A0
100
AcDbEntity
  8
DV1_デフォルト
  6
CONTINUOUS
 62
     7
100
AcDbLine
 10
162.3295285667
 20
121.7738705652
 30
0.0
 11
162.3295285667
 21
121.8017167044
 31
0.0
  0
LINE
  5
DE
330
A0
100
AcDbEntity
  8
DV1_デフォルト
  6
CONTINUOUS
 62
     7
100
AcDbLine
 10
162.8295285667
 20
121.3187537912
 30
0.0
 11
162.80034896
 21
121.3190929878
 31
0.0
  0
LINE
  5
DF
330
A0
100
AcDbEntity
  8
DV1_デフォルト
  6
CONTINUOUS
 62
     7
100
AcDbLine
 10
162.80034896
 20
120.9327226573
 30
0.0
 11
162.3295285667
 21
120.9327226573
 31
0.0
  0
LINE
  5
E0
330
A0
100
AcDbEntity
  8
DV1_デフォルト
  6
CONTINUOUS
 62
     7
100
AcDbLine
 10
162.80034896
 20
120.9327226573
 30
0.0
 11
162.8295285667
 21
120.9323834607
 31
0.0
  0
LINE
  5
E1
330
A0
100
AcDbEntity
  8
DV1_デフォルト
  6
CONTINUOUS
 62
     7
100
AcDbLine
 10
162.3295285667
 20
120.4494205476
 30
0.0
 11
162.3295285667
 21
120.4779450799
 31
0.0
  0
LINE
  5
E2
330
A0
100
AcDbEntity
  8
DV1_デフォルト
  6
CONTINUOUS
 62
     7
100
AcDbLine
 10
161.4295285667
 20
121.2414472743
 30
0.0
 11
161.9295285667
 21
121.2414472743
 31
0.0
  0
LINE
  5
E3
330
A0
100
AcDbEntity
  8
DV1_デフォルト
  6
CONTINUOUS
 62
     7
100
AcDbLine
 10
161.9295285667
 20
121.7244101874
 30
0.0
 11
162.3295285667
 21
121.7244101874
 31
0.0
  0
LINE
  5
E4
330
A0
100
AcDbEntity
  8
DV1_デフォルト
  6
CONTINUOUS
 62
     7
100
AcDbLine
 10
162.3295285667
 20
121.2414472743
 30
0.0
 11
162.8295285667
 21
121.2414472743
 31
0.0
  0
ARC
  5
E5
330
A0
100
AcDbEntity
  8
DV1_デフォルト
  6
CONTINUOUS
 62
     7
100
AcDbCircle
 10
162.1292834919
 20
121.0254643059
 30
0.0
 40
0.997356395566627
100
AcDbArc
 50
357.9921476235
 51
175.6841222716
  0
LINE
  5
E6
330
A0
100
AcDbEntity
  8
DV1_デフォルト
  6
CONTINUOUS
 62
     7
100
AcDbLine
 10
161.1295285667
 20
121.048262109
 30
0.0
 11
161.1295285667
 21
120.9964983
 31
0.0
  0
LINE
  5
E7
330
A0
100
AcDbEntity
  8
DV1_デフォルト
  6
CONTINUOUS
 62
     7
100
AcDbLine
 10
163.1295285667
 20
120.9964983
 30
0.0
 11
163.1295285667
 21
121.048262109
 31
0.0
  0
ELLIPSE
  5
E8
330
A0
100
AcDbEntity
  8
DV1_デフォルト
  6
CONTINUOUS
 62
     7
100
AcDbEllipse
 10
156.4795285667
 20
103.4051966768
 30
0.0
 11
1.000000000000001
 21
4.392304579072871E-17
 31
0.0
210
0.0
220
0.0
230
1.0
 40
0.1045284633
 41
0.0
 42
3.141592653589793
  0
ARC
  5
E9
330
A0
100
AcDbEntity
  8
DV1_デフォルト
  6
CONTINUOUS
 62
     7
100
AcDbCircle
 10
156.4795285667
 20
118.1800953821
 30
0.0
 40
15.34532958507789
100
AcDbArc
 50
269.2532268349
 51
270.7467731657
  0
LINE
  5
EA
330
A0
100
AcDbEntity
  8
DV1_デフォルト
  6
CONTINUOUS
 62
     7
100
AcDbLine
 10
156.2795285667
 20
102.9288414217
 30
0.0
 11
156.2795285667
 21
102.8870300364
 31
0.0
  0
LINE
  5
EB
330
A0
100
AcDbEntity
  8
DV1_デフォルト
  6
CONTINUOUS
 62
     7
100
AcDbLine
 10
156.2795285667
 20
102.8870300364
 30
0.0
 11
155.8087081735
 21
102.8870300364
 31
0.0
  0
LINE
  5
EC
330
A0
100
AcDbEntity
  8
DV1_デフォルト
  6
CONTINUOUS
 62
     7
100
AcDbLine
 10
155.7795285667
 20
102.9301447975
 30
0.0
 11
155.7795285667
 21
102.8883334122
 31
0.0
  0
LINE
  5
ED
330
A0
100
AcDbEntity
  8
DV1_デフォルト
  6
CONTINUOUS
 62
     7
100
AcDbLine
 10
156.2795285667
 20
102.9288414217
 30
0.0
 11
156.2795285667
 21
102.9606803057
 31
0.0
  0
ARC
  5
EE
330
A0
100
AcDbEntity
  8
DV1_デフォルト
  6
CONTINUOUS
 62
     7
100
AcDbCircle
 10
156.4795285667
 20
118.3264352201
 30
0.0
 40
15.34532957454815
100
AcDbArc
 50
269.2532268341
 51
270.7467731659
  0
LINE
  5
EF
330
A0
100
AcDbEntity
  8
DV1_デフォルト
  6
CONTINUOUS
 62
     7
100
AcDbLine
 10
156.6795285667
 20
102.9288414217
 30
0.0
 11
157.15034896
 21
102.9288414217
 31
0.0
  0
LINE
  5
F0
330
A0
100
AcDbEntity
  8
DV1_デフォルト
  6
CONTINUOUS
 62
     7
100
AcDbLine
 10
157.1795285667
 20
102.8883334122
 30
0.0
 11
157.1795285667
 21
102.9301447975
 31
0.0
  0
LINE
  5
F1
330
A0
100
AcDbEntity
  8
DV1_デフォルト
  6
CONTINUOUS
 62
     7
100
AcDbLine
 10
156.6795285667
 20
102.9288414217
 30
0.0
 11
156.6795285667
 21
102.8870300364
 31
0.0
  0
LINE
  5
F2
330
A0
100
AcDbEntity
  8
DV1_デフォルト
  6
CONTINUOUS
 62
     7
100
AcDbLine
 10
156.6795285667
 20
102.8870300364
 30
0.0
 11
156.6795285667
 21
102.8378159042
 31
0.0
  0
LINE
  5
F3
330
A0
100
AcDbEntity
  8
DV1_デフォルト
  6
CONTINUOUS
 62
     7
100
AcDbLine
 10
156.2795285667
 20
102.8378159042
 30
0.0
 11
156.2795285667
 21
102.8870300364
 31
0.0
  0
ARC
  5
F4
330
A0
100
AcDbEntity
  8
DV1_デフォルト
  6
CONTINUOUS
 62
     7
100
AcDbCircle
 10
155.8086817367
 20
103.2137222496
 30
0.0
 40
0.3266922142836807
100
AcDbArc
 50
264.8802621196
 51
270.0046365291
  0
LINE
  5
F5
330
A0
100
AcDbEntity
  8
DV1_デフォルト
  6
CONTINUOUS
 62
     7
100
AcDbLine
 10
155.8087081735
 20
102.9288414217
 30
0.0
 11
156.2795285667
 21
102.9288414217
 31
0.0
  0
LINE
  5
F6
330
A0
100
AcDbEntity
  8
DV1_デフォルト
  6
CONTINUOUS
 62
     7
100
AcDbLine
 10
155.8087081735
 20
102.9288414217
 30
0.0
 11
155.7795285667
 21
102.9301447975
 31
0.0
  0
LINE
  5
F7
330
A0
100
AcDbEntity
  8
DV1_デフォルト
  6
CONTINUOUS
 62
     7
100
AcDbLine
 10
156.2795285667
 20
102.9824090291
 30
0.0
 11
156.2795285667
 21
102.9780555539
 31
0.0
  0
LINE
  5
F8
330
A0
100
AcDbEntity
  8
DV1_デフォルト
  6
CONTINUOUS
 62
     7
100
AcDbLine
 10
156.6795285667
 20
102.9606803057
 30
0.0
 11
156.6795285667
 21
102.9288414217
 31
0.0
  0
LINE
  5
F9
330
A0
100
AcDbEntity
  8
DV1_デフォルト
  6
CONTINUOUS
 62
     7
100
AcDbLine
 10
156.6795285667
 20
102.9780555539
 30
0.0
 11
156.6795285667
 21
102.9824090291
 31
0.0
  0
LINE
  5
FA
330
A0
100
AcDbEntity
  8
DV1_デフォルト
  6
CONTINUOUS
 62
     7
100
AcDbLine
 10
157.1795285667
 20
102.9301447975
 30
0.0
 11
157.15034896
 21
102.9288414217
 31
0.0
  0
LINE
  5
FB
330
A0
100
AcDbEntity
  8
DV1_デフォルト
  6
CONTINUOUS
 62
     7
100
AcDbLine
 10
157.15034896
 20
102.8870300364
 30
0.0
 11
156.6795285667
 21
102.8870300364
 31
0.0
  0
LINE
  5
FC
330
A0
100
AcDbEntity
  8
DV1_デフォルト
  6
CONTINUOUS
 62
     7
100
AcDbLine
 10
157.15034896
 20
102.8870300364
 30
0.0
 11
157.1795285667
 21
102.8883334122
 31
0.0
  0
ARC
  5
FD
330
A0
100
AcDbEntity
  8
DV1_デフォルト
  6
CONTINUOUS
 62
     7
100
AcDbCircle
 10
156.4543499551
 20
107.5796827392
 30
0.0
 40
4.74662714658616
100
AcDbArc
 50
267.8910869975
 51
270.3039284323
  0
LINE
  5
FE
330
A0
100
AcDbEntity
  8
DV1_デフォルト
  6
CONTINUOUS
 62
     7
100
AcDbLine
 10
156.2707982316
 20
102.8366115625
 30
0.0
 11
156.2796780394
 21
102.8362705717
 31
0.0
  0
SPLINE
  5
FF
330
A0
100
AcDbEntity
  8
DV1_デフォルト
  6
CONTINUOUS
 62
     7
100
AcDbSpline
210
0.0
220
0.0
230
1.0
 70
     8
 71
     3
 72
    18
 73
    14
 74
     0
 42
0.0000000102487902
 43
0.0000000001
 40
0.0
 40
0.0
 40
0.0
 40
0.0
 40
0.0659839672208451
 40
0.1389174790941805
 40
0.2039269071807021
 40
0.2647956989784879
 40
0.3254888515106708
 40
0.3928529271653451
 40
0.4810542059401696
 40
0.6331037321188552
 40
0.7620772127759597
 40
0.8974553460271243
 40
1.0
 40
1.0
 40
1.0
 40
1.0
 10
155.4825900669152
 20
103.204743400234
 30
0.0
 10
155.4832117052686
 20
103.176202461014
 30
0.0
 10
155.485184598081
 20
103.124917392554
 30
0.0
 10
155.5187747888725
 20
103.049294146604
 30
0.0
 10
155.5649541776421
 20
102.9891405790872
 30
0.0
 10
155.6172941897561
 20
102.9459097707371
 30
0.0
 10
155.6701760247425
 20
102.9166938468481
 30
0.0
 10
155.7241074758847
 20
102.8962862853411
 30
0.0
 10
155.7943698074455
 20
102.8780243696452
 30
0.0
 10
155.8863374977448
 20
102.8629919136969
 30
0.0
 10
156.0113702098469
 20
102.8499241509409
 30
0.0
 10
156.1414854851336
 20
102.8409932220377
 30
0.0
 10
156.2271969587462
 20
102.8380418938805
 30
0.0
 10
156.2707982316041
 20
102.8366115624661
 30
0.0
  0
SPLINE
  5
100
330
A0
100
AcDbEntity
  8
DV1_デフォルト
  6
CONTINUOUS
 62
     7
100
AcDbSpline
210
0.0
220
0.0
230
1.0
 70
     8
 71
     3
 72
    18
 73
    14
 74
     0
 42
0.0000000101477588
 43
0.0000000001
 40
0.0
 40
0.0
 40
0.0
 40
0.0
 40
0.0269165920717735
 40
0.1544370953606989
 40
0.2836216097902357
 40
0.4167644365175341
 40
0.5613893050107346
 40
0.6577447777579887
 40
0.7278077121097679
 40
0.7948877433743874
 40
0.8667584119529377
 40
0.9430448355525431
 40
1.0
 40
1.0
 40
1.0
 40
1.0
 10
156.6795990444163
 20
102.8363339972756
 30
0.0
 10
156.6914278769862
 20
102.8365821626626
 30
0.0
 10
156.749631485704
 20
102.8378257425245
 30
0.0
 10
156.858379260907
 20
102.8436095731025
 30
0.0
 10
156.9888329027146
 20
102.8535614560566
 30
0.0
 10
157.1062833295696
 20
102.8677422441989
 30
0.0
 10
157.1948568397623
 20
102.8844977612814
 30
0.0
 10
157.268114451844
 20
102.9071435225037
 30
0.0
 10
157.3329059852966
 20
102.9395229327995
 30
0.0
 10
157.3927913314457
 20
102.9868873514172
 30
0.0
 10
157.4430638417626
 20
103.052964650765
 30
0.0
 10
157.4752453479163
 20
103.1308732780949
 30
0.0
 10
157.4764716599991
 20
103.1804499688899
 30
0.0
 10
157.4767038760323
 20
103.2052832412666
 30
0.0
  0
ARC
  5
101
330
A0
100
AcDbEntity
  8
DV1_デフォルト
  6
CONTINUOUS
 62
     7
100
AcDbCircle
 10
156.4843534099
 20
108.7659299864
 30
0.0
 40
5.932809574855711
100
AcDbArc
 50
269.9534043396
 51
271.8859144121
  0
LINE
  5
102
330
A0
100
AcDbEntity
  8
DV1_デフォルト
  6
CONTINUOUS
 62
     7
100
AcDbLine
 10
157.4795285667
 20
103.2062922977
 30
0.0
 11
157.4795285667
 21
103.4051966768
 31
0.0
  0
LINE
  5
103
330
A0
100
AcDbEntity
  8
DV1_デフォルト
  6
CONTINUOUS
 62
     7
100
AcDbLine
 10
155.4795285667
 20
103.4051966768
 30
0.0
 11
155.4795285667
 21
103.2062922977
 31
0.0
  0
ELLIPSE
  5
104
330
A0
100
AcDbEntity
  8
DV1_デフォルト
  6
CONTINUOUS
 62
     7
100
AcDbEllipse
 10
156.4795285667
 20
123.3527684704
 30
0.0
 11
1.000000000000001
 21
1.769143525059023E-15
 31
0.0
210
0.0
220
0.0
230
1.0
 40
0.8987940463
 41
3.123420456151063
 42
3.141592653589793
  0
ELLIPSE
  5
105
330
A0
100
AcDbEntity
  8
DV1_デフォルト
  6
CONTINUOUS
 62
     7
100
AcDbEllipse
 10
156.4795285667
 20
123.2650942411
 30
0.0
 11
0.9999999999999991
 21
1.667146536793797E-15
 31
0.0
210
0.0
220
0.0
230
1.0
 40
0.8987940463
 41
3.141592653589791
 42
6.283185307179584
  0
ARC
  5
106
330
A0
100
AcDbEntity
  8
DV1_デフォルト
  6
CONTINUOUS
 62
     7
100
AcDbCircle
 10
156.4795285668
 20
89.3010530929
 30
0.0
 40
34.81238255736515
100
AcDbArc
 50
89.6708292253
 51
90.329170775
  0
LINE
  5
107
330
A0
100
AcDbEntity
  8
DV1_デフォルト
  6
CONTINUOUS
 62
     7
100
AcDbLine
 10
156.6795285667
 20
123.5325272797
 30
0.0
 11
156.6795285667
 21
123.6640386237
 31
0.0
  0
LINE
  5
108
330
A0
100
AcDbEntity
  8
DV1_デフォルト
  6
CONTINUOUS
 62
     7
100
AcDbLine
 10
156.6795285667
 20
123.6640386237
 30
0.0
 11
157.15034896
 21
123.6640386237
 31
0.0
  0
LINE
  5
109
330
A0
100
AcDbEntity
  8
DV1_デフォルト
  6
CONTINUOUS
 62
     7
100
AcDbLine
 10
157.1795285667
 20
123.3039464957
 30
0.0
 11
157.1795285667
 21
123.6634641142
 31
0.0
  0
LINE
  5
10A
330
A0
100
AcDbEntity
  8
DV1_デフォルト
  6
CONTINUOUS
 62
     7
100
AcDbLine
 10
156.6795285667
 20
123.3045210052
 30
0.0
 11
156.6795285667
 21
122.8813504389
 31
0.0
  0
ARC
  5
10B
330
A0
100
AcDbEntity
  8
DV1_デフォルト
  6
CONTINUOUS
 62
     7
100
AcDbCircle
 10
156.4795285667
 20
88.042741452
 30
0.0
 40
34.81238253350465
100
AcDbArc
 50
89.6708292249
 51
90.3291707751
  0
LINE
  5
10C
330
A0
100
AcDbEntity
  8
DV1_デフォルト
  6
CONTINUOUS
 62
     7
100
AcDbLine
 10
156.2795285667
 20
123.3045210052
 30
0.0
 11
155.8087081735
 21
123.3045210052
 31
0.0
  0
LINE
  5
10D
330
A0
100
AcDbEntity
  8
DV1_デフォルト
  6
CONTINUOUS
 62
     7
100
AcDbLine
 10
155.7795285667
 20
123.6634641142
 30
0.0
 11
155.7795285667
 21
123.3039464957
 31
0.0
  0
LINE
  5
10E
330
A0
100
AcDbEntity
  8
DV1_デフォルト
  6
CONTINUOUS
 62
     7
100
AcDbLine
 10
156.2795285667
 20
123.5325272797
 30
0.0
 11
156.2795285667
 21
123.6640386237
 31
0.0
  0
LINE
  5
10F
330
A0
100
AcDbEntity
  8
DV1_デフォルト
  6
CONTINUOUS
 62
     7
100
AcDbLine
 10
156.2795285667
 20
123.6640386237
 30
0.0
 11
156.2795285667
 21
124.08720919
 31
0.0
  0
LINE
  5
110
330
A0
100
AcDbEntity
  8
DV1_デフォルト
  6
CONTINUOUS
 62
     7
100
AcDbLine
 10
156.6795285667
 20
124.08720919
 30
0.0
 11
156.6795285667
 21
123.6640386237
 31
0.0
  0
LINE
  5
111
330
A0
100
AcDbEntity
  8
DV1_デフォルト
  6
CONTINUOUS
 62
     7
100
AcDbLine
 10
156.6795285667
 20
124.08720919
 30
0.0
 11
156.6795285667
 21
124.1128611373
 31
0.0
  0
ARC
  5
112
330
A0
100
AcDbEntity
  8
DV1_デフォルト
  6
CONTINUOUS
 62
     7
100
AcDbCircle
 10
157.1503929255
 20
122.9249614944
 30
0.0
 40
0.7390771305750825
100
AcDbArc
 50
87.7407202949
 51
90.0034083529
  0
LINE
  5
113
330
A0
100
AcDbEntity
  8
DV1_デフォルト
  6
CONTINUOUS
 62
     7
100
AcDbLine
 10
157.15034896
 20
123.3045210052
 30
0.0
 11
156.6795285667
 21
123.3045210052
 31
0.0
  0
LINE
  5
114
330
A0
100
AcDbEntity
  8
DV1_デフォルト
  6
CONTINUOUS
 62
     7
100
AcDbLine
 10
157.15034896
 20
123.3045210052
 30
0.0
 11
157.1795285667
 21
123.3039464957
 31
0.0
  0
LINE
  5
115
330
A0
100
AcDbEntity
  8
DV1_デフォルト
  6
CONTINUOUS
 62
     7
100
AcDbLine
 10
156.6795285667
 20
122.8545494725
 30
0.0
 11
156.6795285667
 21
122.8813504389
 31
0.0
  0
LINE
  5
116
330
A0
100
AcDbEntity
  8
DV1_デフォルト
  6
CONTINUOUS
 62
     7
100
AcDbLine
 10
156.2795285667
 20
122.8813504389
 30
0.0
 11
156.2795285667
 21
123.3045210052
 31
0.0
  0
LINE
  5
117
330
A0
100
AcDbEntity
  8
DV1_デフォルト
  6
CONTINUOUS
 62
     7
100
AcDbLine
 10
156.2795285667
 20
122.8813504389
 30
0.0
 11
156.2795285667
 21
122.8545494725
 31
0.0
  0
LINE
  5
118
330
A0
100
AcDbEntity
  8
DV1_デフォルト
  6
CONTINUOUS
 62
     7
100
AcDbLine
 10
155.7795285667
 20
123.3039464957
 30
0.0
 11
155.8087081735
 21
123.3045210052
 31
0.0
  0
LINE
  5
119
330
A0
100
AcDbEntity
  8
DV1_デフォルト
  6
CONTINUOUS
 62
     7
100
AcDbLine
 10
155.8087081735
 20
123.6640386237
 30
0.0
 11
156.2795285667
 21
123.6640386237
 31
0.0
  0
LINE
  5
11A
330
A0
100
AcDbEntity
  8
DV1_デフォルト
  6
CONTINUOUS
 62
     7
100
AcDbLine
 10
155.8087081735
 20
123.6640386237
 30
0.0
 11
155.7795285667
 21
123.6634641142
 31
0.0
  0
LINE
  5
11B
330
A0
100
AcDbEntity
  8
DV1_デフォルト
  6
CONTINUOUS
 62
     7
100
AcDbLine
 10
156.2795285667
 20
124.1128611373
 30
0.0
 11
156.2795285667
 21
124.08720919
 31
0.0
  0
LINE
  5
11C
330
A0
100
AcDbEntity
  8
DV1_デフォルト
  6
CONTINUOUS
 62
     7
100
AcDbLine
 10
156.2795285667
 20
123.9819243028
 30
0.0
 11
156.6795285667
 21
123.9819243028
 31
0.0
  0
LINE
  5
11D
330
A0
100
AcDbEntity
  8
DV1_デフォルト
  6
CONTINUOUS
 62
     7
100
AcDbLine
 10
156.6795285667
 20
123.5325272797
 30
0.0
 11
157.1795285667
 21
123.5325272797
 31
0.0
  0
LINE
  5
11E
330
A0
100
AcDbEntity
  8
DV1_デフォルト
  6
CONTINUOUS
 62
     7
100
AcDbLine
 10
155.7795285667
 20
123.5325272797
 30
0.0
 11
156.2795285667
 21
123.5325272797
 31
0.0
  0
ARC
  5
11F
330
A0
100
AcDbEntity
  8
DV1_デフォルト
  6
CONTINUOUS
 62
     7
100
AcDbCircle
 10
156.5150465838
 20
123.3205407474
 30
0.0
 40
0.9620394328057518
100
AcDbArc
 50
1.7442551262
 51
92.1158125115
  0
ARC
  5
120
330
A0
100
AcDbEntity
  8
DV1_デフォルト
  6
CONTINUOUS
 62
     7
100
AcDbCircle
 10
156.4451793751
 20
123.3161707832
 30
0.0
 40
0.9663641796576157
100
AcDbArc
 50
87.9630056592
 51
176.8098034154
  0
LINE
  5
121
330
A0
100
AcDbEntity
  8
DV1_デフォルト
  6
CONTINUOUS
 62
     7
100
AcDbLine
 10
155.4795285667
 20
123.3527684704
 30
0.0
 11
155.4795285667
 21
123.2650942411
 31
0.0
  0
LINE
  5
122
330
A0
100
AcDbEntity
  8
DV1_デフォルト
  6
CONTINUOUS
 62
     7
100
AcDbLine
 10
157.4795285667
 20
123.2650942411
 30
0.0
 11
157.4795285667
 21
123.3527684704
 31
0.0
  0
ELLIPSE
  5
123
330
A0
100
AcDbEntity
  8
DV1_デフォルト
  6
CONTINUOUS
 62
     7
100
AcDbEllipse
 10
144.6295285667
 20
129.9285038362
 30
0.0
 11
-0.8500000000000001
 21
-2.037946936506520E-15
 31
0.0
210
0.0
220
0.0
230
1.0
 40
0.5
 41
0.4243897085931275
 42
2.717202944996583
  0
ELLIPSE
  5
124
330
A0
100
AcDbEntity
  8
DV1_デフォルト
  6
CONTINUOUS
 62
     7
100
AcDbEllipse
 10
144.6295285667
 20
129.9285038362
 30
0.0
 11
0.8500000000000001
 21
-3.568368451751533E-15
 31
0.0
210
0.0
220
0.0
230
1.0
 40
0.5
 41
0.4243897085932118
 42
2.717202944996667
  0
LINE
  5
125
330
A0
100
AcDbEntity
  8
DV1_デフォルト
  6
CONTINUOUS
 62
     7
100
AcDbLine
 10
143.8549318975
 20
130.1035038362
 30
0.0
 11
143.8549318975
 21
129.7934434337
 31
0.0
  0
LINE
  5
126
330
A0
100
AcDbEntity
  8
DV1_デフォルト
  6
CONTINUOUS
 62
     7
100
AcDbLine
 10
145.404125236
 20
129.7998589175
 30
0.0
 11
145.404125236
 21
130.1035038362
 31
0.0
  0
LINE
  5
127
330
A0
100
AcDbEntity
  8
DV1_デフォルト
  6
CONTINUOUS
 62
     7
100
AcDbLine
 10
145.404125236
 20
130.1035038362
 30
0.0
 11
143.8549318975
 21
130.1035038362
 31
0.0
  0
LINE
  5
128
330
A0
100
AcDbEntity
  8
DV1_デフォルト
  6
CONTINUOUS
 62
     7
100
AcDbLine
 10
143.8978993908
 20
129.7535038362
 30
0.0
 11
145.3673122494
 21
129.7535038362
 31
0.0
  0
LINE
  5
129
330
A0
100
AcDbEntity
  8
DV1_デフォルト
  6
CONTINUOUS
 62
     7
100
AcDbLine
 10
157.6795285667
 20
102.6392701466
 30
0.0
 11
157.6795285667
 21
131.7392701466
 31
0.0
  0
LINE
  5
12A
330
A0
100
AcDbEntity
  8
DV1_デフォルト
  6
CONTINUOUS
 62
     7
100
AcDbLine
 10
157.8795285667
 20
102.4392701466
 30
0.0
 11
157.8795285667
 21
131.9392701466
 31
0.0
  0
LINE
  5
12B
330
A0
100
AcDbEntity
  8
DV1_デフォルト
  6
CONTINUOUS
 62
     7
100
AcDbLine
 10
164.1795285667
 20
102.4392701466
 30
0.0
 11
164.1795285667
 21
131.9392701466
 31
0.0
  0
LINE
  5
12C
330
A0
100
AcDbEntity
  8
DV1_デフォルト
  6
CONTINUOUS
 62
     7
100
AcDbLine
 10
164.3795285667
 20
102.6392701466
 30
0.0
 11
164.3795285667
 21
131.7392701466
 31
0.0
  0
LINE
  5
12D
330
A0
100
AcDbEntity
  8
DV1_デフォルト
  6
CONTINUOUS
 62
     7
100
AcDbLine
 10
157.8795285667
 20
131.9392701466
 30
0.0
 11
157.6795285667
 21
131.7392701466
 31
0.0
  0
LINE
  5
12E
330
A0
100
AcDbEntity
  8
DV1_デフォルト
  6
CONTINUOUS
 62
     7
100
AcDbLine
 10
157.6795285667
 20
102.6392701466
 30
0.0
 11
157.8795285667
 21
102.4392701466
 31
0.0
  0
LINE
  5
12F
330
A0
100
AcDbEntity
  8
DV1_デフォルト
  6
CONTINUOUS
 62
     7
100
AcDbLine
 10
157.8795285667
 20
102.4392701466
 30
0.0
 11
164.1795285667
 21
102.4392701466
 31
0.0
  0
LINE
  5
130
330
A0
100
AcDbEntity
  8
DV1_デフォルト
  6
CONTINUOUS
 62
     7
100
AcDbLine
 10
164.1795285667
 20
131.9392701466
 30
0.0
 11
157.8795285667
 21
131.9392701466
 31
0.0
  0
LINE
  5
131
330
A0
100
AcDbEntity
  8
DV1_デフォルト
  6
CONTINUOUS
 62
     7
100
AcDbLine
 10
164.1795285667
 20
102.4392701466
 30
0.0
 11
164.3795285667
 21
102.6392701466
 31
0.0
  0
LINE
  5
132
330
A0
100
AcDbEntity
  8
DV1_デフォルト
  6
CONTINUOUS
 62
     7
100
AcDbLine
 10
164.3795285667
 20
131.7392701466
 30
0.0
 11
164.1795285667
 21
131.9392701466
 31
0.0
  0
LINE
  5
133
330
A0
100
AcDbEntity
  8
DV1_デフォルト
  6
CONTINUOUS
 62
     7
100
AcDbLine
 10
157.6795285667
 20
117.4392701466
 30
0.0
 11
154.5795285667
 21
117.4392701466
 31
0.0
  0
SPLINE
  5
134
330
A0
100
AcDbEntity
  8
DV1_デフォルト
  6
CONTINUOUS
 62
     7
100
AcDbSpline
210
0.0
220
0.0
230
1.0
 70
     8
 71
     3
 72
     8
 73
     4
 74
     0
 42
0.0000000835616593
 43
0.0000000001
 40
0.0
 40
0.0
 40
0.0
 40
0.0
 40
1.0
 40
1.0
 40
1.0
 40
1.0
 10
157.1915999129283
 20
123.4217522085403
 30
0.0
 10
157.2015502408471
 20
123.3830274183321
 30
0.0
 10
157.2074760639095
 20
123.3435236659572
 30
0.0
 10
157.2090278402945
 20
123.3038103251197
 30
0.0
  0
LINE
  5
135
330
A0
100
AcDbEntity
  8
DV1_デフォルト
  6
CONTINUOUS
 62
     7
100
AcDbLine
 10
154.5795285667
 20
103.2892701466
 30
0.0
 11
155.4795285667
 21
103.2892701466
 31
0.0
  0
LINE
  5
136
330
A0
100
AcDbEntity
  8
DV1_デフォルト
  6
CONTINUOUS
 62
     7
100
AcDbLine
 10
157.4795285667
 20
103.2892701466
 30
0.0
 11
157.6795285667
 21
103.2892701466
 31
0.0
  0
LINE
  5
137
330
A0
100
AcDbEntity
  8
DV1_デフォルト
  6
CONTINUOUS
 62
     7
100
AcDbLine
 10
157.6795285667
 20
131.0892701466
 30
0.0
 11
154.5795285667
 21
131.0892701466
 31
0.0
  0
ELLIPSE
  5
138
330
A0
100
AcDbEntity
  8
DV1_デフォルト
  6
CONTINUOUS
 62
     7
100
AcDbEllipse
 10
165.9295285668
 20
102.917880948
 30
0.0
 11
-0.8500000000000031
 21
-4.073448853096028E-17
 31
0.0
210
0.0
220
0.0
230
1.0
 40
0.1045284633
 41
0.8770346173497122
 42
2.266528915394618
  0
LINE
  5
139
330
A0
100
AcDbEntity
  8
DV1_デフォルト
  6
CONTINUOUS
 62
     7
100
AcDbLine
 10
173.1795285667
 20
105.1892701466
 30
0.0
 11
173.1795285667
 21
129.1892701466
 31
0.0
  0
LINE
  5
13A
330
A0
100
AcDbEntity
  8
DV1_デフォルト
  6
CONTINUOUS
 62
     7
100
AcDbLine
 10
172.4795285667
 20
104.4892701466
 30
0.0
 11
172.4795285667
 21
129.8892701466
 31
0.0
  0
LINE
  5
13B
330
A0
100
AcDbEntity
  8
DV1_デフォルト
  6
CONTINUOUS
 62
     7
100
AcDbLine
 10
170.9295285667
 20
104.4892701466
 30
0.0
 11
170.9295285667
 21
129.8892701466
 31
0.0
  0
LINE
  5
13C
330
A0
100
AcDbEntity
  8
DV1_デフォルト
  6
CONTINUOUS
 62
     7
100
AcDbLine
 10
170.2295285668
 20
105.1892701466
 30
0.0
 11
170.2295285668
 21
129.1892701466
 31
0.0
  0
LINE
  5
13D
330
A0
100
AcDbEntity
  8
DV1_デフォルト
  6
CONTINUOUS
 62
     7
100
AcDbLine
 10
169.1795285667
 20
103.1892701466
 30
0.0
 11
169.1795285667
 21
131.1892701466
 31
0.0
  0
LINE
  5
13E
330
A0
100
AcDbEntity
  8
DV1_デフォルト
  6
CONTINUOUS
 62
     7
100
AcDbLine
 10
168.6795285667
 20
102.6892701466
 30
0.0
 11
168.6795285667
 21
131.6892701466
 31
0.0
  0
SPLINE
  5
13F
330
A0
100
AcDbEntity
  8
DV1_デフォルト
  6
CONTINUOUS
 62
     7
100
AcDbSpline
210
0.0
220
0.0
230
1.0
 70
    11
 71
     3
 72
    62
 73
    58
 74
     0
 42
0.0000000028783173
 43
0.0000000001
 40
0.0
 40
0.0
 40
0.0
 40
0.0
 40
0.053641739172418
 40
0.053641739172418
 40
0.053641739172418
 40
0.1072795655100485
 40
0.1072795655100485
 40
0.1072795655100485
 40
0.1609760942245448
 40
0.1609760942245448
 40
0.1609760942245448
 40
0.2147130707548864
 40
0.2147130707548864
 40
0.2147130707548864
 40
0.2683866208705204
 40
0.2683866208705204
 40
0.2683866208705204
 40
0.3219918484275868
 40
0.3219918484275868
 40
0.3219918484275868
 40
0.3756304886488535
 40
0.3756304886488535
 40
0.3756304886488535
 40
0.4293520615309159
 40
0.4293520615309159
 40
0.4293520615309159
 40
0.4830767900776837
 40
0.4830767900776837
 40
0.4830767900776837
 40
0.5367200674764301
 40
0.5367200674764301
 40
0.5367200674764301
 40
0.590324435469818
 40
0.590324435469818
 40
0.590324435469818
 40
0.6439927892059921
 40
0.6439927892059921
 40
0.6439927892059921
 40
0.6977285876614594
 40
0.6977285876614594
 40
0.6977285876614594
 40
0.7514299528669235
 40
0.7514299528669235
 40
0.7514299528669235
 40
0.8050484982108506
 40
0.8050484982108506
 40
0.8050484982108506
 40
0.8586652141318317
 40
0.8586652141318317
 40
0.8586652141318317
 40
0.9123637927556548
 40
0.9123637927556548
 40
0.9123637927556548
 40
0.9661003080370095
 40
0.9661003080370095
 40
0.9661003080370095
 40
1.0
 40
1.0
 40
1.0
 40
1.0
 10
165.0795285667623
 20
102.7687026637209
 30
0.0
 10
165.0795285667623
 20
102.7786375027997
 30
0.0
 10
165.0959238529218
 20
102.78968972321
 30
0.0
 10
165.1273482256065
 20
102.8007933598098
 30
0.0
 10
165.1587712954405
 20
102.8118965360541
 30
0.0
 10
165.2060845919868
 20
102.8233435003548
 30
0.0
 10
165.2653733138082
 20
102.8338052638927
 30
0.0
 10
165.3247258713014
 20
102.844278291524
 30
0.0
 10
165.3977159987288
 20
102.8540316644921
 30
0.0
 10
165.4783190252327
 20
102.8618065830035
 30
0.0
 10
165.5589791343569
 20
102.8695870076695
 30
0.0
 10
165.6494932996161
 20
102.8755808553768
 30
0.0
 10
165.7423590816002
 20
102.878966263049
 30
0.0
 10
165.8351161569544
 20
102.8823477078379
 30
0.0
 10
165.9327810120863
 20
102.8832103543004
 30
0.0
 10
166.0272470237492
 20
102.881433375022
 30
0.0
 10
166.1215974501812
 20
102.8796585699919
 30
0.0
 10
166.2153567389814
 20
102.8752072826285
 30
0.0
 10
166.3007778387756
 20
102.868693969429
 30
0.0
 10
166.3862531954345
 20
102.8621765191726
 30
0.0
 10
166.4657351716652
 20
102.853432581849
 30
0.0
 10
166.5326753521587
 20
102.8436145550498
 30
0.0
 10
166.5997160848674
 20
102.8337817803915
 30
0.0
 10
166.6560263244089
 20
102.8226220638147
 30
0.0
 10
166.696943098767
 20
102.8114871549297
 30
0.0
 10
166.7378609950955
 20
102.8003519407168
 30
0.0
 10
166.7645118033942
 20
102.7889507812776
 30
0.0
 10
166.7746722369662
 20
102.7784689875051
 30
0.0
 10
166.7848175739328
 20
102.7680027678224
 30
0.0
 10
166.7788012151417
 20
102.7581689732504
 30
0.0
 10
166.7571250367322
 20
102.7497270941357
 30
0.0
 10
166.7354636182577
 20
102.74129096334
 30
0.0
 10
166.6975707008347
 20
102.7340025878132
 30
0.0
 10
166.646585557683
 20
102.7281388163217
 30
0.0
 10
166.5955400853474
 20
102.7222681064061
 30
0.0
 10
166.5299663976485
 20
102.7176438409305
 30
0.0
 10
166.4552750513908
 20
102.7141943778525
 30
0.0
 10
166.3804935180399
 20
102.7107407496728
 30
0.0
 10
166.2945054422015
 20
102.7083482465939
 30
0.0
 10
166.2044275710226
 20
102.7068311750096
 30
0.0
 10
166.1144084424304
 20
102.7053150927549
 30
0.0
 10
166.0178169818114
 20
102.7046179810326
 30
0.0
 10
165.9226731102542
 20
102.7046533807212
 30
0.0
 10
165.8276717405199
 20
102.7046887273899
 30
0.0
 10
165.7314944063668
 20
102.7054557279072
 30
0.0
 10
165.6421020008868
 20
102.7070482239205
 30
0.0
 10
165.5527099034118
 20
102.7086407144467
 30
0.0
 10
165.4676399875463
 20
102.7111163841097
 30
0.0
 10
165.3939020912803
 20
102.7146598362142
 30
0.0
 10
165.3200538837409
 20
102.7182085892934
 30
0.0
 10
165.2555351568911
 20
102.7229475310943
 30
0.0
 10
165.2056759666937
 20
102.7289375767125
 30
0.0
 10
165.1557837624407
 20
102.7349315886144
 30
0.0
 10
165.1191952352973
 20
102.7423637655894
 30
0.0
 10
165.0989569120281
 20
102.7509346433814
 30
0.0
 10
165.0860796140797
 20
102.7563881459041
 30
0.0
 10
165.0795285667623
 20
102.7623703268211
 30
0.0
 10
165.0795285667623
 20
102.7687026637209
 30
0.0
  0
LINE
  5
140
330
A0
100
AcDbEntity
  8
DV1_デフォルト
  6
CONTINUOUS
 62
     7
100
AcDbLine
 10
164.5795285667
 20
102.6892701466
 30
0.0
 11
164.5795285667
 21
131.6892701466
 31
0.0
  0
LINE
  5
141
330
A0
100
AcDbEntity
  8
DV1_デフォルト
  6
CONTINUOUS
 62
     7
100
AcDbLine
 10
172.4795285667
 20
104.4892701466
 30
0.0
 11
173.1795285667
 21
105.1892701466
 31
0.0
  0
LINE
  5
142
330
A0
100
AcDbEntity
  8
DV1_デフォルト
  6
CONTINUOUS
 62
     7
100
AcDbLine
 10
173.1795285667
 20
129.1892701466
 30
0.0
 11
172.4795285667
 21
129.8892701466
 31
0.0
  0
LINE
  5
143
330
A0
100
AcDbEntity
  8
DV1_デフォルト
  6
CONTINUOUS
 62
     7
100
AcDbLine
 10
170.9295285667
 20
104.4892701466
 30
0.0
 11
172.4795285667
 21
104.4892701466
 31
0.0
  0
LINE
  5
144
330
A0
100
AcDbEntity
  8
DV1_デフォルト
  6
CONTINUOUS
 62
     7
100
AcDbLine
 10
172.4795285667
 20
129.8892701466
 30
0.0
 11
170.9295285667
 21
129.8892701466
 31
0.0
  0
LINE
  5
145
330
A0
100
AcDbEntity
  8
DV1_デフォルト
  6
CONTINUOUS
 62
     7
100
AcDbLine
 10
170.9295285667
 20
129.8892701466
 30
0.0
 11
170.2295285668
 21
129.1892701466
 31
0.0
  0
LINE
  5
146
330
A0
100
AcDbEntity
  8
DV1_デフォルト
  6
CONTINUOUS
 62
     7
100
AcDbLine
 10
170.2295285668
 20
105.1892701466
 30
0.0
 11
170.9295285667
 21
104.4892701466
 31
0.0
  0
LINE
  5
147
330
A0
100
AcDbEntity
  8
DV1_デフォルト
  6
CONTINUOUS
 62
     7
100
AcDbLine
 10
169.1795285667
 20
105.1892701466
 30
0.0
 11
170.2295285668
 21
105.1892701466
 31
0.0
  0
LINE
  5
148
330
A0
100
AcDbEntity
  8
DV1_デフォルト
  6
CONTINUOUS
 62
     7
100
AcDbLine
 10
170.2295285668
 20
129.1892701466
 30
0.0
 11
169.1795285667
 21
129.1892701466
 31
0.0
  0
LINE
  5
149
330
A0
100
AcDbEntity
  8
DV1_デフォルト
  6
CONTINUOUS
 62
     7
100
AcDbLine
 10
168.6795285667
 20
102.6892701466
 30
0.0
 11
169.1795285667
 21
103.1892701466
 31
0.0
  0
LINE
  5
14A
330
A0
100
AcDbEntity
  8
DV1_デフォルト
  6
CONTINUOUS
 62
     7
100
AcDbLine
 10
169.1795285667
 20
131.1892701466
 30
0.0
 11
168.6795285667
 21
131.6892701466
 31
0.0
  0
LINE
  5
14B
330
A0
100
AcDbEntity
  8
DV1_デフォルト
  6
CONTINUOUS
 62
     7
100
AcDbLine
 10
164.5795285667
 20
102.6892701466
 30
0.0
 11
168.6795285667
 21
102.6892701466
 31
0.0
  0
LINE
  5
14C
330
A0
100
AcDbEntity
  8
DV1_デフォルト
  6
CONTINUOUS
 62
     7
100
AcDbLine
 10
168.6795285667
 20
131.6892701466
 30
0.0
 11
164.5795285667
 21
131.6892701466
 31
0.0
  0
LINE
  5
14D
330
A0
100
AcDbEntity
  8
DV1_デフォルト
  6
CONTINUOUS
 62
     7
100
AcDbLine
 10
164.5795285667
 20
131.6892701466
 30
0.0
 11
164.3795285667
 21
131.4892701466
 31
0.0
  0
LINE
  5
14E
330
A0
100
AcDbEntity
  8
DV1_デフォルト
  6
CONTINUOUS
 62
     7
100
AcDbLine
 10
164.3795285667
 20
102.8892701466
 30
0.0
 11
164.5795285667
 21
102.6892701466
 31
0.0
  0
CIRCLE
  5
14F
330
A0
100
AcDbEntity
  8
DV1_デフォルト
  6
CONTINUOUS
 62
     7
100
AcDbCircle
 10
165.929522268
 20
117.1649928602
 30
0.0
 40
0.8475751983288808
  0
LINE
  5
150
330
A0
100
AcDbEntity
  8
DV1_デフォルト
  6
CONTINUOUS
 62
     7
100
AcDbLine
 10
165.1549318975
 20
117.4991456024
 30
0.0
 11
166.704125236
 21
117.4991456024
 31
0.0
  0
LINE
  5
151
330
A0
100
AcDbEntity
  8
DV1_デフォルト
  6
CONTINUOUS
 62
     7
100
AcDbLine
 10
165.1549318975
 20
116.8029802757
 30
0.0
 11
166.704125236
 21
116.8029802757
 31
0.0
  0
LINE
  5
153
330
A0
100
AcDbEntity
  8
DV1_デフォルト
  6
CENTER2
 62
     7
100
AcDbLine
 10
136.1858333171
 20
117.1892701466
 30
0.0
 11
178.3308872316
 21
117.1892701466
 31
0.0
  0
LINE
  5
155
330
A0
100
AcDbEntity
  8
DV1_デフォルト
  6
DASHDOT2
 62
     7
100
AcDbLine
 10
170.2295285668
 20
129.1892701466
 30
0.0
 11
173.1795285667
 21
129.1892701466
 31
0.0
  0
LINE
  5
156
330
A0
100
AcDbEntity
  8
DV1_デフォルト
  6
DASHDOT2
 62
     7
100
AcDbLine
 10
170.2295285668
 20
105.1892701466
 30
0.0
 11
173.1795285667
 21
105.1892701466
 31
0.0
  0
LINE
  5
157
330
A0
100
AcDbEntity
  8
DV1_デフォルト
  6
DASHDOT2
 62
     7
100
AcDbLine
 10
136.9795285667
 20
130.6892701466
 30
0.0
 11
138.5758713104
 21
130.6892701466
 31
0.0
  0
LINE
  5
158
330
A0
100
AcDbEntity
  8
DV1_デフォルト
  6
DASHDOT2
 62
     7
100
AcDbLine
 10
136.9795285667
 20
103.6892701466
 30
0.0
 11
138.5758713104
 21
103.6892701466
 31
0.0
  0
LINE
  5
159
330
A0
100
AcDbEntity
  8
DV1_デフォルト
  6
CONTINUOUS
 62
     7
100
AcDbLine
 10
157.6795285667
 20
116.9392701466
 30
0.0
 11
154.5795285667
 21
116.9392701466
 31
0.0
  0
ENDBLK
  5
15B
330
A0
100
AcDbEntity
  8
0
100
AcDbBlockEnd
  0
ENDSEC
  0
SECTION
  2
ENTITIES
  0
INSERT
  5
3D
330
1F
100
AcDbEntity
  8
DEFAULT
100
AcDbBlockReference
  2
GDIMGGROUP
 10
0.0
 20
0.0
 30
0.0
  0
INSERT
  5
6D
330
1F
100
AcDbEntity
  8
DEFAULT
100
AcDbBlockReference
  2
GDIMGGROUP1
 10
0.0
 20
0.0
 30
0.0
  0
INSERT
  5
78
330
1F
100
AcDbEntity
  8
DEFAULT
100
AcDbBlockReference
  2
GDIMGGROUP2
 10
0.0
 20
0.0
 30
0.0
  0
INSERT
  5
82
330
1F
100
AcDbEntity
  8
DEFAULT
100
AcDbBlockReference
  2
GDIMGGROUP3
 10
0.0
 20
0.0
 30
0.0
  0
INSERT
  5
8C
330
1F
100
AcDbEntity
  8
DEFAULT
100
AcDbBlockReference
  2
GDIMGGROUP4
 10
0.0
 20
0.0
 30
0.0
  0
INSERT
  5
96
330
1F
100
AcDbEntity
  8
DEFAULT
100
AcDbBlockReference
  2
GDIMGGROUP5
 10
0.0
 20
0.0
 30
0.0
  0
INSERT
  5
A1
330
1F
100
AcDbEntity
  8
DEFAULT
100
AcDbBlockReference
  2
SE
 10
0.0
 20
0.0
 30
0.0
  0
ENDSEC
  0
SECTION
  2
OBJECTS
  0
DICTIONARY
  5
C
330
0
100
AcDbDictionary
  3
ACAD_GROUP
350
D
  3
ACAD_LAYOUT
350
1A
  3
ACAD_MLEADERSTYLE
350
15E
  3
ACAD_MLINESTYLE
350
17
  3
ACAD_PLOTSETTINGS
350
19
  3
ACAD_SCALELIST
350
43
  3
ACAD_VISUALSTYLE
350
2A
  3
ACDBVARIABLEDICTIONARY
350
15C
1001
ACAD
1000
TREAT_AS_HARD
1070
     0
  0
DICTIONARY
  5
D
102
{ACAD_REACTORS
330
C
102
}
330
C
100
AcDbDictionary
1001
ACAD
1000
TREAT_AS_HARD
1070
     0
  0
DICTIONARY
  5
1A
102
{ACAD_REACTORS
330
C
102
}
330
C
100
AcDbDictionary
1001
ACAD
1000
TREAT_AS_HARD
1070
     0
  0
DICTIONARY
  5
15E
102
{ACAD_REACTORS
330
C
102
}
330
C
100
AcDbDictionary
1001
ACAD
1000
TREAT_AS_HARD
1070
     0
  0
DICTIONARY
  5
17
102
{ACAD_REACTORS
330
C
102
}
330
C
100
AcDbDictionary
  3
STANDARD
350
18
1001
ACAD
1000
TREAT_AS_HARD
1070
     0
  0
DICTIONARY
  5
19
102
{ACAD_REACTORS
330
C
102
}
330
C
100
AcDbDictionary
1001
ACAD
1000
TREAT_AS_HARD
1070
     0
  0
DICTIONARY
  5
43
102
{ACAD_REACTORS
330
C
102
}
330
C
100
AcDbDictionary
  3
A0
350
44
  3
A1
350
45
  3
A2
350
46
  3
A3
350
47
  3
A4
350
48
  3
A5
350
49
  3
A6
350
4A
  3
A7
350
4B
  3
A8
350
4C
  3
A9
350
4D
  3
B0
350
4E
  3
B1
350
4F
  3
B2
350
50
  3
B3
350
51
  3
B4
350
52
  3
B5
350
53
  3
B6
350
54
  3
B7
350
55
  3
B8
350
56
  3
B9
350
57
  3
C0
350
58
  3
C1
350
59
  3
C2
350
5A
  3
C3
350
5B
  3
C4
350
5C
  3
C5
350
5D
  3
C6
350
5E
  3
C7
350
5F
  3
C8
350
60
  3
C9
350
61
  3
D0
350
62
  3
D1
350
63
  3
D2
350
64
1001
ACAD
1000
TREAT_AS_HARD
1070
     0
  0
DICTIONARY
  5
2A
102
{ACAD_REACTORS
330
C
102
}
330
C
100
AcDbDictionary
  3
2DWIREFRAME
350
2F
  3
3D_HIDDEN
350
31
  3
3DWIREFRAME
350
30
  3
BASIC
350
32
  3
BRIGHTEN
350
36
  3
COLORCHANGE
350
3A
  3
CONCEPTUAL
350
34
  3
DIM
350
35
  3
FACEPATTERN
350
39
  3
FLAT
350
2B
  3
FLATWITHEDGES
350
2C
  3
GOURAUD
350
2D
  3
GOURAUDWITHEDGES
350
2E
  3
LINEPATTERN
350
38
  3
REALISTIC
350
33
  3
THICKEN
350
37
1001
ACAD
1000
TREAT_AS_HARD
1070
     0
  0
DICTIONARY
  5
15C
102
{ACAD_REACTORS
330
C
102
}
330
C
100
AcDbDictionary
  3
CANNOSCALE
350
161
  3
PSOLHEIGHT
350
160
  3
PSOLWIDTH
350
15F
1001
ACAD
1000
TREAT_AS_HARD
1070
     0
  0
MLINESTYLE
  5
18
102
{ACAD_REACTORS
330
17
102
}
330
17
100
AcDbMlineStyle
  2
Standard
 70
     0
  3

 62
   256
 51
90.0
 52
90.0
 71
     2
 49
0.5
 62
   256
  6
BYLAYER
 49
-0.5
 62
   256
  6
BYLAYER
  0
ACAD_PROXY_OBJECT
  5
44
102
{ACAD_REACTORS
330
43
102
}
330
43
100
AcDbZombieObject
 90
      499
 91
      502
 93
       41
310
903313A31580
  0
ACAD_PROXY_OBJECT
  5
45
102
{ACAD_REACTORS
330
43
102
}
330
43
100
AcDbZombieObject
 90
      499
 91
      502
 93
      105
310
903313A324000000000000004000
  0
ACAD_PROXY_OBJECT
  5
46
102
{ACAD_REACTORS
330
43
102
}
330
43
100
AcDbZombieObject
 90
      499
 91
      502
 93
      105
310
903313A344000000000000104000
  0
ACAD_PROXY_OBJECT
  5
47
102
{ACAD_REACTORS
330
43
102
}
330
43
100
AcDbZombieObject
 90
      499
 91
      502
 93
      105
310
903313A354000000000000144000
  0
ACAD_PROXY_OBJECT
  5
48
102
{ACAD_REACTORS
330
43
102
}
330
43
100
AcDbZombieObject
 90
      499
 91
      502
 93
      105
310
903313A384000000000000204000
  0
ACAD_PROXY_OBJECT
  5
49
102
{ACAD_REACTORS
330
43
102
}
330
43
100
AcDbZombieObject
 90
      499
 91
      502
 93
      113
310
904313A31304000000000000244000
  0
ACAD_PROXY_OBJECT
  5
4A
102
{ACAD_REACTORS
330
43
102
}
330
43
100
AcDbZombieObject
 90
      499
 91
      502
 93
      113
310
904313A31364000000000000304000
  0
ACAD_PROXY_OBJECT
  5
4B
102
{ACAD_REACTORS
330
43
102
}
330
43
100
AcDbZombieObject
 90
      499
 91
      502
 93
      113
310
904313A32304000000000000344000
  0
ACAD_PROXY_OBJECT
  5
4C
102
{ACAD_REACTORS
330
43
102
}
330
43
100
AcDbZombieObject
 90
      499
 91
      502
 93
      113
310
904313A333040000000000003E4000
  0
ACAD_PROXY_OBJECT
  5
4D
102
{ACAD_REACTORS
330
43
102
}
330
43
100
AcDbZombieObject
 90
      499
 91
      502
 93
      113
310
904313A34304000000000000444000
  0
ACAD_PROXY_OBJECT
  5
4E
102
{ACAD_REACTORS
330
43
102
}
330
43
100
AcDbZombieObject
 90
      499
 91
      502
 93
      113
310
904313A35304000000000000494000
  0
ACAD_PROXY_OBJECT
  5
4F
102
{ACAD_REACTORS
330
43
102
}
330
43
100
AcDbZombieObject
 90
      499
 91
      502
 93
      121
310
905313A3130304000000000000594000
  0
ACAD_PROXY_OBJECT
  5
50
102
{ACAD_REACTORS
330
43
102
}
330
43
100
AcDbZombieObject
 90
      499
 91
      502
 93
      105
310
903323A310000000000000010100
  0
ACAD_PROXY_OBJECT
  5
51
102
{ACAD_REACTORS
330
43
102
}
330
43
100
AcDbZombieObject
 90
      499
 91
      502
 93
      105
310
903343A310000000000000410100
  0
ACAD_PROXY_OBJECT
  5
52
102
{ACAD_REACTORS
330
43
102
}
330
43
100
AcDbZombieObject
 90
      499
 91
      502
 93
      105
310
903383A310000000000000810100
  0
ACAD_PROXY_OBJECT
  5
53
102
{ACAD_REACTORS
330
43
102
}
330
43
100
AcDbZombieObject
 90
      499
 91
      502
 93
      113
310
90431303A310000000000000910100
  0
ACAD_PROXY_OBJECT
  5
54
102
{ACAD_REACTORS
330
43
102
}
330
43
100
AcDbZombieObject
 90
      499
 91
      502
 93
      121
310
9053130303A310000000000001650100
  0
ACAD_PROXY_OBJECT
  5
55
102
{ACAD_REACTORS
330
43
102
}
330
43
100
AcDbZombieObject
 90
      499
 91
      502
 93
      257
310
90E312F31323822203D2031272D3022000000000000200FC000000000000284000
  0
ACAD_PROXY_OBJECT
  5
56
102
{ACAD_REACTORS
330
43
102
}
330
43
100
AcDbZombieObject
 90
      499
 91
      502
 93
      249
310
90D312F363422203D2031272D3022000000000000240FC000000000000284000
  0
ACAD_PROXY_OBJECT
  5
57
102
{ACAD_REACTORS
330
43
102
}
330
43
100
AcDbZombieObject
 90
      499
 91
      502
 93
      249
310
90D312F333222203D2031272D3022000000000000280FC000000000000284000
  0
ACAD_PROXY_OBJECT
  5
58
102
{ACAD_REACTORS
330
43
102
}
330
43
100
AcDbZombieObject
 90
      499
 91
      502
 93
      249
310
90D312F313622203D2031272D30220000000000002C0FC000000000000284000
  0
ACAD_PROXY_OBJECT
  5
59
102
{ACAD_REACTORS
330
43
102
}
330
43
100
AcDbZombieObject
 90
      499
 91
      502
 93
      249
310
90D332F333222203D2031272D30220000000000002E0FC000000000000284000
  0
ACAD_PROXY_OBJECT
  5
5A
102
{ACAD_REACTORS
330
43
102
}
330
43
100
AcDbZombieObject
 90
      499
 91
      502
 93
      241
310
90C312F3822203D2031272D3022000000000000300FC000000000000284000
  0
ACAD_PROXY_OBJECT
  5
5B
102
{ACAD_REACTORS
330
43
102
}
330
43
100
AcDbZombieObject
 90
      499
 91
      502
 93
      249
310
90D332F313622203D2031272D3022000000000000320FC000000000000284000
  0
ACAD_PROXY_OBJECT
  5
5C
102
{ACAD_REACTORS
330
43
102
}
330
43
100
AcDbZombieObject
 90
      499
 91
      502
 93
      241
310
90C312F3422203D2031272D3022000000000000340FC000000000000284000
  0
ACAD_PROXY_OBJECT
  5
5D
102
{ACAD_REACTORS
330
43
102
}
330
43
100
AcDbZombieObject
 90
      499
 91
      502
 93
      241
310
90C332F3822203D2031272D3022000000000000360FC000000000000284000
  0
ACAD_PROXY_OBJECT
  5
5E
102
{ACAD_REACTORS
330
43
102
}
330
43
100
AcDbZombieObject
 90
      499
 91
      502
 93
      241
310
90C312F3222203D2031272D3022000000000000380FC000000000000284000
  0
ACAD_PROXY_OBJECT
  5
5F
102
{ACAD_REACTORS
330
43
102
}
330
43
100
AcDbZombieObject
 90
      499
 91
      502
 93
      241
310
90C332F3422203D2031272D30220000000000003A0FC000000000000284000
  0
ACAD_PROXY_OBJECT
  5
60
102
{ACAD_REACTORS
330
43
102
}
330
43
100
AcDbZombieObject
 90
      499
 91
      502
 93
      161
310
90A3122203D2031272D30224000000000000284000
  0
ACAD_PROXY_OBJECT
  5
61
102
{ACAD_REACTORS
330
43
102
}
330
43
100
AcDbZombieObject
 90
      499
 91
      502
 93
      257
310
90E312D312F3222203D2031272D30220000000000003E0FC000000000000284000
  0
ACAD_PROXY_OBJECT
  5
62
102
{ACAD_REACTORS
330
43
102
}
330
43
100
AcDbZombieObject
 90
      499
 91
      502
 93
      225
310
90A3322203D2031272D302200000000000002100000000000000284000
  0
ACAD_PROXY_OBJECT
  5
63
102
{ACAD_REACTORS
330
43
102
}
330
43
100
AcDbZombieObject
 90
      499
 91
      502
 93
      225
310
90A3622203D2031272D302200000000000006100000000000000284000
  0
ACAD_PROXY_OBJECT
  5
64
102
{ACAD_REACTORS
330
43
102
}
330
43
100
AcDbZombieObject
 90
      499
 91
      502
 93
      249
310
90D31272D3022203D2031272D30220000000000000A100000000000000284000
  0
ACAD_PROXY_OBJECT
  5
2F
102
{ACAD_REACTORS
330
2A
102
}
330
2A
100
AcDbZombieObject
 90
      499
 91
      501
 93
      436
310
42CC9915DA5C99599C985B595049028333333333333E3BF0000000000000FB0107901411070040501600405405064090741402480A0340
1001
ACAD
1000
AcDbSavedByObjectVersion
1070
     0
  0
ACAD_PROXY_OBJECT
  5
31
102
{ACAD_REACTORS
330
2A
102
}
330
2A
100
AcDbZombieObject
 90
      499
 91
      501
 93
      500
310
424CD108121A5919195B90640502408333333333333E3BF0000000000000FB01079024090700405020000000000001110200405405064090740C02480A0340
1001
ACAD
1000
AcDbSavedByObjectVersion
1070
     0
  0
ACAD_PROXY_OBJECT
  5
30
102
{ACAD_REACTORS
330
2A
102
}
330
2A
100
AcDbZombieObject
 90
      499
 91
      501
 93
      436
310
42CCD915DA5C99599C985B595059028333333333333E3BF0000000000000FB0107901411070040501600405405064090741402480A0340
1001
ACAD
1000
AcDbSavedByObjectVersion
1070
     0
  0
ACAD_PROXY_OBJECT
  5
32
102
{ACAD_REACTORS
330
2A
102
}
330
2A
100
AcDbZombieObject
 90
      499
 91
      501
 93
      388
310
4150985CDA58D07406404333333333333E3BF0000000000000FB0107A41107004050150841D405064090741402480A0350
1001
ACAD
1000
AcDbSavedByObjectVersion
1070
     0
  0
ACAD_PROXY_OBJECT
  5
36
102
{ACAD_REACTORS
330
2A
102
}
330
2A
100
AcDbZombieObject
 90
      499
 91
      501
 93
      428
310
42109C9A59DA1D195B90C409028333333333333E3BF0000000000000FB010790141107004050150841D405064090741402480A029950
1001
ACAD
1000
AcDbSavedByObjectVersion
1070
     0
  0
ACAD_PROXY_OBJECT
  5
3A
102
{ACAD_REACTORS
330
2A
102
}
330
2A
100
AcDbZombieObject
 90
      499
 91
      501
 93
      452
310
42D0DBDB1BDC90DA185B99D95104090240C333333333333E3BF0000000000000FB0108901411070040501508421405064090741402480A0350
1001
ACAD
1000
AcDbSavedByObjectVersion
1070
     0
  0
ACAD_PROXY_OBJECT
  5
34
102
{ACAD_REACTORS
330
2A
102
}
330
2A
100
AcDbZombieObject
 90
      499
 91
      501
 93
      500
310
4290DBDB98D95C1D1D585B10940D028333333333333E3BF0000000000000FB0107902409070040501000000000000111010841D405064090740C02480A0340
1001
ACAD
1000
AcDbSavedByObjectVersion
1070
     0
  0
ACAD_PROXY_OBJECT
  5
35
102
{ACAD_REACTORS
330
2A
102
}
330
2A
100
AcDbZombieObject
 90
      499
 91
      501
 93
      412
310
40D11A5B50B409028333333333333E3BF0000000000000FB010790141107004050150841D405064090741402480A02677FFFFFD0
1001
ACAD
1000
AcDbSavedByObjectVersion
1070
     0
  0
ACAD_PROXY_OBJECT
  5
39
102
{ACAD_REACTORS
330
2A
102
}
330
2A
100
AcDbZombieObject
 90
      499
 91
      501
 93
      444
310
42D19858D95C185D1D195C9B90F409028333333333333E3BF0000000000000FB010790141107004050150841D405064090741402480A0350
1001
ACAD
1000
AcDbSavedByObjectVersion
1070
     0
  0
ACAD_PROXY_OBJECT
  5
2B
102
{ACAD_REACTORS
330
2A
102
}
330
2A
100
AcDbZombieObject
 90
      499
 91
      501
 93
      388
310
41119B185D240901404333333333333E3BF0000000000000F9010740A41107004050150841D405064090741402480A1B50
1001
ACAD
1000
AcDbSavedByObjectVersion
1070
     0
  0
ACAD_PROXY_OBJECT
  5
2C
102
{ACAD_REACTORS
330
2A
102
}
330
2A
100
AcDbZombieObject
 90
      499
 91
      501
 93
      476
310
43519B185D15DA5D1A115919D95CD0140901404333333333333E3BF0000000000000F9010740901411070040501600405405064090741402480A1B50
1001
ACAD
1000
AcDbSavedByObjectVersion
1070
     0
  0
ACAD_PROXY_OBJECT
  5
2D
102
{ACAD_REACTORS
330
2A
102
}
330
2A
100
AcDbZombieObject
 90
      499
 91
      501
 93
      412
310
41D1DBDD5C985D5910240902404333333333333E3BF0000000000000F9010740A411070040501641D405064090741402480A1B50
1001
ACAD
1000
AcDbSavedByObjectVersion
1070
     0
  0
ACAD_PROXY_OBJECT
  5
2E
102
{ACAD_REACTORS
330
2A
102
}
330
2A
100
AcDbZombieObject
 90
      499
 91
      501
 93
      500
310
4411DBDD5C985D5915DA5D1A115919D95CD0340902404333333333333E3BF0000000000000F9010740901411070040501600405405064090741402480A1B50
1001
ACAD
1000
AcDbSavedByObjectVersion
1070
     0
  0
ACAD_PROXY_OBJECT
  5
38
102
{ACAD_REACTORS
330
2A
102
}
330
2A
100
AcDbZombieObject
 90
      499
 91
      501
 93
      444
310
42D31A5B995C185D1D195C9B90E409028333333333333E3BF0000000000000FB010790141107004050750841D405064090741402483A0350
1001
ACAD
1000
AcDbSavedByObjectVersion
1070
     0
  0
ACAD_PROXY_OBJECT
  5
33
102
{ACAD_REACTORS
330
2A
102
}
330
2A
100
AcDbZombieObject
 90
      499
 91
      501
 93
      420
310
425499585B1A5CDD1A58D08409028333333333333E3BF0000000000000FB01079019070040501508421405064090741402480A1B40
1001
ACAD
1000
AcDbSavedByObjectVersion
1070
     0
  0
ACAD_PROXY_OBJECT
  5
37
102
{ACAD_REACTORS
330
2A
102
}
330
2A
100
AcDbZombieObject
 90
      499
 91
      501
 93
      412
310
41D51A1A58DAD95B90D409028333333333333E3BF0000000000000FB010790141107004050150C41D405064090741402480A0350
1001
ACAD
1000
AcDbSavedByObjectVersion
1070
     0
  0
DICTIONARYVAR
  5
161
102
{ACAD_REACTORS
330
15C
102
}
330
15C
100
DictionaryVariables
280
     0
  1
1:1
  0
DICTIONARYVAR
  5
160
102
{ACAD_REACTORS
330
15C
102
}
330
15C
100
DictionaryVariables
280
     0
  1
80.000000
  0
DICTIONARYVAR
  5
15F
102
{ACAD_REACTORS
330
15C
102
}
330
15C
100
DictionaryVariables
280
     0
  1
5.000000
  0
ENDSEC
  0
EOF
