  0
SECTION
  2
HEADER
  9
$ACADVER
  1
AC1012
  9
$DWGCODEPAGE
  3
ansi_932
  9
$INSBASE
 10
0.0
 20
0.0
 30
0.0
  9
$EXTMIN
 10
0.0
 20
0.0
 30
0.0
  9
$EXTMAX
 10
297.0
 20
210.0
 30
0.0
  9
$LIMMIN
 10
0.0
 20
0.0
  9
$LIMMAX
 10
297.0
 20
210.0
  9
$ORTHOMODE
 70
     0
  9
$REGENMODE
 70
     1
  9
$FILLMODE
 70
     1
  9
$QTEXTMODE
 70
     0
  9
$MIRRTEXT
 70
     1
  9
$DRAGMODE
 70
     2
  9
$LTSCALE
 40
1.0
  9
$OSMODE
 70
    37
  9
$ATTMODE
 70
     1
  9
$TEXTSIZE
 40
2.5
  9
$TRACEWID
 40
1.0
  9
$TEXTSTYLE
  7
STANDARD
  9
$CLAYER
  8
0
  9
$CELTYPE
  6
BYLAYER
  9
$CECOLOR
 62
   256
  9
$CELTSCALE
 40
1.0
  9
$DELOBJ
 70
     1
  9
$DISPSILH
 70
     0
  9
$DIMSCALE
 40
1.0
  9
$DIMASZ
 40
2.5
  9
$DIMEXO
 40
0.625
  9
$DIMDLI
 40
3.75
  9
$DIMRND
 40
0.0
  9
$DIMDLE
 40
0.0
  9
$DIMEXE
 40
1.25
  9
$DIMTP
 40
0.0
  9
$DIMTM
 40
0.0
  9
$DIMTXT
 40
2.5
  9
$DIMCEN
 40
2.5
  9
$DIMTSZ
 40
0.0
  9
$DIMTOL
 70
     0
  9
$DIMLIM
 70
     0
  9
$DIMTIH
 70
     0
  9
$DIMTOH
 70
     0
  9
$DIMSE1
 70
     0
  9
$DIMSE2
 70
     0
  9
$DIMTAD
 70
     1
  9
$DIMZIN
 70
     8
  9
$DIMBLK
  1

  9
$DIMASO
 70
     1
  9
$DIMSHO
 70
     1
  9
$DIMPOST
  1

  9
$DIMAPOST
  1

  9
$DIMALT
 70
     0
  9
$DIMALTD
 70
     3
  9
$DIMALTF
 40
0.0393700787
  9
$DIMLFAC
 40
1.0
  9
$DIMTOFL
 70
     1
  9
$DIMTVP
 40
0.0
  9
$DIMTIX
 70
     0
  9
$DIMSOXD
 70
     0
  9
$DIMSAH
 70
     0
  9
$DIMBLK1
  1

  9
$DIMBLK2
  1

  9
$DIMSTYLE
  2
ISO-25
  9
$DIMCLRD
 70
     0
  9
$DIMCLRE
 70
     0
  9
$DIMCLRT
 70
     0
  9
$DIMTFAC
 40
1.0
  9
$DIMGAP
 40
0.625
  9
$DIMJUST
 70
     0
  9
$DIMSD1
 70
     0
  9
$DIMSD2
 70
     0
  9
$DIMTOLJ
 70
     0
  9
$DIMTZIN
 70
     8
  9
$DIMALTZ
 70
     0
  9
$DIMALTTZ
 70
     0
  9
$DIMFIT
 70
     3
  9
$DIMUPT
 70
     0
  9
$DIMUNIT
 70
     2
  9
$DIMDEC
 70
     2
  9
$DIMTDEC
 70
     2
  9
$DIMALTU
 70
     2
  9
$DIMALTTD
 70
     3
  9
$DIMTXSTY
  7
STANDARD
  9
$DIMAUNIT
 70
     0
  9
$LUNITS
 70
     2
  9
$LUPREC
 70
     4
  9
$SKETCHINC
 40
1.0
  9
$FILLETRAD
 40
10.0
  9
$AUNITS
 70
     0
  9
$AUPREC
 70
     0
  9
$MENU
  1
.
  9
$ELEVATION
 40
0.0
  9
$PELEVATION
 40
0.0
  9
$THICKNESS
 40
0.0
  9
$LIMCHECK
 70
     0
  9
$CHAMFERA
 40
10.0
  9
$CHAMFERB
 40
10.0
  9
$CHAMFERC
 40
20.0
  9
$CHAMFERD
 40
0.0
  9
$SKPOLY
 70
     0
  9
$TDCREATE
 40
2456542.649387951
  9
$TDUPDATE
 40
2456542.649387963
  9
$TDINDWG
 40
0.0000000116
  9
$TDUSRTIMER
 40
0.0000000116
  9
$USRTIMER
 70
     1
  9
$ANGBASE
 50
0.0
  9
$ANGDIR
 70
     0
  9
$PDMODE
 70
     0
  9
$PDSIZE
 40
0.0
  9
$PLINEWID
 40
0.0
  9
$COORDS
 70
     1
  9
$SPLFRAME
 70
     0
  9
$SPLINETYPE
 70
     6
  9
$SPLINESEGS
 70
     8
  9
$ATTDIA
 70
     0
  9
$ATTREQ
 70
     1
  9
$HANDLING
 70
     1
  9
$HANDSEED
  5
188
  9
$SURFTAB1
 70
     6
  9
$SURFTAB2
 70
     6
  9
$SURFTYPE
 70
     6
  9
$SURFU
 70
     6
  9
$SURFV
 70
     6
  9
$UCSNAME
  2

  9
$UCSORG
 10
0.0
 20
0.0
 30
0.0
  9
$UCSXDIR
 10
1.0
 20
0.0
 30
0.0
  9
$UCSYDIR
 10
0.0
 20
1.0
 30
0.0
  9
$PUCSNAME
  2

  9
$PUCSORG
 10
0.0
 20
0.0
 30
0.0
  9
$PUCSXDIR
 10
1.0
 20
0.0
 30
0.0
  9
$PUCSYDIR
 10
0.0
 20
1.0
 30
0.0
  9
$USERI1
 70
     0
  9
$USERI2
 70
     0
  9
$USERI3
 70
     0
  9
$USERI4
 70
     0
  9
$USERI5
 70
     0
  9
$USERR1
 40
0.0
  9
$USERR2
 40
0.0
  9
$USERR3
 40
0.0
  9
$USERR4
 40
0.0
  9
$USERR5
 40
0.0
  9
$WORLDVIEW
 70
     1
  9
$SHADEDGE
 70
     3
  9
$SHADEDIF
 70
    70
  9
$TILEMODE
 70
     1
  9
$MAXACTVP
 70
    64
  9
$PINSBASE
 10
0.0
 20
0.0
 30
0.0
  9
$PLIMCHECK
 70
     0
  9
$PEXTMIN
 10
0.0
 20
0.0
 30
0.0
  9
$PEXTMAX
 10
297.0
 20
210.0
 30
0.0
  9
$PLIMMIN
 10
0.0
 20
0.0
  9
$PLIMMAX
 10
297.0
 20
210.0
  9
$UNITMODE
 70
     0
  9
$VISRETAIN
 70
     1
  9
$PLINEGEN
 70
     0
  9
$PSLTSCALE
 70
     1
  9
$TREEDEPTH
 70
  3020
  9
$PICKSTYLE
 70
     1
  9
$CMLSTYLE
  2
STANDARD
  9
$CMLJUST
 70
     0
  9
$CMLSCALE
 40
20.0
  9
$SAVEIMAGES
 70
     1
  0
ENDSEC
  0
SECTION
  2
CLASSES
  0
CLASS
  1
ACDBDICTIONARYWDFLT
  2
AcDbDictionaryWithDefault
  3
ObjectDBX Classes
 90
    32768
280
     0
281
     0
  0
CLASS
  1
VISUALSTYLE
  2
AcDbVisualStyle
  3
ObjectDBX Classes
 90
     4095
280
     0
281
     0
  0
CLASS
  1
SCALE
  2
AcDbScale
  3
ObjectDBX Classes
 90
     1153
280
     0
281
     0
  0
CLASS
  1
DICTIONARYVAR
  2
AcDbDictionaryVar
  3
ObjectDBX Classes
 90
        0
280
     0
281
     0
  0
CLASS
  1
XRECORD
  2
AcDbXrecord
  3
AutoCAD 2000
 90
    32768
280
     0
281
     0
  0
CLASS
  1
LWPOLYLINE
  2
AcDbPolyline
  3
AutoCAD 2000
 90
    32768
280
     0
281
     1
  0
CLASS
  1
HATCH
  2
AcDbHatch
  3
AutoCAD 2000
 90
    32768
280
     0
281
     1
  0
CLASS
  1
ACDBPLACEHOLDER
  2
AcDbPlaceHolder
  3
ObjectDBX Classes
 90
        0
280
     0
281
     0
  0
CLASS
  1
LAYOUT
  2
AcDbLayout
  3
ObjectDBX Classes
 90
        0
280
     0
281
     0
  0
ENDSEC
  0
SECTION
  2
TABLES
  0
TABLE
  2
VPORT
  5
8
330
0
100
AcDbSymbolTable
 70
     1
  0
VPORT
  5
29
330
8
100
AcDbSymbolTableRecord
100
AcDbViewportTableRecord
  2
*ACTIVE
 70
     0
 10
0.0
 20
0.0
 11
1.0
 21
1.0
 12
344.1869158879
 22
148.5
 13
0.0
 23
0.0
 14
10.0
 24
10.0
 15
10.0
 25
10.0
 16
0.0
 26
0.0
 36
1.0
 17
0.0
 27
0.0
 37
0.0
 40
297.0
 41
1.9729729729
 42
50.0
 43
0.0
 44
0.0
 50
0.0
 51
0.0
 71
     0
 72
   100
 73
     1
 74
     3
 75
     0
 76
     0
 77
     0
 78
     0
  0
ENDTAB
  0
TABLE
  2
LTYPE
  5
5
330
0
100
AcDbSymbolTable
 70
     2
  0
LTYPE
  5
14
330
5
100
AcDbSymbolTableRecord
100
AcDbLinetypeTableRecord
  2
BYBLOCK
 70
     0
  3

 72
    65
 73
     0
 40
0.0
  0
LTYPE
  5
15
330
5
100
AcDbSymbolTableRecord
100
AcDbLinetypeTableRecord
  2
BYLAYER
 70
     0
  3

 72
    65
 73
     0
 40
0.0
  0
LTYPE
  5
16
330
5
100
AcDbSymbolTableRecord
100
AcDbLinetypeTableRecord
  2
CONTINUOUS
 70
     0
  3
Solid line
 72
    65
 73
     0
 40
0.0
  0
LTYPE
  5
152
330
5
100
AcDbSymbolTableRecord
100
AcDbLinetypeTableRecord
  2
CENTER2
 70
     0
  3
Center (.5x) ___ _ ___ _ ___ _ ___ _ ___ _ ___
 72
    65
 73
     4
 40
28.575
 49
19.05
 74
     4
 75
     0
340
0
 46
0.0
 50
0.0
 44
0.0
 45
0.0
 49
-3.175
 74
     4
 75
     0
340
0
 46
0.0
 50
0.0
 44
0.0
 45
0.0
 49
3.175
 74
     4
 75
     0
340
0
 46
0.0
 50
0.0
 44
0.0
 45
0.0
 49
-3.175
 74
     4
 75
     0
340
0
 46
0.0
 50
0.0
 44
0.0
 45
0.0
  0
ENDTAB
  0
TABLE
  2
LAYER
  5
2
330
0
100
AcDbSymbolTable
 70
     3
  0
LAYER
  5
10
330
2
100
AcDbSymbolTableRecord
100
AcDbLayerTableRecord
  2
0
 70
     0
 62
     7
  6
CONTINUOUS
  0
LAYER
  5
3B
330
2
100
AcDbSymbolTableRecord
100
AcDbLayerTableRecord
  2
DEFAULT
 70
     0
 62
     7
  6
CONTINUOUS
  0
LAYER
  5
96
330
2
100
AcDbSymbolTableRecord
100
AcDbLayerTableRecord
  2
DV1_デフォルト
 70
     0
 62
     7
  6
CONTINUOUS
  0
ENDTAB
  0
TABLE
  2
STYLE
  5
3
330
0
100
AcDbSymbolTable
 70
     3
  0
STYLE
  5
11
330
3
100
AcDbSymbolTableRecord
100
AcDbTextStyleTableRecord
  2
STANDARD
 70
     0
 40
0.0
 41
1.0
 50
0.0
 71
     0
 42
2.5
  3
txt
  4

  0
STYLE
  5
65
330
3
100
AcDbSymbolTableRecord
100
AcDbTextStyleTableRecord
  2
SEACAD_SEANSI_TTF
 70
     0
 40
0.0
 41
1.0
 50
0.0
 71
     0
 42
0.2
  3
seansi.ttf
  4

  0
STYLE
  5
84
330
3
100
AcDbSymbolTableRecord
100
AcDbTextStyleTableRecord
  2
SEACAD_SEMECA1_TTF
 70
     0
 40
0.0
 41
1.0
 50
0.0
 71
     0
 42
0.2
  3
semeca1.ttf
  4

  0
ENDTAB
  0
TABLE
  2
VIEW
  5
6
330
0
100
AcDbSymbolTable
 70
     0
  0
ENDTAB
  0
TABLE
  2
UCS
  5
7
330
0
100
AcDbSymbolTable
 70
     0
  0
ENDTAB
  0
TABLE
  2
APPID
  5
9
330
0
100
AcDbSymbolTable
 70
     1
  0
APPID
  5
12
330
9
100
AcDbSymbolTableRecord
100
AcDbRegAppTableRecord
  2
ACAD
 70
     0
  0
ENDTAB
  0
TABLE
  2
DIMSTYLE
  5
A
330
0
100
AcDbSymbolTable
 70
     1
  0
DIMSTYLE
105
27
330
A
100
AcDbSymbolTableRecord
100
AcDbDimStyleTableRecord
  2
ISO-25
 70
     0
  3

  4

  5

  6

  7

 40
1.0
 41
2.5
 42
0.625
 43
3.75
 44
1.25
 45
0.0
 46
0.0
 47
0.0
 48
0.0
140
2.5
141
2.5
142
0.0
143
0.0393700787
144
1.0
145
0.0
146
1.0
147
0.625
 71
     0
 72
     0
 73
     0
 74
     0
 75
     0
 76
     0
 77
     1
 78
     8
170
     0
171
     3
172
     1
173
     0
174
     0
175
     0
176
     0
177
     0
178
     0
270
     2
271
     2
272
     2
273
     2
274
     3
340
11
275
     0
280
     0
281
     0
282
     0
283
     0
284
     8
285
     0
286
     0
287
     3
288
     0
  0
ENDTAB
  0
TABLE
  2
BLOCK_RECORD
  5
1
330
0
100
AcDbSymbolTable
 70
     7
  0
BLOCK_RECORD
  5
1F
330
1
100
AcDbSymbolTableRecord
100
AcDbBlockTableRecord
  2
*MODEL_SPACE
  0
BLOCK_RECORD
  5
1B
330
1
100
AcDbSymbolTableRecord
100
AcDbBlockTableRecord
  2
*PAPER_SPACE
  0
BLOCK_RECORD
  5
3C
330
1
100
AcDbSymbolTableRecord
100
AcDbBlockTableRecord
  2
GDIMGGROUP
  0
BLOCK_RECORD
  5
69
330
1
100
AcDbSymbolTableRecord
100
AcDbBlockTableRecord
  2
GDIMGGROUP1
  0
BLOCK_RECORD
  5
73
330
1
100
AcDbSymbolTableRecord
100
AcDbBlockTableRecord
  2
GDIMGGROUP2
  0
BLOCK_RECORD
  5
7D
330
1
100
AcDbSymbolTableRecord
100
AcDbBlockTableRecord
  2
GDIMGGROUP3
  0
BLOCK_RECORD
  5
89
330
1
100
AcDbSymbolTableRecord
100
AcDbBlockTableRecord
  2
GDIMGGROUP4
  0
BLOCK_RECORD
  5
94
330
1
100
AcDbSymbolTableRecord
100
AcDbBlockTableRecord
  2
SE
  0
ENDTAB
  0
ENDSEC
  0
SECTION
  2
BLOCKS
  0
BLOCK
  5
20
330
1F
100
AcDbEntity
  8
0
100
AcDbBlockBegin
  2
*MODEL_SPACE
 70
     0
 10
0.0
 20
0.0
 30
0.0
  3
*MODEL_SPACE
  1

  0
ENDBLK
  5
21
330
1F
100
AcDbEntity
  8
0
100
AcDbBlockEnd
  0
BLOCK
  5
1C
330
1B
100
AcDbEntity
 67
     1
  8
0
100
AcDbBlockBegin
  2
*PAPER_SPACE
 70
     0
 10
0.0
 20
0.0
 30
0.0
  3
*PAPER_SPACE
  1

  0
ENDBLK
  5
1D
330
1B
100
AcDbEntity
 67
     1
  8
0
100
AcDbBlockEnd
  0
BLOCK
  5
67
330
3C
100
AcDbEntity
  8
0
100
AcDbBlockBegin
  2
GDIMGGROUP
 70
     0
 10
0.0
 20
0.0
 30
0.0
  3
GDIMGGROUP
  1

  0
POLYLINE
  5
3E
330
3C
100
AcDbEntity
  8
DEFAULT
  6
CONTINUOUS
 62
   136
100
AcDb2dPolyline
 66
     1
 10
0.0
 20
0.0
 30
0.0
  0
VERTEX
  5
160
330
3E
100
AcDbEntity
  8
DEFAULT
  6
CONTINUOUS
 62
   136
100
AcDbVertex
100
AcDb2dVertex
 10
167.040088377
 20
96.280203827
 30
0.0
  0
VERTEX
  5
161
330
3E
100
AcDbEntity
  8
DEFAULT
  6
CONTINUOUS
 62
   136
100
AcDbVertex
100
AcDb2dVertex
 10
170.2400882962
 20
95.7468705072
 30
0.0
  0
VERTEX
  5
162
330
3E
100
AcDbEntity
  8
DEFAULT
  6
CONTINUOUS
 62
   136
100
AcDbVertex
100
AcDb2dVertex
 10
167.040088377
 20
95.2135371873
 30
0.0
  0
SEQEND
  5
163
330
3E
100
AcDbEntity
  8
DEFAULT
  6
CONTINUOUS
 62
   136
  0
POLYLINE
  5
3F
330
3C
100
AcDbEntity
  8
DEFAULT
  6
CONTINUOUS
 62
   136
100
AcDb2dPolyline
 66
     1
 10
0.0
 20
0.0
 30
0.0
  0
VERTEX
  5
164
330
3F
100
AcDbEntity
  8
DEFAULT
  6
CONTINUOUS
 62
   136
100
AcDbVertex
100
AcDb2dVertex
 10
127.740089479
 20
96.280203827
 30
0.0
  0
VERTEX
  5
165
330
3F
100
AcDbEntity
  8
DEFAULT
  6
CONTINUOUS
 62
   136
100
AcDbVertex
100
AcDb2dVertex
 10
124.5400895598
 20
95.7468705072
 30
0.0
  0
VERTEX
  5
166
330
3F
100
AcDbEntity
  8
DEFAULT
  6
CONTINUOUS
 62
   136
100
AcDbVertex
100
AcDb2dVertex
 10
127.740089479
 20
95.2135371873
 30
0.0
  0
SEQEND
  5
167
330
3F
100
AcDbEntity
  8
DEFAULT
  6
CONTINUOUS
 62
   136
  0
LINE
  5
40
330
3C
100
AcDbEntity
  8
DEFAULT
  6
CONTINUOUS
 62
   136
100
AcDbLine
 10
170.2400882962
 20
107.9058571538
 30
0.0
 11
170.2400882962
 21
94.1468705476
 31
0.0
  0
LINE
  5
41
330
3C
100
AcDbEntity
  8
DEFAULT
  6
CONTINUOUS
 62
   136
100
AcDbLine
 10
124.5400882962
 20
107.8558571538
 30
0.0
 11
124.5400882962
 21
94.1468705476
 31
0.0
  0
LINE
  5
42
330
3C
100
AcDbEntity
  8
DEFAULT
  6
CONTINUOUS
 62
   136
100
AcDbLine
 10
170.2400882962
 20
95.7468705072
 30
0.0
 11
124.5400895598
 21
95.7468705072
 31
0.0
  0
TEXT
  5
66
330
3C
100
AcDbEntity
  8
DEFAULT
  6
CONTINUOUS
 62
   136
100
AcDbText
 10
143.390088928
 20
96.5468705072
 30
0.0
 40
3.2
  1
45.7
  7
SEACAD_SEANSI_TTF
 11
143.390088928
 21
99.7468705072
 31
0.0
100
AcDbText
 73
     3
  0
ENDBLK
  5
68
330
3C
100
AcDbEntity
  8
0
100
AcDbBlockEnd
  0
BLOCK
  5
71
330
69
100
AcDbEntity
  8
0
100
AcDbBlockBegin
  2
GDIMGGROUP1
 70
     0
 10
0.0
 20
0.0
 30
0.0
  3
GDIMGGROUP1
  1

  0
POLYLINE
  5
6B
330
69
100
AcDbEntity
  8
DEFAULT
  6
CONTINUOUS
 62
   136
100
AcDb2dPolyline
 66
     1
 10
0.0
 20
0.0
 30
0.0
  0
VERTEX
  5
168
330
6B
100
AcDbEntity
  8
DEFAULT
  6
CONTINUOUS
 62
   136
100
AcDbVertex
100
AcDb2dVertex
 10
167.040088377
 20
104.4272754084
 30
0.0
  0
VERTEX
  5
169
330
6B
100
AcDbEntity
  8
DEFAULT
  6
CONTINUOUS
 62
   136
100
AcDbVertex
100
AcDb2dVertex
 10
170.2400882962
 20
103.8939420885
 30
0.0
  0
VERTEX
  5
16A
330
6B
100
AcDbEntity
  8
DEFAULT
  6
CONTINUOUS
 62
   136
100
AcDbVertex
100
AcDb2dVertex
 10
167.040088377
 20
103.3606087686
 30
0.0
  0
SEQEND
  5
16B
330
6B
100
AcDbEntity
  8
DEFAULT
  6
CONTINUOUS
 62
   136
  0
POLYLINE
  5
6C
330
69
100
AcDbEntity
  8
DEFAULT
  6
CONTINUOUS
 62
   136
100
AcDb2dPolyline
 66
     1
 10
0.0
 20
0.0
 30
0.0
  0
VERTEX
  5
16C
330
6C
100
AcDbEntity
  8
DEFAULT
  6
CONTINUOUS
 62
   136
100
AcDbVertex
100
AcDb2dVertex
 10
177.4400882154
 20
104.4272754084
 30
0.0
  0
VERTEX
  5
16D
330
6C
100
AcDbEntity
  8
DEFAULT
  6
CONTINUOUS
 62
   136
100
AcDbVertex
100
AcDb2dVertex
 10
174.2400882962
 20
103.8939420885
 30
0.0
  0
VERTEX
  5
16E
330
6C
100
AcDbEntity
  8
DEFAULT
  6
CONTINUOUS
 62
   136
100
AcDbVertex
100
AcDb2dVertex
 10
177.4400882154
 20
103.3606087686
 30
0.0
  0
SEQEND
  5
16F
330
6C
100
AcDbEntity
  8
DEFAULT
  6
CONTINUOUS
 62
   136
  0
LINE
  5
6D
330
69
100
AcDbEntity
  8
DEFAULT
  6
CONTINUOUS
 62
   136
100
AcDbLine
 10
170.2400882962
 20
108.6345539673
 30
0.0
 11
170.2400882962
 21
102.2939421289
 31
0.0
  0
LINE
  5
6E
330
69
100
AcDbEntity
  8
DEFAULT
  6
CONTINUOUS
 62
   136
100
AcDbLine
 10
174.2400882962
 20
110.5979891588
 30
0.0
 11
174.2400882962
 21
102.2939421289
 31
0.0
  0
LINE
  5
6F
330
69
100
AcDbEntity
  8
DEFAULT
  6
CONTINUOUS
 62
   136
100
AcDbLine
 10
163.8400884579
 20
103.8939420885
 30
0.0
 11
180.6400883245
 21
103.8939420885
 31
0.0
  0
TEXT
  5
70
330
69
100
AcDbEntity
  8
DEFAULT
  6
CONTINUOUS
 62
   136
100
AcDbText
 10
171.0693566839
 20
104.6939420885
 30
0.0
 40
3.2
  1
4
  7
SEACAD_SEANSI_TTF
 11
171.0693566839
 21
107.8939420885
 31
0.0
100
AcDbText
 73
     3
  0
ENDBLK
  5
72
330
69
100
AcDbEntity
  8
0
100
AcDbBlockEnd
  0
BLOCK
  5
7B
330
73
100
AcDbEntity
  8
0
100
AcDbBlockBegin
  2
GDIMGGROUP2
 70
     0
 10
0.0
 20
0.0
 30
0.0
  3
GDIMGGROUP2
  1

  0
POLYLINE
  5
75
330
73
100
AcDbEntity
  8
DEFAULT
  6
CONTINUOUS
 62
   136
100
AcDb2dPolyline
 66
     1
 10
0.0
 20
0.0
 30
0.0
  0
VERTEX
  5
170
330
75
100
AcDbEntity
  8
DEFAULT
  6
CONTINUOUS
 62
   136
100
AcDbVertex
100
AcDb2dVertex
 10
173.4400882154
 20
96.280203827
 30
0.0
  0
VERTEX
  5
171
330
75
100
AcDbEntity
  8
DEFAULT
  6
CONTINUOUS
 62
   136
100
AcDbVertex
100
AcDb2dVertex
 10
170.2400882962
 20
95.7468705072
 30
0.0
  0
VERTEX
  5
172
330
75
100
AcDbEntity
  8
DEFAULT
  6
CONTINUOUS
 62
   136
100
AcDbVertex
100
AcDb2dVertex
 10
173.4400882154
 20
95.2135371873
 30
0.0
  0
SEQEND
  5
173
330
75
100
AcDbEntity
  8
DEFAULT
  6
CONTINUOUS
 62
   136
  0
POLYLINE
  5
76
330
73
100
AcDbEntity
  8
DEFAULT
  6
CONTINUOUS
 62
   136
100
AcDb2dPolyline
 66
     1
 10
0.0
 20
0.0
 30
0.0
  0
VERTEX
  5
174
330
76
100
AcDbEntity
  8
DEFAULT
  6
CONTINUOUS
 62
   136
100
AcDbVertex
100
AcDb2dVertex
 10
175.0230995706
 20
96.280203827
 30
0.0
  0
VERTEX
  5
175
330
76
100
AcDbEntity
  8
DEFAULT
  6
CONTINUOUS
 62
   136
100
AcDbVertex
100
AcDb2dVertex
 10
178.2230994898
 20
95.7468705072
 30
0.0
  0
VERTEX
  5
176
330
76
100
AcDbEntity
  8
DEFAULT
  6
CONTINUOUS
 62
   136
100
AcDbVertex
100
AcDb2dVertex
 10
175.0230995706
 20
95.2135371873
 30
0.0
  0
SEQEND
  5
177
330
76
100
AcDbEntity
  8
DEFAULT
  6
CONTINUOUS
 62
   136
  0
LINE
  5
77
330
73
100
AcDbEntity
  8
DEFAULT
  6
CONTINUOUS
 62
   136
100
AcDbLine
 10
170.2400882962
 20
108.6345539673
 30
0.0
 11
170.2400882962
 21
94.1468705476
 31
0.0
  0
LINE
  5
78
330
73
100
AcDbEntity
  8
DEFAULT
  6
CONTINUOUS
 62
   136
100
AcDbLine
 10
178.2230998927
 20
112.2558571538
 30
0.0
 11
178.2230998927
 21
94.1468705476
 31
0.0
  0
LINE
  5
79
330
73
100
AcDbEntity
  8
DEFAULT
  6
CONTINUOUS
 62
   136
100
AcDbLine
 10
170.2400882962
 20
95.7468705072
 30
0.0
 11
178.2230994898
 21
95.7468705072
 31
0.0
  0
TEXT
  5
7A
330
73
100
AcDbEntity
  8
DEFAULT
  6
CONTINUOUS
 62
   136
100
AcDbText
 10
173.0608621857
 20
96.5468705072
 30
0.0
 40
3.2
  1
8
  7
SEACAD_SEANSI_TTF
 11
173.0608621857
 21
99.7468705072
 31
0.0
100
AcDbText
 73
     3
  0
ENDBLK
  5
7C
330
73
100
AcDbEntity
  8
0
100
AcDbBlockEnd
  0
BLOCK
  5
87
330
7D
100
AcDbEntity
  8
0
100
AcDbBlockBegin
  2
GDIMGGROUP3
 70
     0
 10
0.0
 20
0.0
 30
0.0
  3
GDIMGGROUP3
  1

  0
POLYLINE
  5
7F
330
7D
100
AcDbEntity
  8
DEFAULT
  6
CONTINUOUS
 62
   136
100
AcDb2dPolyline
 66
     1
 10
0.0
 20
0.0
 30
0.0
  0
VERTEX
  5
178
330
7F
100
AcDbEntity
  8
DEFAULT
  6
CONTINUOUS
 62
   136
100
AcDbVertex
100
AcDb2dVertex
 10
116.4673804499
 20
134.7358572024
 30
0.0
  0
VERTEX
  5
179
330
7F
100
AcDbEntity
  8
DEFAULT
  6
CONTINUOUS
 62
   136
100
AcDbVertex
100
AcDb2dVertex
 10
115.93404713
 20
137.9358571215
 30
0.0
  0
VERTEX
  5
17A
330
7F
100
AcDbEntity
  8
DEFAULT
  6
CONTINUOUS
 62
   136
100
AcDbVertex
100
AcDb2dVertex
 10
115.4007138102
 20
134.7358572024
 30
0.0
  0
SEQEND
  5
17B
330
7F
100
AcDbEntity
  8
DEFAULT
  6
CONTINUOUS
 62
   136
  0
POLYLINE
  5
80
330
7D
100
AcDbEntity
  8
DEFAULT
  6
CONTINUOUS
 62
   136
100
AcDb2dPolyline
 66
     1
 10
0.0
 20
0.0
 30
0.0
  0
VERTEX
  5
17C
330
80
100
AcDbEntity
  8
DEFAULT
  6
CONTINUOUS
 62
   136
100
AcDbVertex
100
AcDb2dVertex
 10
116.4673804499
 20
111.6358568619
 30
0.0
  0
VERTEX
  5
17D
330
80
100
AcDbEntity
  8
DEFAULT
  6
CONTINUOUS
 62
   136
100
AcDbVertex
100
AcDb2dVertex
 10
115.93404713
 20
108.4358569427
 30
0.0
  0
VERTEX
  5
17E
330
80
100
AcDbEntity
  8
DEFAULT
  6
CONTINUOUS
 62
   136
100
AcDbVertex
100
AcDb2dVertex
 10
115.4007138102
 20
111.6358568619
 30
0.0
  0
SEQEND
  5
17F
330
80
100
AcDbEntity
  8
DEFAULT
  6
CONTINUOUS
 62
   136
  0
LINE
  5
81
330
7D
100
AcDbEntity
  8
DEFAULT
  6
CONTINUOUS
 62
   136
100
AcDbLine
 10
127.4600883285
 20
137.9358571215
 30
0.0
 11
114.3340471704
 21
137.9358571215
 31
0.0
  0
LINE
  5
82
330
7D
100
AcDbEntity
  8
DEFAULT
  6
CONTINUOUS
 62
   136
100
AcDbLine
 10
127.4600883285
 20
108.4358571215
 30
0.0
 11
114.3340471704
 21
108.4358571215
 31
0.0
  0
LINE
  5
83
330
7D
100
AcDbEntity
  8
DEFAULT
  6
CONTINUOUS
 62
   136
100
AcDbLine
 10
115.93404713
 20
137.9358571215
 30
0.0
 11
115.93404713
 21
108.4358569427
 31
0.0
  0
TEXT
  5
85
330
7D
100
AcDbEntity
  8
DEFAULT
  6
CONTINUOUS
 62
   136
100
AcDbText
 10
115.13404713
 20
117.2012956286
 30
0.0
 40
3.2
  1
O
 50
90.0
  7
SEACAD_SEMECA1_TTF
 11
111.93404713
 21
117.2012956286
 31
0.0
100
AcDbText
 73
     3
  0
TEXT
  5
86
330
7D
100
AcDbEntity
  8
DEFAULT
  6
CONTINUOUS
 62
   136
100
AcDbText
 10
115.13404713
 20
121.1704184356
 30
0.0
 40
3.2
  1
29.5
 50
90.0
  7
SEACAD_SEANSI_TTF
 11
111.93404713
 21
121.1704184356
 31
0.0
100
AcDbText
 73
     3
  0
ENDBLK
  5
88
330
7D
100
AcDbEntity
  8
0
100
AcDbBlockEnd
  0
BLOCK
  5
92
330
89
100
AcDbEntity
  8
0
100
AcDbBlockBegin
  2
GDIMGGROUP4
 70
     0
 10
0.0
 20
0.0
 30
0.0
  3
GDIMGGROUP4
  1

  0
POLYLINE
  5
8B
330
89
100
AcDbEntity
  8
DEFAULT
  6
CONTINUOUS
 62
   136
100
AcDb2dPolyline
 66
     1
 10
0.0
 20
0.0
 30
0.0
  0
VERTEX
  5
180
330
8B
100
AcDbEntity
  8
DEFAULT
  6
CONTINUOUS
 62
   136
100
AcDbVertex
100
AcDb2dVertex
 10
189.0600227763
 20
129.8358572024
 30
0.0
  0
VERTEX
  5
181
330
8B
100
AcDbEntity
  8
DEFAULT
  6
CONTINUOUS
 62
   136
100
AcDbVertex
100
AcDb2dVertex
 10
189.5933560961
 20
133.0358571215
 30
0.0
  0
VERTEX
  5
182
330
8B
100
AcDbEntity
  8
DEFAULT
  6
CONTINUOUS
 62
   136
100
AcDbVertex
100
AcDb2dVertex
 10
190.126689416
 20
129.8358572024
 30
0.0
  0
SEQEND
  5
183
330
8B
100
AcDbEntity
  8
DEFAULT
  6
CONTINUOUS
 62
   136
  0
POLYLINE
  5
8C
330
89
100
AcDbEntity
  8
DEFAULT
  6
CONTINUOUS
 62
   136
100
AcDb2dPolyline
 66
     1
 10
0.0
 20
0.0
 30
0.0
  0
VERTEX
  5
184
330
8C
100
AcDbEntity
  8
DEFAULT
  6
CONTINUOUS
 62
   136
100
AcDbVertex
100
AcDb2dVertex
 10
189.0600227763
 20
116.5358569781
 30
0.0
  0
VERTEX
  5
185
330
8C
100
AcDbEntity
  8
DEFAULT
  6
CONTINUOUS
 62
   136
100
AcDbVertex
100
AcDb2dVertex
 10
189.5933560961
 20
113.3358570589
 30
0.0
  0
VERTEX
  5
186
330
8C
100
AcDbEntity
  8
DEFAULT
  6
CONTINUOUS
 62
   136
100
AcDbVertex
100
AcDb2dVertex
 10
190.126689416
 20
116.5358569781
 30
0.0
  0
SEQEND
  5
187
330
8C
100
AcDbEntity
  8
DEFAULT
  6
CONTINUOUS
 62
   136
  0
LINE
  5
8D
330
89
100
AcDbEntity
  8
DEFAULT
  6
CONTINUOUS
 62
   136
100
AcDbLine
 10
179.3030998604
 20
133.0358571215
 30
0.0
 11
191.1933560557
 21
133.0358571215
 31
0.0
  0
LINE
  5
8E
330
89
100
AcDbEntity
  8
DEFAULT
  6
CONTINUOUS
 62
   136
100
AcDbLine
 10
179.3030998604
 20
113.3358571215
 30
0.0
 11
191.1933560557
 21
113.3358571215
 31
0.0
  0
LINE
  5
8F
330
89
100
AcDbEntity
  8
DEFAULT
  6
CONTINUOUS
 62
   136
100
AcDbLine
 10
189.5933560961
 20
133.0358571215
 30
0.0
 11
189.5933560961
 21
113.3358570589
 31
0.0
  0
TEXT
  5
90
330
89
100
AcDbEntity
  8
DEFAULT
  6
CONTINUOUS
 62
   136
100
AcDbText
 10
188.7933560961
 20
117.2012956867
 30
0.0
 40
3.2
  1
O
 50
90.0
  7
SEACAD_SEMECA1_TTF
 11
185.5933560961
 21
117.2012956867
 31
0.0
100
AcDbText
 73
     3
  0
TEXT
  5
91
330
89
100
AcDbEntity
  8
DEFAULT
  6
CONTINUOUS
 62
   136
100
AcDbText
 10
188.7933560961
 20
121.1704184937
 30
0.0
 40
3.2
  1
19.7
 50
90.0
  7
SEACAD_SEANSI_TTF
 11
185.5933560961
 21
121.1704184937
 31
0.0
100
AcDbText
 73
     3
  0
ENDBLK
  5
93
330
89
100
AcDbEntity
  8
0
100
AcDbBlockEnd
  0
BLOCK
  5
158
330
94
100
AcDbEntity
  8
0
100
AcDbBlockBegin
  2
SE
 70
     0
 10
0.0
 20
0.0
 30
0.0
  3
SE
  1

  0
ELLIPSE
  5
97
330
94
100
AcDbEntity
  8
DV1_デフォルト
  6
CONTINUOUS
 62
     7
100
AcDbEllipse
 10
145.6900882962
 20
135.9250908112
 30
0.0
 11
0.8500000000000001
 21
-1.718883487388630E-15
 31
0.0
210
0.0
220
0.0
230
1.0
 40
0.5
 41
0.4243897085931296
 42
2.717202944996585
  0
ELLIPSE
  5
98
330
94
100
AcDbEntity
  8
DV1_デフォルト
  6
CONTINUOUS
 62
     7
100
AcDbEllipse
 10
145.6900882962
 20
135.9250908112
 30
0.0
 11
-0.850000000000007
 21
-7.020548895914201E-15
 31
0.0
210
0.0
220
0.0
230
1.0
 40
0.5
 41
0.4243897085931423
 42
2.717202944996561
  0
LINE
  5
99
330
94
100
AcDbEntity
  8
DV1_デフォルト
  6
CONTINUOUS
 62
     7
100
AcDbLine
 10
146.4646849654
 20
135.7964458925
 30
0.0
 11
146.4646849654
 21
136.1000908112
 31
0.0
  0
LINE
  5
9A
330
94
100
AcDbEntity
  8
DV1_デフォルト
  6
CONTINUOUS
 62
     7
100
AcDbLine
 10
144.915491627
 20
136.1000908112
 30
0.0
 11
144.915491627
 21
135.7900304087
 31
0.0
  0
LINE
  5
9B
330
94
100
AcDbEntity
  8
DV1_デフォルト
  6
CONTINUOUS
 62
     7
100
AcDbLine
 10
144.9584591203
 20
135.7500908112
 30
0.0
 11
146.4278719788
 21
135.7500908112
 31
0.0
  0
LINE
  5
9C
330
94
100
AcDbEntity
  8
DV1_デフォルト
  6
CONTINUOUS
 62
     7
100
AcDbLine
 10
146.4646849654
 20
136.1000908112
 30
0.0
 11
144.915491627
 21
136.1000908112
 31
0.0
  0
ELLIPSE
  5
9D
330
94
100
AcDbEntity
  8
DV1_デフォルト
  6
CONTINUOUS
 62
     7
100
AcDbEllipse
 10
145.6900882962
 20
110.4466234318
 30
0.0
 11
-0.8500000000000035
 21
-3.502109945200796E-15
 31
0.0
210
0.0
220
0.0
230
1.0
 40
0.5
 41
0.4243897085931352
 42
2.717202944996572
  0
ELLIPSE
  5
9E
330
94
100
AcDbEntity
  8
DV1_デフォルト
  6
CONTINUOUS
 62
     7
100
AcDbEllipse
 10
145.6900882962
 20
110.4466234318
 30
0.0
 11
0.8500000000000035
 21
1.867553455501591E-15
 31
0.0
210
0.0
220
0.0
230
1.0
 40
0.5
 41
0.4243897085931363
 42
2.717202944996574
  0
LINE
  5
9F
330
94
100
AcDbEntity
  8
DV1_デフォルト
  6
CONTINUOUS
 62
     7
100
AcDbLine
 10
144.915491627
 20
110.5802555736
 30
0.0
 11
144.915491627
 21
110.2716234318
 31
0.0
  0
LINE
  5
A0
330
94
100
AcDbEntity
  8
DV1_デフォルト
  6
CONTINUOUS
 62
     7
100
AcDbLine
 10
146.4646849654
 20
110.2716234318
 30
0.0
 11
146.4646849654
 21
110.5840926629
 31
0.0
  0
LINE
  5
A1
330
94
100
AcDbEntity
  8
DV1_デフォルト
  6
CONTINUOUS
 62
     7
100
AcDbLine
 10
146.4277380795
 20
110.6216234318
 30
0.0
 11
144.9584559808
 21
110.6216234318
 31
0.0
  0
LINE
  5
A2
330
94
100
AcDbEntity
  8
DV1_デフォルト
  6
CONTINUOUS
 62
     7
100
AcDbLine
 10
144.915491627
 20
110.2716234318
 30
0.0
 11
146.4646849654
 21
110.2716234318
 31
0.0
  0
LINE
  5
A3
330
94
100
AcDbEntity
  8
DV1_デフォルト
  6
CONTINUOUS
 62
     7
100
AcDbLine
 10
174.2400882962
 20
111.1858571215
 30
0.0
 11
174.2400882962
 21
135.1858571215
 31
0.0
  0
LINE
  5
A4
330
94
100
AcDbEntity
  8
DV1_デフォルト
  6
CONTINUOUS
 62
     7
100
AcDbLine
 10
173.5400882962
 20
110.4858571215
 30
0.0
 11
173.5400882962
 21
135.8858571215
 31
0.0
  0
LINE
  5
A5
330
94
100
AcDbEntity
  8
DV1_デフォルト
  6
CONTINUOUS
 62
     7
100
AcDbLine
 10
171.9900882962
 20
110.4858571215
 30
0.0
 11
171.9900882962
 21
135.8858571215
 31
0.0
  0
LINE
  5
A6
330
94
100
AcDbEntity
  8
DV1_デフォルト
  6
CONTINUOUS
 62
     7
100
AcDbLine
 10
171.2900882962
 20
111.1858571215
 30
0.0
 11
171.2900882962
 21
135.1858571215
 31
0.0
  0
LINE
  5
A7
330
94
100
AcDbEntity
  8
DV1_デフォルト
  6
CONTINUOUS
 62
     7
100
AcDbLine
 10
170.2400882962
 20
109.1858571215
 30
0.0
 11
170.2400882962
 21
137.1858571215
 31
0.0
  0
LINE
  5
A8
330
94
100
AcDbEntity
  8
DV1_デフォルト
  6
CONTINUOUS
 62
     7
100
AcDbLine
 10
169.7400882962
 20
108.6858571215
 30
0.0
 11
169.7400882962
 21
137.6858571215
 31
0.0
  0
SPLINE
  5
A9
330
94
100
AcDbEntity
  8
DV1_デフォルト
  6
CONTINUOUS
 62
     7
100
AcDbSpline
210
0.0
220
0.0
230
1.0
 70
     8
 71
     3
 72
    38
 73
    34
 74
     0
 42
0.0000000055819378
 43
0.0000000001
 40
0.0
 40
0.0
 40
0.0
 40
0.0
 40
0.0984579254935204
 40
0.0984579254935204
 40
0.0984579254935204
 40
0.1969086690872378
 40
0.1969086690872378
 40
0.1969086690872378
 40
0.2954671592666724
 40
0.2954671592666724
 40
0.2954671592666724
 40
0.394099890291022
 40
0.394099890291022
 40
0.394099890291022
 40
0.4926162038891295
 40
0.4926162038891295
 40
0.4926162038891295
 40
0.5910071133246434
 40
0.5910071133246434
 40
0.5910071133246434
 40
0.6894593507792174
 40
0.6894593507792174
 40
0.6894593507792174
 40
0.7880638088340847
 40
0.7880638088340847
 40
0.7880638088340847
 40
0.8866740590240548
 40
0.8866740590240548
 40
0.8866740590240548
 40
0.9851348078893667
 40
0.9851348078893667
 40
0.9851348078893667
 40
1.0
 40
1.0
 40
1.0
 40
1.0
 10
166.1400882962236
 20
108.7652896386718
 30
0.0
 10
166.1400882962236
 20
108.7752244777506
 30
0.0
 10
166.1564835823831
 20
108.786276698161
 30
0.0
 10
166.1879079550677
 20
108.7973803347607
 30
0.0
 10
166.2193310249018
 20
108.808483511005
 30
0.0
 10
166.2666443214481
 20
108.8199304753058
 30
0.0
 10
166.3259330432695
 20
108.8303922388436
 30
0.0
 10
166.3852856007626
 20
108.8408652664749
 30
0.0
 10
166.4582757281901
 20
108.850618639443
 30
0.0
 10
166.5388787546939
 20
108.8583935579544
 30
0.0
 10
166.6195388638182
 20
108.8661739826205
 30
0.0
 10
166.7100530290774
 20
108.8721678303277
 30
0.0
 10
166.8029188110615
 20
108.8755532379999
 30
0.0
 10
166.8956758864157
 20
108.8789346827888
 30
0.0
 10
166.9933407415476
 20
108.8797973292513
 30
0.0
 10
167.0878067532105
 20
108.8780203499729
 30
0.0
 10
167.1821571796424
 20
108.8762455449428
 30
0.0
 10
167.2759164684426
 20
108.8717942575794
 30
0.0
 10
167.3613375682369
 20
108.8652809443799
 30
0.0
 10
167.4468129248958
 20
108.8587634941235
 30
0.0
 10
167.5262949011265
 20
108.8500195568
 30
0.0
 10
167.5932350816199
 20
108.8402015300007
 30
0.0
 10
167.6602758143287
 20
108.8303687553424
 30
0.0
 10
167.7165860538701
 20
108.8192090387656
 30
0.0
 10
167.7575028282282
 20
108.8080741298806
 30
0.0
 10
167.7984207245567
 20
108.7969389156677
 30
0.0
 10
167.8250715328555
 20
108.7855377562285
 30
0.0
 10
167.8352319664275
 20
108.7750559624561
 30
0.0
 10
167.8453773033941
 20
108.7645897427733
 30
0.0
 10
167.839360944603
 20
108.7547559482013
 30
0.0
 10
167.8176847661935
 20
108.7463140690866
 30
0.0
 10
167.8144120419931
 20
108.745039492842
 30
0.0
 10
167.810768804615
 20
108.7437911161771
 30
0.0
 10
167.8067658807732
 20
108.7425698938871
 30
0.0
  0
SPLINE
  5
AA
330
94
100
AcDbEntity
  8
DV1_デフォルト
  6
CONTINUOUS
 62
     7
100
AcDbSpline
210
0.0
220
0.0
230
1.0
 70
     8
 71
     3
 72
    17
 73
    13
 74
     0
 42
0.0000000141236654
 43
0.0000000001
 40
0.0
 40
0.0
 40
0.0
 40
0.0
 40
0.1171474751268719
 40
0.1171474751268719
 40
0.1171474751268719
 40
0.5097233604803016
 40
0.5097233604803016
 40
0.5097233604803016
 40
0.9016938034889539
 40
0.9016938034889539
 40
0.9016938034889539
 40
1.0
 40
1.0
 40
1.0
 40
1.0
 10
167.3442953914278
 20
108.7050138834811
 30
0.0
 10
167.3183489076584
 20
108.7044008345424
 30
0.0
 10
167.2918499625056
 20
108.7038705649732
 30
0.0
 10
167.2649873004838
 20
108.7034181499605
 30
0.0
 10
167.1749681718916
 20
108.7019020677059
 30
0.0
 10
167.0783767112727
 20
108.7012049559835
 30
0.0
 10
166.9832328397154
 20
108.7012403556721
 30
0.0
 10
166.8882314699812
 20
108.7012757023408
 30
0.0
 10
166.7920541358281
 20
108.7020427028582
 30
0.0
 10
166.7026617303481
 20
108.7036351988714
 30
0.0
 10
166.6802414251933
 20
108.7040346091612
 30
0.0
 10
166.6580930066327
 20
108.7044895757855
 30
0.0
 10
166.6363270695806
 20
108.7050030112492
 30
0.0
  0
SPLINE
  5
AB
330
94
100
AcDbEntity
  8
DV1_デフォルト
  6
CONTINUOUS
 62
     7
100
AcDbSpline
210
0.0
220
0.0
230
1.0
 70
     8
 71
     3
 72
    11
 73
     7
 74
     0
 42
0.0000001991687184
 43
0.0000000001
 40
0.0
 40
0.0
 40
0.0
 40
0.0
 40
0.2996175351562114
 40
0.2996175351562114
 40
0.2996175351562114
 40
1.0
 40
1.0
 40
1.0
 40
1.0
 10
166.1794144531059
 20
108.7408371765909
 30
0.0
 10
166.1716309669089
 20
108.7429784670946
 30
0.0
 10
166.1649784031354
 20
108.7452085763389
 30
0.0
 10
166.1595166414893
 20
108.7475216183323
 30
0.0
 10
166.146639343541
 20
108.752975120855
 30
0.0
 10
166.1400882962236
 20
108.758957301772
 30
0.0
 10
166.1400882962236
 20
108.7652896386718
 30
0.0
  0
LINE
  5
AC
330
94
100
AcDbEntity
  8
DV1_デフォルト
  6
CONTINUOUS
 62
     7
100
AcDbLine
 10
165.6400882962
 20
108.6858571215
 30
0.0
 11
165.6400882962
 21
137.6858571215
 31
0.0
  0
LINE
  5
AD
330
94
100
AcDbEntity
  8
DV1_デフォルト
  6
CONTINUOUS
 62
     7
100
AcDbLine
 10
173.5400882962
 20
110.4858571215
 30
0.0
 11
174.2400882962
 21
111.1858571215
 31
0.0
  0
LINE
  5
AE
330
94
100
AcDbEntity
  8
DV1_デフォルト
  6
CONTINUOUS
 62
     7
100
AcDbLine
 10
174.2400882962
 20
135.1858571215
 30
0.0
 11
173.5400882962
 21
135.8858571215
 31
0.0
  0
LINE
  5
AF
330
94
100
AcDbEntity
  8
DV1_デフォルト
  6
CONTINUOUS
 62
     7
100
AcDbLine
 10
171.9900882962
 20
110.4858571215
 30
0.0
 11
173.5400882962
 21
110.4858571215
 31
0.0
  0
LINE
  5
B0
330
94
100
AcDbEntity
  8
DV1_デフォルト
  6
CONTINUOUS
 62
     7
100
AcDbLine
 10
173.5400882962
 20
135.8858571215
 30
0.0
 11
171.9900882962
 21
135.8858571215
 31
0.0
  0
LINE
  5
B1
330
94
100
AcDbEntity
  8
DV1_デフォルト
  6
CONTINUOUS
 62
     7
100
AcDbLine
 10
171.9900882962
 20
135.8858571215
 30
0.0
 11
171.2900882962
 21
135.1858571215
 31
0.0
  0
LINE
  5
B2
330
94
100
AcDbEntity
  8
DV1_デフォルト
  6
CONTINUOUS
 62
     7
100
AcDbLine
 10
171.2900882962
 20
111.1858571215
 30
0.0
 11
171.9900882962
 21
110.4858571215
 31
0.0
  0
LINE
  5
B3
330
94
100
AcDbEntity
  8
DV1_デフォルト
  6
CONTINUOUS
 62
     7
100
AcDbLine
 10
170.2400882962
 20
111.1858571215
 30
0.0
 11
171.2900882962
 21
111.1858571215
 31
0.0
  0
LINE
  5
B4
330
94
100
AcDbEntity
  8
DV1_デフォルト
  6
CONTINUOUS
 62
     7
100
AcDbLine
 10
171.2900882962
 20
135.1858571215
 30
0.0
 11
170.2400882962
 21
135.1858571215
 31
0.0
  0
LINE
  5
B5
330
94
100
AcDbEntity
  8
DV1_デフォルト
  6
CONTINUOUS
 62
     7
100
AcDbLine
 10
169.7400882962
 20
108.6858571215
 30
0.0
 11
170.2400882962
 21
109.1858571215
 31
0.0
  0
LINE
  5
B6
330
94
100
AcDbEntity
  8
DV1_デフォルト
  6
CONTINUOUS
 62
     7
100
AcDbLine
 10
170.2400882962
 20
137.1858571215
 30
0.0
 11
169.7400882962
 21
137.6858571215
 31
0.0
  0
LINE
  5
B7
330
94
100
AcDbEntity
  8
DV1_デフォルト
  6
CONTINUOUS
 62
     7
100
AcDbLine
 10
165.6400882962
 20
108.6858571215
 30
0.0
 11
166.6092569202
 21
108.6858571215
 31
0.0
  0
LINE
  5
B8
330
94
100
AcDbEntity
  8
DV1_デフォルト
  6
CONTINUOUS
 62
     7
100
AcDbLine
 10
166.6400882962
 20
108.6858571215
 30
0.0
 11
167.3400882962
 21
108.6858571215
 31
0.0
  0
LINE
  5
B9
330
94
100
AcDbEntity
  8
DV1_デフォルト
  6
CONTINUOUS
 62
     7
100
AcDbLine
 10
167.3709196723
 20
108.6858571215
 30
0.0
 11
169.7400882962
 21
108.6858571215
 31
0.0
  0
LINE
  5
BA
330
94
100
AcDbEntity
  8
DV1_デフォルト
  6
CONTINUOUS
 62
     7
100
AcDbLine
 10
169.7400882962
 20
137.6858571215
 30
0.0
 11
165.6400882962
 21
137.6858571215
 31
0.0
  0
LINE
  5
BB
330
94
100
AcDbEntity
  8
DV1_デフォルト
  6
CONTINUOUS
 62
     7
100
AcDbLine
 10
165.6400882962
 20
137.6858571215
 30
0.0
 11
165.4400882962
 21
137.4858571215
 31
0.0
  0
LINE
  5
BC
330
94
100
AcDbEntity
  8
DV1_デフォルト
  6
CONTINUOUS
 62
     7
100
AcDbLine
 10
165.4400882962
 20
108.8858571215
 30
0.0
 11
165.6400882962
 21
108.6858571215
 31
0.0
  0
ELLIPSE
  5
BD
330
94
100
AcDbEntity
  8
DV1_デフォルト
  6
CONTINUOUS
 62
     7
100
AcDbEllipse
 10
166.9900882962
 20
108.7652896387
 30
0.0
 11
-0.8500000000000001
 21
3.353439977087834E-15
 31
0.0
210
0.0
220
0.0
230
1.0
 40
0.1045284633
 41
1.995186035388076
 42
4.287999271791474
  0
ELLIPSE
  5
BE
330
94
100
AcDbEntity
  8
DV1_デフォルト
  6
CONTINUOUS
 62
     7
100
AcDbEllipse
 10
166.9900882962
 20
108.7652896387
 30
0.0
 11
0.8500000000000061
 21
5.204664427076816E-15
 31
0.0
210
0.0
220
0.0
230
1.0
 40
0.1045284633
 41
1.995186035388109
 42
4.287999271791477
  0
LINE
  5
BF
330
94
100
AcDbEntity
  8
DV1_デフォルト
  6
CONTINUOUS
 62
     7
100
AcDbLine
 10
166.6400882962
 20
108.8649710575
 30
0.0
 11
166.6400882962
 21
108.8462570382
 31
0.0
  0
LINE
  5
C0
330
94
100
AcDbEntity
  8
DV1_デフォルト
  6
CONTINUOUS
 62
     7
100
AcDbLine
 10
167.3400882962
 20
108.8462570382
 30
0.0
 11
167.3400882962
 21
108.8662706065
 31
0.0
  0
LINE
  5
C1
330
94
100
AcDbEntity
  8
DV1_デフォルト
  6
CONTINUOUS
 62
     7
100
AcDbLine
 10
166.6400882962
 20
108.8462570382
 30
0.0
 11
166.6400882962
 21
108.6843222392
 31
0.0
  0
LINE
  5
C2
330
94
100
AcDbEntity
  8
DV1_デフォルト
  6
CONTINUOUS
 62
     7
100
AcDbLine
 10
167.3400882962
 20
108.6843222392
 30
0.0
 11
167.3400882962
 21
108.8462570382
 31
0.0
  0
ELLIPSE
  5
C3
330
94
100
AcDbEntity
  8
DV1_デフォルト
  6
CONTINUOUS
 62
     7
100
AcDbEllipse
 10
166.9900882962
 20
137.6064246044
 30
0.0
 11
-0.8499999999999992
 21
-6.336991879663586E-18
 31
0.0
210
0.0
220
0.0
230
1.0
 40
0.1045284633
 41
4.247820662373026
 42
5.176957298396354
  0
LINE
  5
C4
330
94
100
AcDbEntity
  8
DV1_デフォルト
  6
CONTINUOUS
 62
     7
100
AcDbLine
 10
158.7400882962
 20
123.4358571215
 30
0.0
 11
155.6400882962
 21
123.4358571215
 31
0.0
  0
SPLINE
  5
C5
330
94
100
AcDbEntity
  8
DV1_デフォルト
  6
CONTINUOUS
 62
     7
100
AcDbSpline
210
0.0
220
0.0
230
1.0
 70
     8
 71
     3
 72
     8
 73
     4
 74
     0
 42
0.0000000835616593
 43
0.0000000001
 40
0.0
 40
0.0
 40
0.0
 40
0.0
 40
1.0
 40
1.0
 40
1.0
 40
1.0
 10
158.2521596423896
 20
129.4183391834912
 30
0.0
 10
158.2621099703084
 20
129.379614393283
 30
0.0
 10
158.2680357933708
 20
129.3401106409081
 30
0.0
 10
158.2695875697558
 20
129.3003973000706
 30
0.0
  0
LINE
  5
C6
330
94
100
AcDbEntity
  8
DV1_デフォルト
  6
CONTINUOUS
 62
     7
100
AcDbLine
 10
155.6400882962
 20
109.2858571215
 30
0.0
 11
156.5400882962
 21
109.2858571215
 31
0.0
  0
LINE
  5
C7
330
94
100
AcDbEntity
  8
DV1_デフォルト
  6
CONTINUOUS
 62
     7
100
AcDbLine
 10
158.5400882962
 20
109.2858571215
 30
0.0
 11
158.7400882962
 21
109.2858571215
 31
0.0
  0
LINE
  5
C8
330
94
100
AcDbEntity
  8
DV1_デフォルト
  6
CONTINUOUS
 62
     7
100
AcDbLine
 10
158.7400882962
 20
137.0858571215
 30
0.0
 11
155.6400882962
 21
137.0858571215
 31
0.0
  0
LINE
  5
C9
330
94
100
AcDbEntity
  8
DV1_デフォルト
  6
CONTINUOUS
 62
     7
100
AcDbLine
 10
158.7400882962
 20
108.6358571215
 30
0.0
 11
158.7400882962
 21
137.7358571215
 31
0.0
  0
LINE
  5
CA
330
94
100
AcDbEntity
  8
DV1_デフォルト
  6
CONTINUOUS
 62
     7
100
AcDbLine
 10
158.9400882962
 20
108.4358571215
 30
0.0
 11
158.9400882962
 21
137.9358571215
 31
0.0
  0
LINE
  5
CB
330
94
100
AcDbEntity
  8
DV1_デフォルト
  6
CONTINUOUS
 62
     7
100
AcDbLine
 10
165.2400882962
 20
108.4358571215
 30
0.0
 11
165.2400882962
 21
137.9358571215
 31
0.0
  0
LINE
  5
CC
330
94
100
AcDbEntity
  8
DV1_デフォルト
  6
CONTINUOUS
 62
     7
100
AcDbLine
 10
165.4400882962
 20
108.6358571215
 30
0.0
 11
165.4400882962
 21
137.7358571215
 31
0.0
  0
LINE
  5
CD
330
94
100
AcDbEntity
  8
DV1_デフォルト
  6
CONTINUOUS
 62
     7
100
AcDbLine
 10
158.9400882962
 20
137.9358571215
 30
0.0
 11
158.7400882962
 21
137.7358571215
 31
0.0
  0
LINE
  5
CE
330
94
100
AcDbEntity
  8
DV1_デフォルト
  6
CONTINUOUS
 62
     7
100
AcDbLine
 10
158.7400882962
 20
108.6358571215
 30
0.0
 11
158.9400882962
 21
108.4358571215
 31
0.0
  0
LINE
  5
CF
330
94
100
AcDbEntity
  8
DV1_デフォルト
  6
CONTINUOUS
 62
     7
100
AcDbLine
 10
158.9400882962
 20
108.4358571215
 30
0.0
 11
165.2400882962
 21
108.4358571215
 31
0.0
  0
LINE
  5
D0
330
94
100
AcDbEntity
  8
DV1_デフォルト
  6
CONTINUOUS
 62
     7
100
AcDbLine
 10
165.2400882962
 20
137.9358571215
 30
0.0
 11
158.9400882962
 21
137.9358571215
 31
0.0
  0
LINE
  5
D1
330
94
100
AcDbEntity
  8
DV1_デフォルト
  6
CONTINUOUS
 62
     7
100
AcDbLine
 10
165.2400882962
 20
108.4358571215
 30
0.0
 11
165.4400882962
 21
108.6358571215
 31
0.0
  0
LINE
  5
D2
330
94
100
AcDbEntity
  8
DV1_デフォルト
  6
CONTINUOUS
 62
     7
100
AcDbLine
 10
165.4400882962
 20
137.7358571215
 30
0.0
 11
165.2400882962
 21
137.9358571215
 31
0.0
  0
LINE
  5
D3
330
94
100
AcDbEntity
  8
DV1_デフォルト
  6
CONTINUOUS
 62
     7
100
AcDbLine
 10
124.5400882962
 20
109.1358571215
 30
0.0
 11
124.5400882962
 21
137.2358571215
 31
0.0
  0
LINE
  5
D4
330
94
100
AcDbEntity
  8
DV1_デフォルト
  6
CONTINUOUS
 62
     7
100
AcDbLine
 10
124.7400882962
 20
108.9358571215
 30
0.0
 11
124.7400882962
 21
137.4358571215
 31
0.0
  0
LINE
  5
D5
330
94
100
AcDbEntity
  8
DV1_デフォルト
  6
CONTINUOUS
 62
     7
100
AcDbLine
 10
128.5400882962
 20
108.6358571215
 30
0.0
 11
128.5400882962
 21
137.7358571215
 31
0.0
  0
LINE
  5
D6
330
94
100
AcDbEntity
  8
DV1_デフォルト
  6
CONTINUOUS
 62
     7
100
AcDbLine
 10
128.7400882962
 20
108.4358571215
 30
0.0
 11
128.7400882962
 21
137.9358571215
 31
0.0
  0
LINE
  5
D7
330
94
100
AcDbEntity
  8
DV1_デフォルト
  6
CONTINUOUS
 62
     7
100
AcDbLine
 10
155.4400882962
 20
108.4358571215
 30
0.0
 11
155.4400882962
 21
137.9358571215
 31
0.0
  0
LINE
  5
D8
330
94
100
AcDbEntity
  8
DV1_デフォルト
  6
CONTINUOUS
 62
     7
100
AcDbLine
 10
155.6400882962
 20
108.6358571215
 30
0.0
 11
155.6400882962
 21
137.7358571215
 31
0.0
  0
SPLINE
  5
D9
330
94
100
AcDbEntity
  8
DV1_デフォルト
  6
CONTINUOUS
 62
     7
100
AcDbSpline
210
0.0
220
0.0
230
1.0
 70
    11
 71
     3
 72
    62
 73
    58
 74
     0
 42
0.0000000024169249
 43
0.0000000001
 40
0.0
 40
0.0
 40
0.0
 40
0.0
 40
0.0536437625248039
 40
0.0536437625248039
 40
0.0536437625248039
 40
0.107283726865206
 40
0.107283726865206
 40
0.107283726865206
 40
0.1609806380991678
 40
0.1609806380991678
 40
0.1609806380991678
 40
0.2147164776083283
 40
0.2147164776083283
 40
0.2147164776083283
 40
0.2683910030146924
 40
0.2683910030146924
 40
0.2683910030146924
 40
0.3219998298234015
 40
0.3219998298234015
 40
0.3219998298234015
 40
0.3756407693719446
 40
0.3756407693719446
 40
0.3756407693719446
 40
0.4293616608687384
 40
0.4293616608687384
 40
0.4293616608687384
 40
0.4830858085964149
 40
0.4830858085964149
 40
0.4830858085964149
 40
0.5367310619609309
 40
0.5367310619609309
 40
0.5367310619609309
 40
0.5903385209363426
 40
0.5903385209363426
 40
0.5903385209363426
 40
0.6440081508453727
 40
0.6440081508453727
 40
0.6440081508453727
 40
0.6977429473034767
 40
0.6977429473034767
 40
0.6977429473034767
 40
0.7514442747489366
 40
0.7514442747489366
 40
0.7514442747489366
 40
0.8050658824174289
 40
0.8050658824174289
 40
0.8050658824174289
 40
0.8586857575115532
 40
0.8586857575115532
 40
0.8586857575115532
 40
0.9123844453896977
 40
0.9123844453896977
 40
0.9123844453896977
 40
0.966119920764026
 40
0.966119920764026
 40
0.966119920764026
 40
1.0
 40
1.0
 40
1.0
 40
1.0
 10
145.6900882962081
 20
135.5135039056112
 30
0.0
 10
145.7851355418882
 20
135.5135039056112
 30
0.0
 10
145.8814931712611
 20
135.5225428641725
 30
0.0
 10
145.9711783209626
 20
135.5397384393949
 30
0.0
 10
146.0608598607476
 20
135.5569333224782
 30
0.0
 10
146.1463420690988
 20
135.5827443492818
 30
0.0
 10
146.2205742699136
 20
135.6147054138202
 30
0.0
 10
146.2948839940726
 20
135.6466998564424
 30
0.0
 10
146.3599699773813
 20
135.6857210638475
 30
0.0
 10
146.4104556594794
 20
135.728160102139
 30
0.0
 10
146.4609757469498
 20
135.7706280621139
 30
0.0
 10
146.4982682914401
 20
135.8176757545406
 30
0.0
 10
146.5192292081194
 20
135.8651282525474
 30
0.0
 10
146.5401664077613
 20
135.9125270585957
 30
0.0
 10
146.5453852373223
 20
135.9616306187604
 30
0.0
 10
146.5344499884043
 20
136.008321944929
 30
0.0
 10
146.5235276054654
 20
136.0549583359395
 30
0.0
 10
146.4961908738067
 20
136.1004777371199
 30
0.0
 10
146.4547100974924
 20
136.1413273888439
 30
0.0
 10
146.4132039968212
 20
136.1822019796181
 30
0.0
 10
146.3563961265096
 20
136.2195421921309
 30
0.0
 10
146.2889767496301
 20
136.2506390964093
 30
0.0
 10
146.2214597394724
 20
136.281781033627
 30
0.0
 10
146.1414363752498
 20
136.3075391312626
 30
0.0
 10
146.0555198333342
 20
136.3261487182882
 30
0.0
 10
145.9696006995367
 20
136.3447588667174
 30
0.0
 10
145.8754125118332
 20
136.3567474667414
 30
0.0
 10
145.7807711323231
 20
136.3613201553292
 30
0.0
 10
145.686265964296
 20
136.3658862627291
 30
0.0
 10
145.5887013162862
 20
136.3631876752855
 30
0.0
 10
145.4961662068701
 20
136.3534013620356
 30
0.0
 10
145.4036922984158
 20
136.3436215212672
 30
0.0
 10
145.3136936878855
 20
136.3264871010371
 30
0.0
 10
145.2335951530569
 20
136.3031388820957
 30
0.0
 10
145.153404544261
 20
136.2797638241722
 30
0.0
 10
145.0809261234954
 20
136.2495003012048
 30
0.0
 10
145.0221373142076
 20
136.2144577119443
 30
0.0
 10
144.9632799233028
 20
136.1793742428385
 30
0.0
 10
144.9165209875999
 20
136.13851270703
 30
0.0
 10
144.88574318465
 20
136.0949269936872
 30
0.0
 10
144.8549848822946
 20
136.0513688959388
 30
0.0
 10
144.8393406290377
 20
136.0038747842975
 30
0.0
 10
144.8401165619497
 20
135.9562644766648
 30
0.0
 10
144.8408913762136
 20
135.9087228079278
 30
0.0
 10
144.8580589909014
 20
135.8597549492417
 30
0.0
 10
144.8901904296523
 20
135.8135486444015
 30
0.0
 10
144.9223217785493
 20
135.767342468775
 30
0.0
 10
144.9702982756846
 20
135.722636798789
 30
0.0
 10
145.0301536470769
 20
135.6834485586214
 30
0.0
 10
145.0900952262727
 20
135.6442038768675
 30
0.0
 10
145.1636026800713
 20
135.6094285053715
 30
0.0
 10
145.244607636862
 20
135.5823827661646
 30
0.0
 10
145.3256646116301
 20
135.5553196593212
 30
0.0
 10
145.4164699068871
 20
135.5352669200256
 30
0.0
 10
145.509496457634
 20
135.5241658297809
 30
0.0
 10
145.56865489906
 20
135.5171063054651
 30
0.0
 10
145.6295433389569
 20
135.5135039056112
 30
0.0
 10
145.6900882962081
 20
135.5135039056112
 30
0.0
  0
SPLINE
  5
DA
330
94
100
AcDbEntity
  8
DV1_デフォルト
  6
CONTINUOUS
 62
     7
100
AcDbSpline
210
0.0
220
0.0
230
1.0
 70
    11
 71
     3
 72
    62
 73
    58
 74
     0
 42
0.0000000024168959
 43
0.0000000001
 40
0.0
 40
0.0
 40
0.0
 40
0.0
 40
0.0536437625248038
 40
0.0536437625248038
 40
0.0536437625248038
 40
0.1072837268652058
 40
0.1072837268652058
 40
0.1072837268652058
 40
0.1609806380991676
 40
0.1609806380991676
 40
0.1609806380991676
 40
0.2147164776083279
 40
0.2147164776083279
 40
0.2147164776083279
 40
0.2683910030146923
 40
0.2683910030146923
 40
0.2683910030146923
 40
0.3219998298234014
 40
0.3219998298234014
 40
0.3219998298234014
 40
0.3756407693719444
 40
0.3756407693719444
 40
0.3756407693719444
 40
0.4293616608687383
 40
0.4293616608687383
 40
0.4293616608687383
 40
0.483085808596415
 40
0.483085808596415
 40
0.483085808596415
 40
0.536731061960931
 40
0.536731061960931
 40
0.536731061960931
 40
0.5903385209363428
 40
0.5903385209363428
 40
0.5903385209363428
 40
0.644008150845373
 40
0.644008150845373
 40
0.644008150845373
 40
0.697742947303477
 40
0.697742947303477
 40
0.697742947303477
 40
0.7514442747489369
 40
0.7514442747489369
 40
0.7514442747489369
 40
0.8050658824174293
 40
0.8050658824174293
 40
0.8050658824174293
 40
0.8586857575115533
 40
0.8586857575115533
 40
0.8586857575115533
 40
0.9123844453896978
 40
0.9123844453896978
 40
0.9123844453896978
 40
0.9661199207640261
 40
0.9661199207640261
 40
0.9661199207640261
 40
1.0
 40
1.0
 40
1.0
 40
1.0
 10
145.6900882962081
 20
110.0082103374124
 30
0.0
 10
145.7851355418882
 20
110.0082103374124
 30
0.0
 10
145.8814931712611
 20
110.0155676222965
 30
0.0
 10
145.9711783209626
 20
110.0297985177477
 30
0.0
 10
146.0608598607476
 20
110.0440288403911
 30
0.0
 10
146.1463420690988
 20
110.0655346138227
 30
0.0
 10
146.2205742699136
 20
110.0928668024487
 30
0.0
 10
146.2948839940726
 20
110.1202275350576
 30
0.0
 10
146.3599699773813
 20
110.1541994436366
 30
0.0
 10
146.4104556594794
 20
110.1923658631849
 30
0.0
 10
146.4609757469498
 20
110.2305582926794
 30
0.0
 10
146.4982682914401
 20
110.2740238856386
 30
0.0
 10
146.5192292081194
 20
110.3194353874984
 30
0.0
 10
146.5401664077613
 20
110.3647955067635
 30
0.0
 10
146.5453852373223
 20
110.4133578589619
 30
0.0
 10
146.5344499884043
 20
110.4611334498764
 30
0.0
 10
146.5235276054654
 20
110.5088528299301
 30
0.0
 10
146.4961908738067
 20
110.5570978508803
 30
0.0
 10
146.4547100974924
 20
110.6016731332162
 30
0.0
 10
146.4132039968212
 20
110.6462756291307
 30
0.0
 10
146.3563961265096
 20
110.6884183474037
 30
0.0
 10
146.2889767496301
 20
110.7242605412964
 30
0.0
 10
146.2214597394724
 20
110.7601546400132
 30
0.0
 10
146.1414363752498
 20
110.79070127979
 30
0.0
 10
146.0555198333342
 20
110.8130026828621
 30
0.0
 10
145.9696006995367
 20
110.8353047587104
 30
0.0
 10
145.8754125118332
 20
110.8499608160957
 30
0.0
 10
145.7807711323231
 20
110.8555429640672
 30
0.0
 10
145.686265964296
 20
110.8611170779984
 30
0.0
 10
145.5887013162862
 20
110.8577930660285
 30
0.0
 10
145.4961662068701
 20
110.8458962443217
 30
0.0
 10
145.4036922984158
 20
110.8340072909466
 30
0.0
 10
145.3136936878855
 20
110.8132397605505
 30
0.0
 10
145.2335951530569
 20
110.7855928016194
 30
0.0
 10
145.153404544261
 20
110.7579140622669
 30
0.0
 10
145.0809261234954
 20
110.7225951112819
 30
0.0
 10
145.0221373142076
 20
110.6829384554827
 30
0.0
 10
144.9632799233028
 20
110.6432355371787
 30
0.0
 10
144.9165209875999
 20
110.59810578433
 30
0.0
 10
144.88574318465
 20
110.5516125420452
 30
0.0
 10
144.8549848822946
 20
110.5051487575442
 30
0.0
 10
144.8393406290377
 20
110.4560507482005
 30
0.0
 10
144.8401165619497
 20
110.4085178862683
 30
0.0
 10
144.8408913762136
 20
110.3610535515797
 30
0.0
 10
144.8580589909014
 20
110.3138407921993
 30
0.0
 10
144.8901904296523
 20
110.270653158753
 30
0.0
 10
144.9223217785493
 20
110.2274656460787
 30
0.0
 10
144.9702982756846
 20
110.1871014300505
 30
0.0
 10
145.0301536470769
 20
110.1525546999377
 30
0.0
 10
145.0900952262727
 20
110.1179582132592
 30
0.0
 10
145.1636026800713
 20
110.0882237159687
 30
0.0
 10
145.244607636862
 20
110.0654205830685
 30
0.0
 10
145.3256646116301
 20
110.0426028069551
 30
0.0
 10
145.4164699068871
 20
110.0260794936169
 30
0.0
 10
145.509496457634
 20
110.0169542958542
 30
0.0
 10
145.56865489906
 20
110.0111513022678
 30
0.0
 10
145.6295433389569
 20
110.0082103374124
 30
0.0
 10
145.6900882962081
 20
110.0082103374124
 30
0.0
  0
ARC
  5
DB
330
94
100
AcDbEntity
  8
DV1_デフォルト
  6
CONTINUOUS
 62
     7
100
AcDbCircle
 10
145.6900882962
 20
152.2256773543
 30
0.0
 40
14.31755392555001
100
AcDbArc
 50
266.4332133142
 51
273.5667866442
  0
ARC
  5
DC
330
94
100
AcDbEntity
  8
DV1_デフォルト
  6
CONTINUOUS
 62
     7
100
AcDbCircle
 10
151.9400882962
 20
152.2256773543
 30
0.0
 40
14.31755392555161
100
AcDbArc
 50
266.4332133142
 51
273.5667866442
  0
LINE
  5
DD
330
94
100
AcDbEntity
  8
DV1_デフォルト
  6
CONTINUOUS
 62
     7
100
AcDbLine
 10
124.7400882962
 20
137.4358571215
 30
0.0
 11
124.5400882962
 21
137.2358571215
 31
0.0
  0
LINE
  5
DE
330
94
100
AcDbEntity
  8
DV1_デフォルト
  6
CONTINUOUS
 62
     7
100
AcDbLine
 10
124.5400882962
 20
109.1358571215
 30
0.0
 11
124.7400882962
 21
108.9358571215
 31
0.0
  0
LINE
  5
DF
330
94
100
AcDbEntity
  8
DV1_デフォルト
  6
CONTINUOUS
 62
     7
100
AcDbLine
 10
124.7400882962
 20
108.9358571215
 30
0.0
 11
128.5400882962
 21
108.9358571215
 31
0.0
  0
LINE
  5
E0
330
94
100
AcDbEntity
  8
DV1_デフォルト
  6
CONTINUOUS
 62
     7
100
AcDbLine
 10
128.5400882962
 20
137.4358571215
 30
0.0
 11
124.7400882962
 21
137.4358571215
 31
0.0
  0
LINE
  5
E1
330
94
100
AcDbEntity
  8
DV1_デフォルト
  6
CONTINUOUS
 62
     7
100
AcDbLine
 10
128.7400882962
 20
137.9358571215
 30
0.0
 11
128.5400882962
 21
137.7358571215
 31
0.0
  0
LINE
  5
E2
330
94
100
AcDbEntity
  8
DV1_デフォルト
  6
CONTINUOUS
 62
     7
100
AcDbLine
 10
128.5400882962
 20
108.6358571215
 30
0.0
 11
128.7400882962
 21
108.4358571215
 31
0.0
  0
LINE
  5
E3
330
94
100
AcDbEntity
  8
DV1_デフォルト
  6
CONTINUOUS
 62
     7
100
AcDbLine
 10
128.7400882962
 20
108.4358571215
 30
0.0
 11
155.4400882962
 21
108.4358571215
 31
0.0
  0
LINE
  5
E4
330
94
100
AcDbEntity
  8
DV1_デフォルト
  6
CONTINUOUS
 62
     7
100
AcDbLine
 10
144.7994571483
 20
137.9358571215
 30
0.0
 11
128.7400882962
 21
137.9358571215
 31
0.0
  0
LINE
  5
E5
330
94
100
AcDbEntity
  8
DV1_デフォルト
  6
CONTINUOUS
 62
     7
100
AcDbLine
 10
151.0494571483
 20
137.9358571215
 30
0.0
 11
146.5807153968
 21
137.9358571215
 31
0.0
  0
LINE
  5
E6
330
94
100
AcDbEntity
  8
DV1_デフォルト
  6
CONTINUOUS
 62
     7
100
AcDbLine
 10
155.4400882962
 20
137.9358571215
 30
0.0
 11
152.8307153968
 21
137.9358571215
 31
0.0
  0
LINE
  5
E7
330
94
100
AcDbEntity
  8
DV1_デフォルト
  6
CONTINUOUS
 62
     7
100
AcDbLine
 10
155.4400882962
 20
108.4358571215
 30
0.0
 11
155.6400882962
 21
108.6358571215
 31
0.0
  0
LINE
  5
E8
330
94
100
AcDbEntity
  8
DV1_デフォルト
  6
CONTINUOUS
 62
     7
100
AcDbLine
 10
155.6400882962
 20
137.7358571215
 30
0.0
 11
155.4400882962
 21
137.9358571215
 31
0.0
  0
ELLIPSE
  5
E9
330
94
100
AcDbEntity
  8
DV1_デフォルト
  6
CONTINUOUS
 62
     7
100
AcDbEllipse
 10
163.1900882962
 20
127.044849084
 30
0.0
 11
-0.9999999999999991
 21
7.511726230812185E-15
 31
0.0
210
0.0
220
0.0
230
1.0
 40
0.9659258263
 41
3.088389633798863
 42
3.141592653589801
  0
ELLIPSE
  5
EA
330
94
100
AcDbEntity
  8
DV1_デフォルト
  6
CONTINUOUS
 62
     7
100
AcDbEllipse
 10
163.1900882962
 20
127.044849084
 30
0.0
 11
-0.9999999999999991
 21
7.511726230812185E-15
 31
0.0
210
0.0
220
0.0
230
1.0
 40
0.9659258263
 41
6.224638340873276
 42
6.283185307179586
  0
ELLIPSE
  5
EB
330
94
100
AcDbEntity
  8
DV1_デフォルト
  6
CONTINUOUS
 62
     7
100
AcDbEllipse
 10
163.1900882962
 20
126.993085275
 30
0.0
 11
-0.9999999999999991
 21
2.160403313217193E-15
 31
0.0
210
0.0
220
0.0
230
1.0
 40
0.9659258263
 41
0.0000000000000022
 42
3.141592653589795
  0
ARC
  5
EC
330
94
100
AcDbEntity
  8
DV1_デフォルト
  6
CONTINUOUS
 62
     7
100
AcDbCircle
 10
163.1900882963
 20
68.8359725373
 30
0.0
 40
58.96267034060905
100
AcDbArc
 50
89.8056536821
 51
90.194346318
  0
LINE
  5
ED
330
94
100
AcDbEntity
  8
DV1_デフォルト
  6
CONTINUOUS
 62
     7
100
AcDbLine
 10
163.3900882962
 20
127.2380342492
 30
0.0
 11
163.3900882962
 21
127.3156799628
 31
0.0
  0
LINE
  5
EE
330
94
100
AcDbEntity
  8
DV1_デフォルト
  6
CONTINUOUS
 62
     7
100
AcDbLine
 10
163.3900882962
 20
127.3156799628
 30
0.0
 11
163.8609086895
 21
127.3156799628
 31
0.0
  0
LINE
  5
EF
330
94
100
AcDbEntity
  8
DV1_デフォルト
  6
CONTINUOUS
 62
     7
100
AcDbLine
 10
163.8900882962
 20
126.9289704356
 30
0.0
 11
163.8900882962
 21
127.3153407662
 31
0.0
  0
LINE
  5
F0
330
94
100
AcDbEntity
  8
DV1_デフォルト
  6
CONTINUOUS
 62
     7
100
AcDbLine
 10
163.3900882962
 20
126.9293096323
 30
0.0
 11
163.3900882962
 21
126.4745320549
 31
0.0
  0
ARC
  5
F1
330
94
100
AcDbEntity
  8
DV1_デフォルト
  6
CONTINUOUS
 62
     7
100
AcDbCircle
 10
163.1900882962
 20
67.483676421
 30
0.0
 40
58.9626703001048
100
AcDbArc
 50
89.8056536819
 51
90.1943463181
  0
LINE
  5
F2
330
94
100
AcDbEntity
  8
DV1_デフォルト
  6
CONTINUOUS
 62
     7
100
AcDbLine
 10
162.9900882962
 20
126.9293096323
 30
0.0
 11
162.519267903
 21
126.9293096323
 31
0.0
  0
LINE
  5
F3
330
94
100
AcDbEntity
  8
DV1_デフォルト
  6
CONTINUOUS
 62
     7
100
AcDbLine
 10
162.4900882962
 20
127.3153407662
 30
0.0
 11
162.4900882962
 21
126.9289704356
 31
0.0
  0
LINE
  5
F4
330
94
100
AcDbEntity
  8
DV1_デフォルト
  6
CONTINUOUS
 62
     7
100
AcDbLine
 10
162.9900882962
 20
127.2380342492
 30
0.0
 11
162.9900882962
 21
127.3156799628
 31
0.0
  0
LINE
  5
F5
330
94
100
AcDbEntity
  8
DV1_デフォルト
  6
CONTINUOUS
 62
     7
100
AcDbLine
 10
162.9900882962
 20
127.3156799628
 30
0.0
 11
162.9900882962
 21
127.7704575402
 31
0.0
  0
LINE
  5
F6
330
94
100
AcDbEntity
  8
DV1_デフォルト
  6
CONTINUOUS
 62
     7
100
AcDbLine
 10
163.3900882962
 20
127.7704575402
 30
0.0
 11
163.3900882962
 21
127.3156799628
 31
0.0
  0
LINE
  5
F7
330
94
100
AcDbEntity
  8
DV1_デフォルト
  6
CONTINUOUS
 62
     7
100
AcDbLine
 10
163.3900882962
 20
127.7704575402
 30
0.0
 11
163.3900882962
 21
127.7983036793
 31
0.0
  0
ARC
  5
F8
330
94
100
AcDbEntity
  8
DV1_デフォルト
  6
CONTINUOUS
 62
     7
100
AcDbCircle
 10
163.8609554084
 20
126.0644321926
 30
0.0
 40
1.251247771064832
100
AcDbArc
 50
88.6658578719
 51
90.0021393039
  0
LINE
  5
F9
330
94
100
AcDbEntity
  8
DV1_デフォルト
  6
CONTINUOUS
 62
     7
100
AcDbLine
 10
163.8609086895
 20
126.9293096323
 30
0.0
 11
163.3900882962
 21
126.9293096323
 31
0.0
  0
LINE
  5
FA
330
94
100
AcDbEntity
  8
DV1_デフォルト
  6
CONTINUOUS
 62
     7
100
AcDbLine
 10
163.8609086895
 20
126.9293096323
 30
0.0
 11
163.8900882962
 21
126.9289704356
 31
0.0
  0
LINE
  5
FB
330
94
100
AcDbEntity
  8
DV1_デフォルト
  6
CONTINUOUS
 62
     7
100
AcDbLine
 10
163.3900882962
 20
126.4460075225
 30
0.0
 11
163.3900882962
 21
126.4745320549
 31
0.0
  0
LINE
  5
FC
330
94
100
AcDbEntity
  8
DV1_デフォルト
  6
CONTINUOUS
 62
     7
100
AcDbLine
 10
162.9900882962
 20
126.4745320549
 30
0.0
 11
162.9900882962
 21
126.9293096323
 31
0.0
  0
LINE
  5
FD
330
94
100
AcDbEntity
  8
DV1_デフォルト
  6
CONTINUOUS
 62
     7
100
AcDbLine
 10
162.9900882962
 20
126.4745320549
 30
0.0
 11
162.9900882962
 21
126.4460075225
 31
0.0
  0
LINE
  5
FE
330
94
100
AcDbEntity
  8
DV1_デフォルト
  6
CONTINUOUS
 62
     7
100
AcDbLine
 10
162.4900882962
 20
126.9289704356
 30
0.0
 11
162.519267903
 21
126.9293096323
 31
0.0
  0
LINE
  5
FF
330
94
100
AcDbEntity
  8
DV1_デフォルト
  6
CONTINUOUS
 62
     7
100
AcDbLine
 10
162.519267903
 20
127.3156799628
 30
0.0
 11
162.9900882962
 21
127.3156799628
 31
0.0
  0
LINE
  5
100
330
94
100
AcDbEntity
  8
DV1_デフォルト
  6
CONTINUOUS
 62
     7
100
AcDbLine
 10
162.519267903
 20
127.3156799628
 30
0.0
 11
162.4900882962
 21
127.3153407662
 31
0.0
  0
LINE
  5
101
330
94
100
AcDbEntity
  8
DV1_デフォルト
  6
CONTINUOUS
 62
     7
100
AcDbLine
 10
162.9900882962
 20
127.7983036793
 30
0.0
 11
162.9900882962
 21
127.7704575402
 31
0.0
  0
LINE
  5
102
330
94
100
AcDbEntity
  8
DV1_デフォルト
  6
CONTINUOUS
 62
     7
100
AcDbLine
 10
162.9900882962
 20
127.7209971624
 30
0.0
 11
163.3900882962
 21
127.7209971624
 31
0.0
  0
LINE
  5
103
330
94
100
AcDbEntity
  8
DV1_デフォルト
  6
CONTINUOUS
 62
     7
100
AcDbLine
 10
163.3900882962
 20
127.2380342492
 30
0.0
 11
163.8900882962
 21
127.2380342492
 31
0.0
  0
LINE
  5
104
330
94
100
AcDbEntity
  8
DV1_デフォルト
  6
CONTINUOUS
 62
     7
100
AcDbLine
 10
162.4900882962
 20
127.2380342492
 30
0.0
 11
162.9900882962
 21
127.2380342492
 31
0.0
  0
ARC
  5
105
330
94
100
AcDbEntity
  8
DV1_デフォルト
  6
CONTINUOUS
 62
     7
100
AcDbCircle
 10
163.2037756203
 20
127.0389136004
 30
0.0
 40
0.9821789376656567
100
AcDbArc
 50
357.2967373258
 51
90.7984810674
  0
ARC
  5
106
330
94
100
AcDbEntity
  8
DV1_デフォルト
  6
CONTINUOUS
 62
     7
100
AcDbCircle
 10
163.1779351249
 20
127.0343646219
 30
0.0
 40
0.9867073880261226
100
AcDbArc
 50
89.2942760551
 51
176.03510668
  0
LINE
  5
107
330
94
100
AcDbEntity
  8
DV1_デフォルト
  6
CONTINUOUS
 62
     7
100
AcDbLine
 10
162.1900882962
 20
127.044849084
 30
0.0
 11
162.1900882962
 21
126.993085275
 31
0.0
  0
LINE
  5
108
330
94
100
AcDbEntity
  8
DV1_デフォルト
  6
CONTINUOUS
 62
     7
100
AcDbLine
 10
164.1900882962
 20
126.993085275
 30
0.0
 11
164.1900882962
 21
127.044849084
 31
0.0
  0
ELLIPSE
  5
109
330
94
100
AcDbEntity
  8
DV1_デフォルト
  6
CONTINUOUS
 62
     7
100
AcDbEllipse
 10
157.5400882962
 20
129.3493554454
 30
0.0
 11
1.000000000000001
 21
3.491895239189306E-15
 31
0.0
210
0.0
220
0.0
230
1.0
 40
0.8987940463
 41
3.12342045615262
 42
3.141592653589793
  0
ELLIPSE
  5
10A
330
94
100
AcDbEntity
  8
DV1_デフォルト
  6
CONTINUOUS
 62
     7
100
AcDbEllipse
 10
157.5400882962
 20
129.261681216
 30
0.0
 11
1.000000000000001
 21
2.629284999555159E-15
 31
0.0
210
0.0
220
0.0
230
1.0
 40
0.8987940463
 41
3.141592653589793
 42
6.283185307179586
  0
ARC
  5
10B
330
94
100
AcDbEntity
  8
DV1_デフォルト
  6
CONTINUOUS
 62
     7
100
AcDbCircle
 10
157.5400882963
 20
95.2976400679
 30
0.0
 40
34.81238255738578
100
AcDbArc
 50
89.6708292253
 51
90.329170775
  0
LINE
  5
10C
330
94
100
AcDbEntity
  8
DV1_デフォルト
  6
CONTINUOUS
 62
     7
100
AcDbLine
 10
157.7400882962
 20
129.5291142546
 30
0.0
 11
157.7400882962
 21
129.6606255987
 31
0.0
  0
LINE
  5
10D
330
94
100
AcDbEntity
  8
DV1_デフォルト
  6
CONTINUOUS
 62
     7
100
AcDbLine
 10
157.7400882962
 20
129.6606255987
 30
0.0
 11
158.2109086895
 21
129.6606255987
 31
0.0
  0
LINE
  5
10E
330
94
100
AcDbEntity
  8
DV1_デフォルト
  6
CONTINUOUS
 62
     7
100
AcDbLine
 10
158.2400882962
 20
129.3005334706
 30
0.0
 11
158.2400882962
 21
129.6600510891
 31
0.0
  0
LINE
  5
10F
330
94
100
AcDbEntity
  8
DV1_デフォルト
  6
CONTINUOUS
 62
     7
100
AcDbLine
 10
157.7400882962
 20
129.3011079801
 30
0.0
 11
157.7400882962
 21
128.8779374138
 31
0.0
  0
ARC
  5
110
330
94
100
AcDbEntity
  8
DV1_デフォルト
  6
CONTINUOUS
 62
     7
100
AcDbCircle
 10
157.5400882962
 20
94.0393284269
 30
0.0
 40
34.81238253350465
100
AcDbArc
 50
89.6708292249
 51
90.3291707751
  0
LINE
  5
111
330
94
100
AcDbEntity
  8
DV1_デフォルト
  6
CONTINUOUS
 62
     7
100
AcDbLine
 10
157.3400882962
 20
129.3011079801
 30
0.0
 11
156.869267903
 21
129.3011079801
 31
0.0
  0
LINE
  5
112
330
94
100
AcDbEntity
  8
DV1_デフォルト
  6
CONTINUOUS
 62
     7
100
AcDbLine
 10
156.8400882962
 20
129.6600510891
 30
0.0
 11
156.8400882962
 21
129.3005334706
 31
0.0
  0
LINE
  5
113
330
94
100
AcDbEntity
  8
DV1_デフォルト
  6
CONTINUOUS
 62
     7
100
AcDbLine
 10
157.3400882962
 20
129.5291142546
 30
0.0
 11
157.3400882962
 21
129.6606255987
 31
0.0
  0
LINE
  5
114
330
94
100
AcDbEntity
  8
DV1_デフォルト
  6
CONTINUOUS
 62
     7
100
AcDbLine
 10
157.3400882962
 20
129.6606255987
 30
0.0
 11
157.3400882962
 21
130.083796165
 31
0.0
  0
LINE
  5
115
330
94
100
AcDbEntity
  8
DV1_デフォルト
  6
CONTINUOUS
 62
     7
100
AcDbLine
 10
157.7400882962
 20
130.083796165
 30
0.0
 11
157.7400882962
 21
129.6606255987
 31
0.0
  0
LINE
  5
116
330
94
100
AcDbEntity
  8
DV1_デフォルト
  6
CONTINUOUS
 62
     7
100
AcDbLine
 10
157.7400882962
 20
130.083796165
 30
0.0
 11
157.7400882962
 21
130.1094481123
 31
0.0
  0
ARC
  5
117
330
94
100
AcDbEntity
  8
DV1_デフォルト
  6
CONTINUOUS
 62
     7
100
AcDbCircle
 10
158.2109526549
 20
128.9215484694
 30
0.0
 40
0.7390771305728687
100
AcDbArc
 50
87.7407202949
 51
90.0034083529
  0
LINE
  5
118
330
94
100
AcDbEntity
  8
DV1_デフォルト
  6
CONTINUOUS
 62
     7
100
AcDbLine
 10
158.2109086895
 20
129.3011079801
 30
0.0
 11
157.7400882962
 21
129.3011079801
 31
0.0
  0
LINE
  5
119
330
94
100
AcDbEntity
  8
DV1_デフォルト
  6
CONTINUOUS
 62
     7
100
AcDbLine
 10
158.2109086895
 20
129.3011079801
 30
0.0
 11
158.2400882962
 21
129.3005334706
 31
0.0
  0
LINE
  5
11A
330
94
100
AcDbEntity
  8
DV1_デフォルト
  6
CONTINUOUS
 62
     7
100
AcDbLine
 10
157.7400882962
 20
128.8511364475
 30
0.0
 11
157.7400882962
 21
128.8779374138
 31
0.0
  0
LINE
  5
11B
330
94
100
AcDbEntity
  8
DV1_デフォルト
  6
CONTINUOUS
 62
     7
100
AcDbLine
 10
157.3400882962
 20
128.8779374138
 30
0.0
 11
157.3400882962
 21
129.3011079801
 31
0.0
  0
LINE
  5
11C
330
94
100
AcDbEntity
  8
DV1_デフォルト
  6
CONTINUOUS
 62
     7
100
AcDbLine
 10
157.3400882962
 20
128.8779374138
 30
0.0
 11
157.3400882962
 21
128.8511364475
 31
0.0
  0
LINE
  5
11D
330
94
100
AcDbEntity
  8
DV1_デフォルト
  6
CONTINUOUS
 62
     7
100
AcDbLine
 10
156.8400882962
 20
129.3005334706
 30
0.0
 11
156.869267903
 21
129.3011079801
 31
0.0
  0
LINE
  5
11E
330
94
100
AcDbEntity
  8
DV1_デフォルト
  6
CONTINUOUS
 62
     7
100
AcDbLine
 10
156.869267903
 20
129.6606255987
 30
0.0
 11
157.3400882962
 21
129.6606255987
 31
0.0
  0
LINE
  5
11F
330
94
100
AcDbEntity
  8
DV1_デフォルト
  6
CONTINUOUS
 62
     7
100
AcDbLine
 10
156.869267903
 20
129.6606255987
 30
0.0
 11
156.8400882962
 21
129.6600510891
 31
0.0
  0
LINE
  5
120
330
94
100
AcDbEntity
  8
DV1_デフォルト
  6
CONTINUOUS
 62
     7
100
AcDbLine
 10
157.3400882962
 20
130.1094481123
 30
0.0
 11
157.3400882962
 21
130.083796165
 31
0.0
  0
LINE
  5
121
330
94
100
AcDbEntity
  8
DV1_デフォルト
  6
CONTINUOUS
 62
     7
100
AcDbLine
 10
157.3400882962
 20
129.9785112778
 30
0.0
 11
157.7400882962
 21
129.9785112778
 31
0.0
  0
LINE
  5
122
330
94
100
AcDbEntity
  8
DV1_デフォルト
  6
CONTINUOUS
 62
     7
100
AcDbLine
 10
157.7400882962
 20
129.5291142546
 30
0.0
 11
158.2400882962
 21
129.5291142546
 31
0.0
  0
LINE
  5
123
330
94
100
AcDbEntity
  8
DV1_デフォルト
  6
CONTINUOUS
 62
     7
100
AcDbLine
 10
156.8400882962
 20
129.5291142546
 30
0.0
 11
157.3400882962
 21
129.5291142546
 31
0.0
  0
ARC
  5
124
330
94
100
AcDbEntity
  8
DV1_デフォルト
  6
CONTINUOUS
 62
     7
100
AcDbCircle
 10
157.5756063133
 20
129.3171277223
 30
0.0
 40
0.9620394328057547
100
AcDbArc
 50
1.7442551262
 51
92.1158125115
  0
ARC
  5
125
330
94
100
AcDbEntity
  8
DV1_デフォルト
  6
CONTINUOUS
 62
     7
100
AcDbCircle
 10
157.5057391046
 20
129.3127577581
 30
0.0
 40
0.9663641796576193
100
AcDbArc
 50
87.9630056592
 51
176.8098034154
  0
LINE
  5
126
330
94
100
AcDbEntity
  8
DV1_デフォルト
  6
CONTINUOUS
 62
     7
100
AcDbLine
 10
156.5400882962
 20
129.3493554454
 30
0.0
 11
156.5400882962
 21
129.261681216
 31
0.0
  0
LINE
  5
127
330
94
100
AcDbEntity
  8
DV1_デフォルト
  6
CONTINUOUS
 62
     7
100
AcDbLine
 10
158.5400882962
 20
129.261681216
 30
0.0
 11
158.5400882962
 21
129.3493554454
 31
0.0
  0
ARC
  5
128
330
94
100
AcDbEntity
  8
DV1_デフォルト
  6
CONTINUOUS
 62
     7
100
AcDbCircle
 10
157.5400882963
 20
124.3230222056
 30
0.0
 40
15.34532958506792
100
AcDbArc
 50
269.2532268343
 51
270.7467731651
  0
LINE
  5
129
330
94
100
AcDbEntity
  8
DV1_デフォルト
  6
CONTINUOUS
 62
     7
100
AcDbLine
 10
157.7400882962
 20
108.9254283967
 30
0.0
 11
158.2109086895
 21
108.9254283967
 31
0.0
  0
LINE
  5
12A
330
94
100
AcDbEntity
  8
DV1_デフォルト
  6
CONTINUOUS
 62
     7
100
AcDbLine
 10
158.2400882962
 20
108.8849203871
 30
0.0
 11
158.2400882962
 21
108.9267317724
 31
0.0
  0
LINE
  5
12B
330
94
100
AcDbEntity
  8
DV1_デフォルト
  6
CONTINUOUS
 62
     7
100
AcDbLine
 10
157.7400882962
 20
108.9254283967
 30
0.0
 11
157.7400882962
 21
108.8836170114
 31
0.0
  0
LINE
  5
12C
330
94
100
AcDbEntity
  8
DV1_デフォルト
  6
CONTINUOUS
 62
     7
100
AcDbLine
 10
157.7400882962
 20
108.8836170114
 30
0.0
 11
157.7400882962
 21
108.8344028792
 31
0.0
  0
ARC
  5
12D
330
94
100
AcDbEntity
  8
DV1_デフォルト
  6
CONTINUOUS
 62
     7
100
AcDbCircle
 10
157.5400882962
 20
124.1766823465
 30
0.0
 40
15.34532957456846
100
AcDbArc
 50
269.2532268341
 51
270.7467731659
  0
LINE
  5
12E
330
94
100
AcDbEntity
  8
DV1_デフォルト
  6
CONTINUOUS
 62
     7
100
AcDbLine
 10
157.3400882962
 20
108.9254283967
 30
0.0
 11
157.3400882962
 21
108.8836170114
 31
0.0
  0
LINE
  5
12F
330
94
100
AcDbEntity
  8
DV1_デフォルト
  6
CONTINUOUS
 62
     7
100
AcDbLine
 10
157.3400882962
 20
108.8836170114
 30
0.0
 11
156.869267903
 21
108.8836170114
 31
0.0
  0
LINE
  5
130
330
94
100
AcDbEntity
  8
DV1_デフォルト
  6
CONTINUOUS
 62
     7
100
AcDbLine
 10
156.8400882962
 20
108.9267317724
 30
0.0
 11
156.8400882962
 21
108.8849203871
 31
0.0
  0
LINE
  5
131
330
94
100
AcDbEntity
  8
DV1_デフォルト
  6
CONTINUOUS
 62
     7
100
AcDbLine
 10
157.3400882962
 20
108.9254283967
 30
0.0
 11
157.3400882962
 21
108.9572672807
 31
0.0
  0
LINE
  5
132
330
94
100
AcDbEntity
  8
DV1_デフォルト
  6
CONTINUOUS
 62
     7
100
AcDbLine
 10
157.7400882962
 20
108.9572672807
 30
0.0
 11
157.7400882962
 21
108.9254283967
 31
0.0
  0
LINE
  5
133
330
94
100
AcDbEntity
  8
DV1_デフォルト
  6
CONTINUOUS
 62
     7
100
AcDbLine
 10
157.7400882962
 20
108.9746425289
 30
0.0
 11
157.7400882962
 21
108.978996004
 31
0.0
  0
ARC
  5
134
330
94
100
AcDbEntity
  8
DV1_デフォルト
  6
CONTINUOUS
 62
     7
100
AcDbCircle
 10
158.2109351263
 20
109.2521206099
 30
0.0
 40
0.3266922142836921
100
AcDbArc
 50
269.9953634709
 51
275.1197378804
  0
LINE
  5
135
330
94
100
AcDbEntity
  8
DV1_デフォルト
  6
CONTINUOUS
 62
     7
100
AcDbLine
 10
158.2109086895
 20
108.8836170114
 30
0.0
 11
157.7400882962
 21
108.8836170114
 31
0.0
  0
LINE
  5
136
330
94
100
AcDbEntity
  8
DV1_デフォルト
  6
CONTINUOUS
 62
     7
100
AcDbLine
 10
158.2109086895
 20
108.8836170114
 30
0.0
 11
158.2400882962
 21
108.8849203871
 31
0.0
  0
LINE
  5
137
330
94
100
AcDbEntity
  8
DV1_デフォルト
  6
CONTINUOUS
 62
     7
100
AcDbLine
 10
157.3400882962
 20
108.8344028792
 30
0.0
 11
157.3400882962
 21
108.8836170114
 31
0.0
  0
LINE
  5
138
330
94
100
AcDbEntity
  8
DV1_デフォルト
  6
CONTINUOUS
 62
     7
100
AcDbLine
 10
156.8400882962
 20
108.8849203871
 30
0.0
 11
156.869267903
 21
108.8836170114
 31
0.0
  0
LINE
  5
139
330
94
100
AcDbEntity
  8
DV1_デフォルト
  6
CONTINUOUS
 62
     7
100
AcDbLine
 10
156.869267903
 20
108.9254283967
 30
0.0
 11
157.3400882962
 21
108.9254283967
 31
0.0
  0
LINE
  5
13A
330
94
100
AcDbEntity
  8
DV1_デフォルト
  6
CONTINUOUS
 62
     7
100
AcDbLine
 10
156.869267903
 20
108.9254283967
 30
0.0
 11
156.8400882962
 21
108.9267317724
 31
0.0
  0
LINE
  5
13B
330
94
100
AcDbEntity
  8
DV1_デフォルト
  6
CONTINUOUS
 62
     7
100
AcDbLine
 10
157.3400882962
 20
108.978996004
 30
0.0
 11
157.3400882962
 21
108.9746425289
 31
0.0
  0
SPLINE
  5
13C
330
94
100
AcDbEntity
  8
DV1_デフォルト
  6
CONTINUOUS
 62
     7
100
AcDbSpline
210
0.0
220
0.0
230
1.0
 70
     8
 71
     3
 72
    18
 73
    14
 74
     0
 42
0.0000000104809858
 43
0.0000000001
 40
0.0
 40
0.0
 40
0.0
 40
0.0
 40
0.0734982706444379
 40
0.2054708781554176
 40
0.3402695195142219
 40
0.4823263535647255
 40
0.599058195901772
 40
0.684177403087543
 40
0.7513880844869757
 40
0.8227023022467581
 40
0.8991696195960721
 40
0.9790908081814708
 40
1.0
 40
1.0
 40
1.0
 40
1.0
 10
157.7748259426614
 20
108.8341990463038
 30
0.0
 10
157.8054746067954
 20
108.8351985112952
 30
0.0
 10
157.8783215695282
 20
108.8376572094142
 30
0.0
 10
157.9975593487372
 20
108.8456981034447
 30
0.0
 10
158.1196699971212
 20
108.8578597031433
 30
0.0
 10
158.2184132044702
 20
108.8733074418917
 30
0.0
 10
158.2943675957
 20
108.8918396017031
 30
0.0
 10
158.3614668397687
 20
108.9181653165608
 30
0.0
 10
158.424168488961
 20
108.9577421860869
 30
0.0
 10
158.4805491894834
 20
109.0141763035332
 30
0.0
 10
158.5220598476308
 20
109.0895141495804
 30
0.0
 10
158.5425294248435
 20
109.159256962339
 30
0.0
 10
158.5381336522338
 20
109.1956502377375
 30
0.0
 10
158.537026796039
 20
109.2044281700829
 30
0.0
  0
SPLINE
  5
13D
330
94
100
AcDbEntity
  8
DV1_デフォルト
  6
CONTINUOUS
 62
     7
100
AcDbSpline
210
0.0
220
0.0
230
1.0
 70
     8
 71
     3
 72
    19
 73
    15
 74
     0
 42
0.0000000104934483
 43
0.0000000001
 40
0.0
 40
0.0
 40
0.0
 40
0.0
 40
0.0221845522049718
 40
0.10354494156055
 40
0.1738024185598148
 40
0.2379356900767851
 40
0.2992994038797918
 40
0.3632897047221074
 40
0.4386042118188258
 40
0.5478671661381024
 40
0.6866897663737489
 40
0.8164963046617745
 40
0.9526489990495919
 40
1.0
 40
1.0
 40
1.0
 40
1.0
 10
156.5429129869219
 20
109.2038883290503
 30
0.0
 10
156.5419338176773
 20
109.1945509113355
 30
0.0
 10
156.5382250165114
 20
109.1571193017091
 30
0.0
 10
156.5583982917192
 20
109.0889209771047
 30
0.0
 10
156.5978787658274
 20
109.0176870633204
 30
0.0
 10
156.6479531687057
 20
108.9649873730826
 30
0.0
 10
156.7009055467589
 20
108.9283471017558
 30
0.0
 10
156.7536718892514
 20
108.9036839966032
 30
0.0
 10
156.8113726345326
 20
108.8850984950442
 30
0.0
 10
156.8844550997249
 20
108.8692500377465
 30
0.0
 10
156.9829940417144
 20
108.8552225210144
 30
0.0
 10
157.1073886260193
 20
108.8438144568487
 30
0.0
 10
157.219478078747
 20
108.8366980504367
 30
0.0
 10
157.2854299240907
 20
108.8347513955812
 30
0.0
 10
157.305350628655
 20
108.8341777434435
 30
0.0
  0
LINE
  5
13E
330
94
100
AcDbEntity
  8
DV1_デフォルト
  6
CONTINUOUS
 62
     7
100
AcDbLine
 10
158.5400882962
 20
109.2028792726
 30
0.0
 11
158.5400882962
 21
109.4017836517
 31
0.0
  0
LINE
  5
13F
330
94
100
AcDbEntity
  8
DV1_デフォルト
  6
CONTINUOUS
 62
     7
100
AcDbLine
 10
156.5400882962
 20
109.4017836517
 30
0.0
 11
156.5400882962
 21
109.2028792726
 31
0.0
  0
LINE
  5
140
330
94
100
AcDbEntity
  8
DV1_デフォルト
  6
CONTINUOUS
 62
     7
100
AcDbLine
 10
174.5990882961
 20
114.4564901215
 30
0.0
 11
174.5990882961
 21
131.9152241215
 31
0.0
  0
LINE
  5
141
330
94
100
AcDbEntity
  8
DV1_デフォルト
  6
CONTINUOUS
 62
     7
100
AcDbLine
 10
174.7230998927
 20
132.0392357181
 30
0.0
 11
174.5990882961
 21
131.9152241215
 31
0.0
  0
LINE
  5
142
330
94
100
AcDbEntity
  8
DV1_デフォルト
  6
CONTINUOUS
 62
     7
100
AcDbLine
 10
174.5990882961
 20
114.4564901215
 30
0.0
 11
174.7230998927
 21
114.3324785249
 31
0.0
  0
LINE
  5
143
330
94
100
AcDbEntity
  8
DV1_デフォルト
  6
CONTINUOUS
 62
     7
100
AcDbLine
 10
174.2400882962
 20
114.4858571215
 30
0.0
 11
174.5990882961
 21
114.4858571215
 31
0.0
  0
LINE
  5
144
330
94
100
AcDbEntity
  8
DV1_デフォルト
  6
CONTINUOUS
 62
     7
100
AcDbLine
 10
174.5990882961
 20
131.8858571215
 30
0.0
 11
174.2400882962
 21
131.8858571215
 31
0.0
  0
LINE
  5
145
330
94
100
AcDbEntity
  8
DV1_デフォルト
  6
CONTINUOUS
 62
     7
100
AcDbLine
 10
178.2230998927
 20
113.5358571215
 30
0.0
 11
178.2230998927
 21
132.8358571215
 31
0.0
  0
LINE
  5
146
330
94
100
AcDbEntity
  8
DV1_デフォルト
  6
CONTINUOUS
 62
     7
100
AcDbLine
 10
178.0230998927
 20
113.3358571215
 30
0.0
 11
178.0230998927
 21
133.0358571215
 31
0.0
  0
LINE
  5
147
330
94
100
AcDbEntity
  8
DV1_デフォルト
  6
CONTINUOUS
 62
     7
100
AcDbLine
 10
174.9230998927
 20
113.3358571215
 30
0.0
 11
174.9230998927
 21
133.0358571215
 31
0.0
  0
LINE
  5
148
330
94
100
AcDbEntity
  8
DV1_デフォルト
  6
CONTINUOUS
 62
     7
100
AcDbLine
 10
174.7230998927
 20
113.5358571215
 30
0.0
 11
174.7230998927
 21
132.8358571215
 31
0.0
  0
LINE
  5
149
330
94
100
AcDbEntity
  8
DV1_デフォルト
  6
CONTINUOUS
 62
     7
100
AcDbLine
 10
178.0230998927
 20
113.3358571215
 30
0.0
 11
178.2230998927
 21
113.5358571215
 31
0.0
  0
LINE
  5
14A
330
94
100
AcDbEntity
  8
DV1_デフォルト
  6
CONTINUOUS
 62
     7
100
AcDbLine
 10
178.2230998927
 20
132.8358571215
 30
0.0
 11
178.0230998927
 21
133.0358571215
 31
0.0
  0
LINE
  5
14B
330
94
100
AcDbEntity
  8
DV1_デフォルト
  6
CONTINUOUS
 62
     7
100
AcDbLine
 10
174.9230998927
 20
113.3358571215
 30
0.0
 11
178.0230998927
 21
113.3358571215
 31
0.0
  0
LINE
  5
14C
330
94
100
AcDbEntity
  8
DV1_デフォルト
  6
CONTINUOUS
 62
     7
100
AcDbLine
 10
178.0230998927
 20
133.0358571215
 30
0.0
 11
174.9230998927
 21
133.0358571215
 31
0.0
  0
LINE
  5
14D
330
94
100
AcDbEntity
  8
DV1_デフォルト
  6
CONTINUOUS
 62
     7
100
AcDbLine
 10
174.9230998927
 20
133.0358571215
 30
0.0
 11
174.7230998927
 21
132.8358571215
 31
0.0
  0
LINE
  5
14E
330
94
100
AcDbEntity
  8
DV1_デフォルト
  6
CONTINUOUS
 62
     7
100
AcDbLine
 10
174.7230998927
 20
113.5358571215
 30
0.0
 11
174.9230998927
 21
113.3358571215
 31
0.0
  0
CIRCLE
  5
14F
330
94
100
AcDbEntity
  8
DV1_デフォルト
  6
CONTINUOUS
 62
     7
100
AcDbCircle
 10
166.9900819975
 20
123.206413594
 30
0.0
 40
0.8475751983288808
  0
LINE
  5
150
330
94
100
AcDbEntity
  8
DV1_デフォルト
  6
CONTINUOUS
 62
     7
100
AcDbLine
 10
166.215491627
 20
122.860080279
 30
0.0
 11
167.7646849655
 21
122.860080279
 31
0.0
  0
LINE
  5
151
330
94
100
AcDbEntity
  8
DV1_デフォルト
  6
CONTINUOUS
 62
     7
100
AcDbLine
 10
166.215491627
 20
123.5562456057
 30
0.0
 11
167.7646849655
 21
123.5562456057
 31
0.0
  0
LINE
  5
153
330
94
100
AcDbEntity
  8
DV1_デフォルト
  6
CENTER2
 62
     7
100
AcDbLine
 10
124.0897281972
 20
123.1858571215
 30
0.0
 11
179.2343671756
 21
123.1858571215
 31
0.0
  0
LINE
  5
154
330
94
100
AcDbEntity
  8
DV1_デフォルト
  6
CENTER2
 62
     7
100
AcDbLine
 10
171.2900882962
 20
135.1858571215
 30
0.0
 11
174.2400882962
 21
135.1858571215
 31
0.0
  0
LINE
  5
155
330
94
100
AcDbEntity
  8
DV1_デフォルト
  6
CENTER2
 62
     7
100
AcDbLine
 10
171.2900882962
 20
111.1858571215
 30
0.0
 11
174.2400882962
 21
111.1858571215
 31
0.0
  0
LINE
  5
156
330
94
100
AcDbEntity
  8
DV1_デフォルト
  6
CONTINUOUS
 62
     7
100
AcDbLine
 10
156.5400882962
 20
109.4017836517
 30
0.0
 11
158.5400882962
 21
109.4017836517
 31
0.0
  0
LINE
  5
157
330
94
100
AcDbEntity
  8
DV1_デフォルト
  6
CONTINUOUS
 62
     7
100
AcDbLine
 10
158.7400882962
 20
122.9358571215
 30
0.0
 11
155.6400882962
 21
122.9358571215
 31
0.0
  0
ENDBLK
  5
159
330
94
100
AcDbEntity
  8
0
100
AcDbBlockEnd
  0
ENDSEC
  0
SECTION
  2
ENTITIES
  0
INSERT
  5
3D
330
1F
100
AcDbEntity
  8
DEFAULT
100
AcDbBlockReference
  2
GDIMGGROUP
 10
0.0
 20
0.0
 30
0.0
  0
INSERT
  5
6A
330
1F
100
AcDbEntity
  8
DEFAULT
100
AcDbBlockReference
  2
GDIMGGROUP1
 10
0.0
 20
0.0
 30
0.0
  0
INSERT
  5
74
330
1F
100
AcDbEntity
  8
DEFAULT
100
AcDbBlockReference
  2
GDIMGGROUP2
 10
0.0
 20
0.0
 30
0.0
  0
INSERT
  5
7E
330
1F
100
AcDbEntity
  8
DEFAULT
100
AcDbBlockReference
  2
GDIMGGROUP3
 10
0.0
 20
0.0
 30
0.0
  0
INSERT
  5
8A
330
1F
100
AcDbEntity
  8
DEFAULT
100
AcDbBlockReference
  2
GDIMGGROUP4
 10
0.0
 20
0.0
 30
0.0
  0
INSERT
  5
95
330
1F
100
AcDbEntity
  8
DEFAULT
100
AcDbBlockReference
  2
SE
 10
0.0
 20
0.0
 30
0.0
  0
ENDSEC
  0
SECTION
  2
OBJECTS
  0
DICTIONARY
  5
C
330
0
100
AcDbDictionary
  3
ACAD_GROUP
350
D
  3
ACAD_LAYOUT
350
1A
  3
ACAD_MLEADERSTYLE
350
15C
  3
ACAD_MLINESTYLE
350
17
  3
ACAD_PLOTSETTINGS
350
19
  3
ACAD_SCALELIST
350
43
  3
ACAD_VISUALSTYLE
350
2A
  3
ACDBVARIABLEDICTIONARY
350
15A
1001
ACAD
1000
TREAT_AS_HARD
1070
     0
  0
DICTIONARY
  5
D
102
{ACAD_REACTORS
330
C
102
}
330
C
100
AcDbDictionary
1001
ACAD
1000
TREAT_AS_HARD
1070
     0
  0
DICTIONARY
  5
1A
102
{ACAD_REACTORS
330
C
102
}
330
C
100
AcDbDictionary
1001
ACAD
1000
TREAT_AS_HARD
1070
     0
  0
DICTIONARY
  5
15C
102
{ACAD_REACTORS
330
C
102
}
330
C
100
AcDbDictionary
1001
ACAD
1000
TREAT_AS_HARD
1070
     0
  0
DICTIONARY
  5
17
102
{ACAD_REACTORS
330
C
102
}
330
C
100
AcDbDictionary
  3
STANDARD
350
18
1001
ACAD
1000
TREAT_AS_HARD
1070
     0
  0
DICTIONARY
  5
19
102
{ACAD_REACTORS
330
C
102
}
330
C
100
AcDbDictionary
1001
ACAD
1000
TREAT_AS_HARD
1070
     0
  0
DICTIONARY
  5
43
102
{ACAD_REACTORS
330
C
102
}
330
C
100
AcDbDictionary
  3
A0
350
44
  3
A1
350
45
  3
A2
350
46
  3
A3
350
47
  3
A4
350
48
  3
A5
350
49
  3
A6
350
4A
  3
A7
350
4B
  3
A8
350
4C
  3
A9
350
4D
  3
B0
350
4E
  3
B1
350
4F
  3
B2
350
50
  3
B3
350
51
  3
B4
350
52
  3
B5
350
53
  3
B6
350
54
  3
B7
350
55
  3
B8
350
56
  3
B9
350
57
  3
C0
350
58
  3
C1
350
59
  3
C2
350
5A
  3
C3
350
5B
  3
C4
350
5C
  3
C5
350
5D
  3
C6
350
5E
  3
C7
350
5F
  3
C8
350
60
  3
C9
350
61
  3
D0
350
62
  3
D1
350
63
  3
D2
350
64
1001
ACAD
1000
TREAT_AS_HARD
1070
     0
  0
DICTIONARY
  5
2A
102
{ACAD_REACTORS
330
C
102
}
330
C
100
AcDbDictionary
  3
2DWIREFRAME
350
2F
  3
3D_HIDDEN
350
31
  3
3DWIREFRAME
350
30
  3
BASIC
350
32
  3
BRIGHTEN
350
36
  3
COLORCHANGE
350
3A
  3
CONCEPTUAL
350
34
  3
DIM
350
35
  3
FACEPATTERN
350
39
  3
FLAT
350
2B
  3
FLATWITHEDGES
350
2C
  3
GOURAUD
350
2D
  3
GOURAUDWITHEDGES
350
2E
  3
LINEPATTERN
350
38
  3
REALISTIC
350
33
  3
THICKEN
350
37
1001
ACAD
1000
TREAT_AS_HARD
1070
     0
  0
DICTIONARY
  5
15A
102
{ACAD_REACTORS
330
C
102
}
330
C
100
AcDbDictionary
  3
CANNOSCALE
350
15F
  3
PSOLHEIGHT
350
15E
  3
PSOLWIDTH
350
15D
1001
ACAD
1000
TREAT_AS_HARD
1070
     0
  0
MLINESTYLE
  5
18
102
{ACAD_REACTORS
330
17
102
}
330
17
100
AcDbMlineStyle
  2
Standard
 70
     0
  3

 62
   256
 51
90.0
 52
90.0
 71
     2
 49
0.5
 62
   256
  6
BYLAYER
 49
-0.5
 62
   256
  6
BYLAYER
  0
ACAD_PROXY_OBJECT
  5
44
102
{ACAD_REACTORS
330
43
102
}
330
43
100
AcDbZombieObject
 90
      499
 91
      502
 93
       41
310
903313A31580
  0
ACAD_PROXY_OBJECT
  5
45
102
{ACAD_REACTORS
330
43
102
}
330
43
100
AcDbZombieObject
 90
      499
 91
      502
 93
      105
310
903313A324000000000000004000
  0
ACAD_PROXY_OBJECT
  5
46
102
{ACAD_REACTORS
330
43
102
}
330
43
100
AcDbZombieObject
 90
      499
 91
      502
 93
      105
310
903313A344000000000000104000
  0
ACAD_PROXY_OBJECT
  5
47
102
{ACAD_REACTORS
330
43
102
}
330
43
100
AcDbZombieObject
 90
      499
 91
      502
 93
      105
310
903313A354000000000000144000
  0
ACAD_PROXY_OBJECT
  5
48
102
{ACAD_REACTORS
330
43
102
}
330
43
100
AcDbZombieObject
 90
      499
 91
      502
 93
      105
310
903313A384000000000000204000
  0
ACAD_PROXY_OBJECT
  5
49
102
{ACAD_REACTORS
330
43
102
}
330
43
100
AcDbZombieObject
 90
      499
 91
      502
 93
      113
310
904313A31304000000000000244000
  0
ACAD_PROXY_OBJECT
  5
4A
102
{ACAD_REACTORS
330
43
102
}
330
43
100
AcDbZombieObject
 90
      499
 91
      502
 93
      113
310
904313A31364000000000000304000
  0
ACAD_PROXY_OBJECT
  5
4B
102
{ACAD_REACTORS
330
43
102
}
330
43
100
AcDbZombieObject
 90
      499
 91
      502
 93
      113
310
904313A32304000000000000344000
  0
ACAD_PROXY_OBJECT
  5
4C
102
{ACAD_REACTORS
330
43
102
}
330
43
100
AcDbZombieObject
 90
      499
 91
      502
 93
      113
310
904313A333040000000000003E4000
  0
ACAD_PROXY_OBJECT
  5
4D
102
{ACAD_REACTORS
330
43
102
}
330
43
100
AcDbZombieObject
 90
      499
 91
      502
 93
      113
310
904313A34304000000000000444000
  0
ACAD_PROXY_OBJECT
  5
4E
102
{ACAD_REACTORS
330
43
102
}
330
43
100
AcDbZombieObject
 90
      499
 91
      502
 93
      113
310
904313A35304000000000000494000
  0
ACAD_PROXY_OBJECT
  5
4F
102
{ACAD_REACTORS
330
43
102
}
330
43
100
AcDbZombieObject
 90
      499
 91
      502
 93
      121
310
905313A3130304000000000000594000
  0
ACAD_PROXY_OBJECT
  5
50
102
{ACAD_REACTORS
330
43
102
}
330
43
100
AcDbZombieObject
 90
      499
 91
      502
 93
      105
310
903323A310000000000000010100
  0
ACAD_PROXY_OBJECT
  5
51
102
{ACAD_REACTORS
330
43
102
}
330
43
100
AcDbZombieObject
 90
      499
 91
      502
 93
      105
310
903343A310000000000000410100
  0
ACAD_PROXY_OBJECT
  5
52
102
{ACAD_REACTORS
330
43
102
}
330
43
100
AcDbZombieObject
 90
      499
 91
      502
 93
      105
310
903383A310000000000000810100
  0
ACAD_PROXY_OBJECT
  5
53
102
{ACAD_REACTORS
330
43
102
}
330
43
100
AcDbZombieObject
 90
      499
 91
      502
 93
      113
310
90431303A310000000000000910100
  0
ACAD_PROXY_OBJECT
  5
54
102
{ACAD_REACTORS
330
43
102
}
330
43
100
AcDbZombieObject
 90
      499
 91
      502
 93
      121
310
9053130303A310000000000001650100
  0
ACAD_PROXY_OBJECT
  5
55
102
{ACAD_REACTORS
330
43
102
}
330
43
100
AcDbZombieObject
 90
      499
 91
      502
 93
      257
310
90E312F31323822203D2031272D3022000000000000200FC000000000000284000
  0
ACAD_PROXY_OBJECT
  5
56
102
{ACAD_REACTORS
330
43
102
}
330
43
100
AcDbZombieObject
 90
      499
 91
      502
 93
      249
310
90D312F363422203D2031272D3022000000000000240FC000000000000284000
  0
ACAD_PROXY_OBJECT
  5
57
102
{ACAD_REACTORS
330
43
102
}
330
43
100
AcDbZombieObject
 90
      499
 91
      502
 93
      249
310
90D312F333222203D2031272D3022000000000000280FC000000000000284000
  0
ACAD_PROXY_OBJECT
  5
58
102
{ACAD_REACTORS
330
43
102
}
330
43
100
AcDbZombieObject
 90
      499
 91
      502
 93
      249
310
90D312F313622203D2031272D30220000000000002C0FC000000000000284000
  0
ACAD_PROXY_OBJECT
  5
59
102
{ACAD_REACTORS
330
43
102
}
330
43
100
AcDbZombieObject
 90
      499
 91
      502
 93
      249
310
90D332F333222203D2031272D30220000000000002E0FC000000000000284000
  0
ACAD_PROXY_OBJECT
  5
5A
102
{ACAD_REACTORS
330
43
102
}
330
43
100
AcDbZombieObject
 90
      499
 91
      502
 93
      241
310
90C312F3822203D2031272D3022000000000000300FC000000000000284000
  0
ACAD_PROXY_OBJECT
  5
5B
102
{ACAD_REACTORS
330
43
102
}
330
43
100
AcDbZombieObject
 90
      499
 91
      502
 93
      249
310
90D332F313622203D2031272D3022000000000000320FC000000000000284000
  0
ACAD_PROXY_OBJECT
  5
5C
102
{ACAD_REACTORS
330
43
102
}
330
43
100
AcDbZombieObject
 90
      499
 91
      502
 93
      241
310
90C312F3422203D2031272D3022000000000000340FC000000000000284000
  0
ACAD_PROXY_OBJECT
  5
5D
102
{ACAD_REACTORS
330
43
102
}
330
43
100
AcDbZombieObject
 90
      499
 91
      502
 93
      241
310
90C332F3822203D2031272D3022000000000000360FC000000000000284000
  0
ACAD_PROXY_OBJECT
  5
5E
102
{ACAD_REACTORS
330
43
102
}
330
43
100
AcDbZombieObject
 90
      499
 91
      502
 93
      241
310
90C312F3222203D2031272D3022000000000000380FC000000000000284000
  0
ACAD_PROXY_OBJECT
  5
5F
102
{ACAD_REACTORS
330
43
102
}
330
43
100
AcDbZombieObject
 90
      499
 91
      502
 93
      241
310
90C332F3422203D2031272D30220000000000003A0FC000000000000284000
  0
ACAD_PROXY_OBJECT
  5
60
102
{ACAD_REACTORS
330
43
102
}
330
43
100
AcDbZombieObject
 90
      499
 91
      502
 93
      161
310
90A3122203D2031272D30224000000000000284000
  0
ACAD_PROXY_OBJECT
  5
61
102
{ACAD_REACTORS
330
43
102
}
330
43
100
AcDbZombieObject
 90
      499
 91
      502
 93
      257
310
90E312D312F3222203D2031272D30220000000000003E0FC000000000000284000
  0
ACAD_PROXY_OBJECT
  5
62
102
{ACAD_REACTORS
330
43
102
}
330
43
100
AcDbZombieObject
 90
      499
 91
      502
 93
      225
310
90A3322203D2031272D302200000000000002100000000000000284000
  0
ACAD_PROXY_OBJECT
  5
63
102
{ACAD_REACTORS
330
43
102
}
330
43
100
AcDbZombieObject
 90
      499
 91
      502
 93
      225
310
90A3622203D2031272D302200000000000006100000000000000284000
  0
ACAD_PROXY_OBJECT
  5
64
102
{ACAD_REACTORS
330
43
102
}
330
43
100
AcDbZombieObject
 90
      499
 91
      502
 93
      249
310
90D31272D3022203D2031272D30220000000000000A100000000000000284000
  0
ACAD_PROXY_OBJECT
  5
2F
102
{ACAD_REACTORS
330
2A
102
}
330
2A
100
AcDbZombieObject
 90
      499
 91
      501
 93
      436
310
42CC9915DA5C99599C985B595049028333333333333E3BF0000000000000FB0107901411070040501600405405064090741402480A0340
1001
ACAD
1000
AcDbSavedByObjectVersion
1070
     0
  0
ACAD_PROXY_OBJECT
  5
31
102
{ACAD_REACTORS
330
2A
102
}
330
2A
100
AcDbZombieObject
 90
      499
 91
      501
 93
      500
310
424CD108121A5919195B90640502408333333333333E3BF0000000000000FB01079024090700405020000000000001110200405405064090740C02480A0340
1001
ACAD
1000
AcDbSavedByObjectVersion
1070
     0
  0
ACAD_PROXY_OBJECT
  5
30
102
{ACAD_REACTORS
330
2A
102
}
330
2A
100
AcDbZombieObject
 90
      499
 91
      501
 93
      436
310
42CCD915DA5C99599C985B595059028333333333333E3BF0000000000000FB0107901411070040501600405405064090741402480A0340
1001
ACAD
1000
AcDbSavedByObjectVersion
1070
     0
  0
ACAD_PROXY_OBJECT
  5
32
102
{ACAD_REACTORS
330
2A
102
}
330
2A
100
AcDbZombieObject
 90
      499
 91
      501
 93
      388
310
4150985CDA58D07406404333333333333E3BF0000000000000FB0107A41107004050150841D405064090741402480A0350
1001
ACAD
1000
AcDbSavedByObjectVersion
1070
     0
  0
ACAD_PROXY_OBJECT
  5
36
102
{ACAD_REACTORS
330
2A
102
}
330
2A
100
AcDbZombieObject
 90
      499
 91
      501
 93
      428
310
42109C9A59DA1D195B90C409028333333333333E3BF0000000000000FB010790141107004050150841D405064090741402480A029950
1001
ACAD
1000
AcDbSavedByObjectVersion
1070
     0
  0
ACAD_PROXY_OBJECT
  5
3A
102
{ACAD_REACTORS
330
2A
102
}
330
2A
100
AcDbZombieObject
 90
      499
 91
      501
 93
      452
310
42D0DBDB1BDC90DA185B99D95104090240C333333333333E3BF0000000000000FB0108901411070040501508421405064090741402480A0350
1001
ACAD
1000
AcDbSavedByObjectVersion
1070
     0
  0
ACAD_PROXY_OBJECT
  5
34
102
{ACAD_REACTORS
330
2A
102
}
330
2A
100
AcDbZombieObject
 90
      499
 91
      501
 93
      500
310
4290DBDB98D95C1D1D585B10940D028333333333333E3BF0000000000000FB0107902409070040501000000000000111010841D405064090740C02480A0340
1001
ACAD
1000
AcDbSavedByObjectVersion
1070
     0
  0
ACAD_PROXY_OBJECT
  5
35
102
{ACAD_REACTORS
330
2A
102
}
330
2A
100
AcDbZombieObject
 90
      499
 91
      501
 93
      412
310
40D11A5B50B409028333333333333E3BF0000000000000FB010790141107004050150841D405064090741402480A02677FFFFFD0
1001
ACAD
1000
AcDbSavedByObjectVersion
1070
     0
  0
ACAD_PROXY_OBJECT
  5
39
102
{ACAD_REACTORS
330
2A
102
}
330
2A
100
AcDbZombieObject
 90
      499
 91
      501
 93
      444
310
42D19858D95C185D1D195C9B90F409028333333333333E3BF0000000000000FB010790141107004050150841D405064090741402480A0350
1001
ACAD
1000
AcDbSavedByObjectVersion
1070
     0
  0
ACAD_PROXY_OBJECT
  5
2B
102
{ACAD_REACTORS
330
2A
102
}
330
2A
100
AcDbZombieObject
 90
      499
 91
      501
 93
      388
310
41119B185D240901404333333333333E3BF0000000000000F9010740A41107004050150841D405064090741402480A1B50
1001
ACAD
1000
AcDbSavedByObjectVersion
1070
     0
  0
ACAD_PROXY_OBJECT
  5
2C
102
{ACAD_REACTORS
330
2A
102
}
330
2A
100
AcDbZombieObject
 90
      499
 91
      501
 93
      476
310
43519B185D15DA5D1A115919D95CD0140901404333333333333E3BF0000000000000F9010740901411070040501600405405064090741402480A1B50
1001
ACAD
1000
AcDbSavedByObjectVersion
1070
     0
  0
ACAD_PROXY_OBJECT
  5
2D
102
{ACAD_REACTORS
330
2A
102
}
330
2A
100
AcDbZombieObject
 90
      499
 91
      501
 93
      412
310
41D1DBDD5C985D5910240902404333333333333E3BF0000000000000F9010740A411070040501641D405064090741402480A1B50
1001
ACAD
1000
AcDbSavedByObjectVersion
1070
     0
  0
ACAD_PROXY_OBJECT
  5
2E
102
{ACAD_REACTORS
330
2A
102
}
330
2A
100
AcDbZombieObject
 90
      499
 91
      501
 93
      500
310
4411DBDD5C985D5915DA5D1A115919D95CD0340902404333333333333E3BF0000000000000F9010740901411070040501600405405064090741402480A1B50
1001
ACAD
1000
AcDbSavedByObjectVersion
1070
     0
  0
ACAD_PROXY_OBJECT
  5
38
102
{ACAD_REACTORS
330
2A
102
}
330
2A
100
AcDbZombieObject
 90
      499
 91
      501
 93
      444
310
42D31A5B995C185D1D195C9B90E409028333333333333E3BF0000000000000FB010790141107004050750841D405064090741402483A0350
1001
ACAD
1000
AcDbSavedByObjectVersion
1070
     0
  0
ACAD_PROXY_OBJECT
  5
33
102
{ACAD_REACTORS
330
2A
102
}
330
2A
100
AcDbZombieObject
 90
      499
 91
      501
 93
      420
310
425499585B1A5CDD1A58D08409028333333333333E3BF0000000000000FB01079019070040501508421405064090741402480A1B40
1001
ACAD
1000
AcDbSavedByObjectVersion
1070
     0
  0
ACAD_PROXY_OBJECT
  5
37
102
{ACAD_REACTORS
330
2A
102
}
330
2A
100
AcDbZombieObject
 90
      499
 91
      501
 93
      412
310
41D51A1A58DAD95B90D409028333333333333E3BF0000000000000FB010790141107004050150C41D405064090741402480A0350
1001
ACAD
1000
AcDbSavedByObjectVersion
1070
     0
  0
DICTIONARYVAR
  5
15F
102
{ACAD_REACTORS
330
15A
102
}
330
15A
100
DictionaryVariables
280
     0
  1
1:1
  0
DICTIONARYVAR
  5
15E
102
{ACAD_REACTORS
330
15A
102
}
330
15A
100
DictionaryVariables
280
     0
  1
80.000000
  0
DICTIONARYVAR
  5
15D
102
{ACAD_REACTORS
330
15A
102
}
330
15A
100
DictionaryVariables
280
     0
  1
5.000000
  0
ENDSEC
  0
EOF
