  0
SECTION
  2
HEADER
  9
$ACADVER
  1
AC1012
  9
$DWGCODEPAGE
  3
ansi_932
  9
$INSBASE
 10
0.0
 20
0.0
 30
0.0
  9
$EXTMIN
 10
0.0
 20
0.0
 30
0.0
  9
$EXTMAX
 10
297.0
 20
210.0
 30
0.0
  9
$LIMMIN
 10
0.0
 20
0.0
  9
$LIMMAX
 10
297.0
 20
210.0
  9
$ORTHOMODE
 70
     0
  9
$REGENMODE
 70
     1
  9
$FILLMODE
 70
     1
  9
$QTEXTMODE
 70
     0
  9
$MIRRTEXT
 70
     1
  9
$DRAGMODE
 70
     2
  9
$LTSCALE
 40
1.0
  9
$OSMODE
 70
    37
  9
$ATTMODE
 70
     1
  9
$TEXTSIZE
 40
2.5
  9
$TRACEWID
 40
1.0
  9
$TEXTSTYLE
  7
STANDARD
  9
$CLAYER
  8
0
  9
$CELTYPE
  6
BYLAYER
  9
$CECOLOR
 62
   256
  9
$CELTSCALE
 40
1.0
  9
$DELOBJ
 70
     1
  9
$DISPSILH
 70
     0
  9
$DIMSCALE
 40
1.0
  9
$DIMASZ
 40
2.5
  9
$DIMEXO
 40
0.625
  9
$DIMDLI
 40
3.75
  9
$DIMRND
 40
0.0
  9
$DIMDLE
 40
0.0
  9
$DIMEXE
 40
1.25
  9
$DIMTP
 40
0.0
  9
$DIMTM
 40
0.0
  9
$DIMTXT
 40
2.5
  9
$DIMCEN
 40
2.5
  9
$DIMTSZ
 40
0.0
  9
$DIMTOL
 70
     0
  9
$DIMLIM
 70
     0
  9
$DIMTIH
 70
     0
  9
$DIMTOH
 70
     0
  9
$DIMSE1
 70
     0
  9
$DIMSE2
 70
     0
  9
$DIMTAD
 70
     1
  9
$DIMZIN
 70
     8
  9
$DIMBLK
  1

  9
$DIMASO
 70
     1
  9
$DIMSHO
 70
     1
  9
$DIMPOST
  1

  9
$DIMAPOST
  1

  9
$DIMALT
 70
     0
  9
$DIMALTD
 70
     3
  9
$DIMALTF
 40
0.0393700787
  9
$DIMLFAC
 40
1.0
  9
$DIMTOFL
 70
     1
  9
$DIMTVP
 40
0.0
  9
$DIMTIX
 70
     0
  9
$DIMSOXD
 70
     0
  9
$DIMSAH
 70
     0
  9
$DIMBLK1
  1

  9
$DIMBLK2
  1

  9
$DIMSTYLE
  2
ISO-25
  9
$DIMCLRD
 70
     0
  9
$DIMCLRE
 70
     0
  9
$DIMCLRT
 70
     0
  9
$DIMTFAC
 40
1.0
  9
$DIMGAP
 40
0.625
  9
$DIMJUST
 70
     0
  9
$DIMSD1
 70
     0
  9
$DIMSD2
 70
     0
  9
$DIMTOLJ
 70
     0
  9
$DIMTZIN
 70
     8
  9
$DIMALTZ
 70
     0
  9
$DIMALTTZ
 70
     0
  9
$DIMFIT
 70
     3
  9
$DIMUPT
 70
     0
  9
$DIMUNIT
 70
     2
  9
$DIMDEC
 70
     2
  9
$DIMTDEC
 70
     2
  9
$DIMALTU
 70
     2
  9
$DIMALTTD
 70
     3
  9
$DIMTXSTY
  7
STANDARD
  9
$DIMAUNIT
 70
     0
  9
$LUNITS
 70
     2
  9
$LUPREC
 70
     4
  9
$SKETCHINC
 40
1.0
  9
$FILLETRAD
 40
10.0
  9
$AUNITS
 70
     0
  9
$AUPREC
 70
     0
  9
$MENU
  1
.
  9
$ELEVATION
 40
0.0
  9
$PELEVATION
 40
0.0
  9
$THICKNESS
 40
0.0
  9
$LIMCHECK
 70
     0
  9
$CHAMFERA
 40
10.0
  9
$CHAMFERB
 40
10.0
  9
$CHAMFERC
 40
20.0
  9
$CHAMFERD
 40
0.0
  9
$SKPOLY
 70
     0
  9
$TDCREATE
 40
2456542.647611921
  9
$TDUPDATE
 40
2456542.647611933
  9
$TDINDWG
 40
0.0000000116
  9
$TDUSRTIMER
 40
0.0000000116
  9
$USRTIMER
 70
     1
  9
$ANGBASE
 50
0.0
  9
$ANGDIR
 70
     0
  9
$PDMODE
 70
     0
  9
$PDSIZE
 40
0.0
  9
$PLINEWID
 40
0.0
  9
$COORDS
 70
     1
  9
$SPLFRAME
 70
     0
  9
$SPLINETYPE
 70
     6
  9
$SPLINESEGS
 70
     8
  9
$ATTDIA
 70
     0
  9
$ATTREQ
 70
     1
  9
$HANDLING
 70
     1
  9
$HANDSEED
  5
1EC
  9
$SURFTAB1
 70
     6
  9
$SURFTAB2
 70
     6
  9
$SURFTYPE
 70
     6
  9
$SURFU
 70
     6
  9
$SURFV
 70
     6
  9
$UCSNAME
  2

  9
$UCSORG
 10
0.0
 20
0.0
 30
0.0
  9
$UCSXDIR
 10
1.0
 20
0.0
 30
0.0
  9
$UCSYDIR
 10
0.0
 20
1.0
 30
0.0
  9
$PUCSNAME
  2

  9
$PUCSORG
 10
0.0
 20
0.0
 30
0.0
  9
$PUCSXDIR
 10
1.0
 20
0.0
 30
0.0
  9
$PUCSYDIR
 10
0.0
 20
1.0
 30
0.0
  9
$USERI1
 70
     0
  9
$USERI2
 70
     0
  9
$USERI3
 70
     0
  9
$USERI4
 70
     0
  9
$USERI5
 70
     0
  9
$USERR1
 40
0.0
  9
$USERR2
 40
0.0
  9
$USERR3
 40
0.0
  9
$USERR4
 40
0.0
  9
$USERR5
 40
0.0
  9
$WORLDVIEW
 70
     1
  9
$SHADEDGE
 70
     3
  9
$SHADEDIF
 70
    70
  9
$TILEMODE
 70
     1
  9
$MAXACTVP
 70
    64
  9
$PINSBASE
 10
0.0
 20
0.0
 30
0.0
  9
$PLIMCHECK
 70
     0
  9
$PEXTMIN
 10
0.0
 20
0.0
 30
0.0
  9
$PEXTMAX
 10
297.0
 20
210.0
 30
0.0
  9
$PLIMMIN
 10
0.0
 20
0.0
  9
$PLIMMAX
 10
297.0
 20
210.0
  9
$UNITMODE
 70
     0
  9
$VISRETAIN
 70
     1
  9
$PLINEGEN
 70
     0
  9
$PSLTSCALE
 70
     1
  9
$TREEDEPTH
 70
  3020
  9
$PICKSTYLE
 70
     1
  9
$CMLSTYLE
  2
STANDARD
  9
$CMLJUST
 70
     0
  9
$CMLSCALE
 40
20.0
  9
$SAVEIMAGES
 70
     1
  0
ENDSEC
  0
SECTION
  2
CLASSES
  0
CLASS
  1
ACDBDICTIONARYWDFLT
  2
AcDbDictionaryWithDefault
  3
ObjectDBX Classes
 90
    32768
280
     0
281
     0
  0
CLASS
  1
VISUALSTYLE
  2
AcDbVisualStyle
  3
ObjectDBX Classes
 90
     4095
280
     0
281
     0
  0
CLASS
  1
SCALE
  2
AcDbScale
  3
ObjectDBX Classes
 90
     1153
280
     0
281
     0
  0
CLASS
  1
DICTIONARYVAR
  2
AcDbDictionaryVar
  3
ObjectDBX Classes
 90
        0
280
     0
281
     0
  0
CLASS
  1
XRECORD
  2
AcDbXrecord
  3
AutoCAD 2000
 90
    32768
280
     0
281
     0
  0
CLASS
  1
LWPOLYLINE
  2
AcDbPolyline
  3
AutoCAD 2000
 90
    32768
280
     0
281
     1
  0
CLASS
  1
HATCH
  2
AcDbHatch
  3
AutoCAD 2000
 90
    32768
280
     0
281
     1
  0
CLASS
  1
ACDBPLACEHOLDER
  2
AcDbPlaceHolder
  3
ObjectDBX Classes
 90
        0
280
     0
281
     0
  0
CLASS
  1
LAYOUT
  2
AcDbLayout
  3
ObjectDBX Classes
 90
        0
280
     0
281
     0
  0
ENDSEC
  0
SECTION
  2
TABLES
  0
TABLE
  2
VPORT
  5
8
330
0
100
AcDbSymbolTable
 70
     1
  0
VPORT
  5
29
330
8
100
AcDbSymbolTableRecord
100
AcDbViewportTableRecord
  2
*ACTIVE
 70
     0
 10
0.0
 20
0.0
 11
1.0
 21
1.0
 12
344.1869158879
 22
148.5
 13
0.0
 23
0.0
 14
10.0
 24
10.0
 15
10.0
 25
10.0
 16
0.0
 26
0.0
 36
1.0
 17
0.0
 27
0.0
 37
0.0
 40
297.0
 41
1.9729729729
 42
50.0
 43
0.0
 44
0.0
 50
0.0
 51
0.0
 71
     0
 72
   100
 73
     1
 74
     3
 75
     0
 76
     0
 77
     0
 78
     0
  0
ENDTAB
  0
TABLE
  2
LTYPE
  5
5
330
0
100
AcDbSymbolTable
 70
     2
  0
LTYPE
  5
14
330
5
100
AcDbSymbolTableRecord
100
AcDbLinetypeTableRecord
  2
BYBLOCK
 70
     0
  3

 72
    65
 73
     0
 40
0.0
  0
LTYPE
  5
15
330
5
100
AcDbSymbolTableRecord
100
AcDbLinetypeTableRecord
  2
BYLAYER
 70
     0
  3

 72
    65
 73
     0
 40
0.0
  0
LTYPE
  5
16
330
5
100
AcDbSymbolTableRecord
100
AcDbLinetypeTableRecord
  2
CONTINUOUS
 70
     0
  3
Solid line
 72
    65
 73
     0
 40
0.0
  0
LTYPE
  5
1A2
330
5
100
AcDbSymbolTableRecord
100
AcDbLinetypeTableRecord
  2
CENTER2
 70
     0
  3
Center (.5x) ___ _ ___ _ ___ _ ___ _ ___ _ ___
 72
    65
 73
     4
 40
28.575
 49
19.05
 74
     4
 75
     0
340
0
 46
0.0
 50
0.0
 44
0.0
 45
0.0
 49
-3.175
 74
     4
 75
     0
340
0
 46
0.0
 50
0.0
 44
0.0
 45
0.0
 49
3.175
 74
     4
 75
     0
340
0
 46
0.0
 50
0.0
 44
0.0
 45
0.0
 49
-3.175
 74
     4
 75
     0
340
0
 46
0.0
 50
0.0
 44
0.0
 45
0.0
  0
ENDTAB
  0
TABLE
  2
LAYER
  5
2
330
0
100
AcDbSymbolTable
 70
     4
  0
LAYER
  5
10
330
2
100
AcDbSymbolTableRecord
100
AcDbLayerTableRecord
  2
0
 70
     0
 62
     7
  6
CONTINUOUS
  0
LAYER
  5
3B
330
2
100
AcDbSymbolTableRecord
100
AcDbLayerTableRecord
  2
DEFAULT
 70
     0
 62
     7
  6
CONTINUOUS
  0
LAYER
  5
96
330
2
100
AcDbSymbolTableRecord
100
AcDbLayerTableRecord
  2
DV1_デフォルト
 70
     0
 62
     7
  6
CONTINUOUS
  0
LAYER
  5
1A1
330
2
100
AcDbSymbolTableRecord
100
AcDbLayerTableRecord
  2
DV1_ﾃ_ﾌｫﾙﾄ
 70
     0
 62
     7
  6
CONTINUOUS
  0
ENDTAB
  0
TABLE
  2
STYLE
  5
3
330
0
100
AcDbSymbolTable
 70
     3
  0
STYLE
  5
11
330
3
100
AcDbSymbolTableRecord
100
AcDbTextStyleTableRecord
  2
STANDARD
 70
     0
 40
0.0
 41
1.0
 50
0.0
 71
     0
 42
2.5
  3
txt
  4

  0
STYLE
  5
65
330
3
100
AcDbSymbolTableRecord
100
AcDbTextStyleTableRecord
  2
SEACAD_SEANSI_TTF
 70
     0
 40
0.0
 41
1.0
 50
0.0
 71
     0
 42
0.2
  3
seansi.ttf
  4

  0
STYLE
  5
67
330
3
100
AcDbSymbolTableRecord
100
AcDbTextStyleTableRecord
  2
SEACAD_SEMECA1_TTF
 70
     0
 40
0.0
 41
1.0
 50
0.0
 71
     0
 42
0.2
  3
semeca1.ttf
  4

  0
ENDTAB
  0
TABLE
  2
VIEW
  5
6
330
0
100
AcDbSymbolTable
 70
     0
  0
ENDTAB
  0
TABLE
  2
UCS
  5
7
330
0
100
AcDbSymbolTable
 70
     0
  0
ENDTAB
  0
TABLE
  2
APPID
  5
9
330
0
100
AcDbSymbolTable
 70
     1
  0
APPID
  5
12
330
9
100
AcDbSymbolTableRecord
100
AcDbRegAppTableRecord
  2
ACAD
 70
     0
  0
ENDTAB
  0
TABLE
  2
DIMSTYLE
  5
A
330
0
100
AcDbSymbolTable
 70
     1
  0
DIMSTYLE
105
27
330
A
100
AcDbSymbolTableRecord
100
AcDbDimStyleTableRecord
  2
ISO-25
 70
     0
  3

  4

  5

  6

  7

 40
1.0
 41
2.5
 42
0.625
 43
3.75
 44
1.25
 45
0.0
 46
0.0
 47
0.0
 48
0.0
140
2.5
141
2.5
142
0.0
143
0.0393700787
144
1.0
145
0.0
146
1.0
147
0.625
 71
     0
 72
     0
 73
     0
 74
     0
 75
     0
 76
     0
 77
     1
 78
     8
170
     0
171
     3
172
     1
173
     0
174
     0
175
     0
176
     0
177
     0
178
     0
270
     2
271
     2
272
     2
273
     2
274
     3
340
11
275
     0
280
     0
281
     0
282
     0
283
     0
284
     8
285
     0
286
     0
287
     3
288
     0
  0
ENDTAB
  0
TABLE
  2
BLOCK_RECORD
  5
1
330
0
100
AcDbSymbolTable
 70
     8
  0
BLOCK_RECORD
  5
1F
330
1
100
AcDbSymbolTableRecord
100
AcDbBlockTableRecord
  2
*MODEL_SPACE
  0
BLOCK_RECORD
  5
1B
330
1
100
AcDbSymbolTableRecord
100
AcDbBlockTableRecord
  2
*PAPER_SPACE
  0
BLOCK_RECORD
  5
3C
330
1
100
AcDbSymbolTableRecord
100
AcDbBlockTableRecord
  2
GDIMGGROUP
  0
BLOCK_RECORD
  5
6B
330
1
100
AcDbSymbolTableRecord
100
AcDbBlockTableRecord
  2
GDIMGGROUP1
  0
BLOCK_RECORD
  5
75
330
1
100
AcDbSymbolTableRecord
100
AcDbBlockTableRecord
  2
GDIMGGROUP2
  0
BLOCK_RECORD
  5
7F
330
1
100
AcDbSymbolTableRecord
100
AcDbBlockTableRecord
  2
GDIMGGROUP3
  0
BLOCK_RECORD
  5
89
330
1
100
AcDbSymbolTableRecord
100
AcDbBlockTableRecord
  2
GDIMGGROUP4
  0
BLOCK_RECORD
  5
94
330
1
100
AcDbSymbolTableRecord
100
AcDbBlockTableRecord
  2
SE
  0
BLOCK_RECORD
  5
1AB
330
1
100
AcDbSymbolTableRecord
100
AcDbBlockTableRecord
  2
GDIMGGROUP5
  0
ENDTAB
  0
ENDSEC
  0
SECTION
  2
BLOCKS
  0
BLOCK
  5
20
330
1F
100
AcDbEntity
  8
0
100
AcDbBlockBegin
  2
*MODEL_SPACE
 70
     0
 10
0.0
 20
0.0
 30
0.0
  3
*MODEL_SPACE
  1

  0
ENDBLK
  5
21
330
1F
100
AcDbEntity
  8
0
100
AcDbBlockEnd
  0
BLOCK
  5
1C
330
1B
100
AcDbEntity
 67
     1
  8
0
100
AcDbBlockBegin
  2
*PAPER_SPACE
 70
     0
 10
0.0
 20
0.0
 30
0.0
  3
*PAPER_SPACE
  1

  0
ENDBLK
  5
1D
330
1B
100
AcDbEntity
 67
     1
  8
0
100
AcDbBlockEnd
  0
BLOCK
  5
69
330
3C
100
AcDbEntity
  8
0
100
AcDbBlockBegin
  2
GDIMGGROUP
 70
     0
 10
0.0
 20
0.0
 30
0.0
  3
GDIMGGROUP
  1

  0
POLYLINE
  5
3E
330
3C
100
AcDbEntity
  8
DEFAULT
  6
CONTINUOUS
 62
   136
100
AcDb2dPolyline
 66
     1
 10
0.0
 20
0.0
 30
0.0
  0
VERTEX
  5
1BC
330
3E
100
AcDbEntity
  8
DEFAULT
  6
CONTINUOUS
 62
   136
100
AcDbVertex
100
AcDb2dVertex
 10
104.7553064157
 20
139.4535889229
 30
0.0
  0
VERTEX
  5
1BD
330
3E
100
AcDbEntity
  8
DEFAULT
  6
CONTINUOUS
 62
   136
100
AcDbVertex
100
AcDb2dVertex
 10
104.2219730958
 20
142.6535888421
 30
0.0
  0
VERTEX
  5
1BE
330
3E
100
AcDbEntity
  8
DEFAULT
  6
CONTINUOUS
 62
   136
100
AcDbVertex
100
AcDb2dVertex
 10
103.688639776
 20
139.4535889229
 30
0.0
  0
SEQEND
  5
1BF
330
3E
100
AcDbEntity
  8
DEFAULT
  6
CONTINUOUS
 62
   136
  0
POLYLINE
  5
3F
330
3C
100
AcDbEntity
  8
DEFAULT
  6
CONTINUOUS
 62
   136
100
AcDb2dPolyline
 66
     1
 10
0.0
 20
0.0
 30
0.0
  0
VERTEX
  5
1C0
330
3F
100
AcDbEntity
  8
DEFAULT
  6
CONTINUOUS
 62
   136
100
AcDbVertex
100
AcDb2dVertex
 10
104.7553064157
 20
97.853588344
 30
0.0
  0
VERTEX
  5
1C1
330
3F
100
AcDbEntity
  8
DEFAULT
  6
CONTINUOUS
 62
   136
100
AcDbVertex
100
AcDb2dVertex
 10
104.2219730958
 20
94.6535884248
 30
0.0
  0
VERTEX
  5
1C2
330
3F
100
AcDbEntity
  8
DEFAULT
  6
CONTINUOUS
 62
   136
100
AcDbVertex
100
AcDb2dVertex
 10
103.688639776
 20
97.853588344
 30
0.0
  0
SEQEND
  5
1C3
330
3F
100
AcDbEntity
  8
DEFAULT
  6
CONTINUOUS
 62
   136
  0
LINE
  5
40
330
3C
100
AcDbEntity
  8
DEFAULT
  6
CONTINUOUS
 62
   136
100
AcDbLine
 10
114.9112721838
 20
142.6535888421
 30
0.0
 11
102.6219731363
 21
142.6535888421
 31
0.0
  0
LINE
  5
41
330
3C
100
AcDbEntity
  8
DEFAULT
  6
CONTINUOUS
 62
   136
100
AcDbLine
 10
114.9112721838
 20
94.6535888421
 30
0.0
 11
102.6219731363
 21
94.6535888421
 31
0.0
  0
LINE
  5
42
330
3C
100
AcDbEntity
  8
DEFAULT
  6
CONTINUOUS
 62
   136
100
AcDbLine
 10
104.2219730958
 20
142.6535888421
 30
0.0
 11
104.2219730958
 21
94.6535884248
 31
0.0
  0
TEXT
  5
66
330
3C
100
AcDbEntity
  8
DEFAULT
  6
CONTINUOUS
 62
   136
100
AcDbText
 10
103.4219730958
 20
118.2966866223
 30
0.0
 40
3.2
  1
48
 50
90.0
  7
SEACAD_SEANSI_TTF
 11
100.2219730958
 21
118.2966866223
 31
0.0
100
AcDbText
 73
     3
  0
TEXT
  5
68
330
3C
100
AcDbEntity
  8
DEFAULT
  6
CONTINUOUS
 62
   136
100
AcDbText
 10
103.4219730958
 20
114.3275638153
 30
0.0
 40
3.2
  1
O
 50
90.0
  7
SEACAD_SEMECA1_TTF
 11
100.2219730958
 21
114.3275638153
 31
0.0
100
AcDbText
 73
     3
  0
ENDBLK
  5
6A
330
3C
100
AcDbEntity
  8
0
100
AcDbBlockEnd
  0
BLOCK
  5
73
330
6B
100
AcDbEntity
  8
0
100
AcDbBlockBegin
  2
GDIMGGROUP1
 70
     0
 10
0.0
 20
0.0
 30
0.0
  3
GDIMGGROUP1
  1

  0
POLYLINE
  5
6D
330
6B
100
AcDbEntity
  8
DEFAULT
  6
CONTINUOUS
 62
   136
100
AcDb2dPolyline
 66
     1
 10
0.0
 20
0.0
 30
0.0
  0
VERTEX
  5
1C4
330
6D
100
AcDbEntity
  8
DEFAULT
  6
CONTINUOUS
 62
   136
100
AcDbVertex
100
AcDb2dVertex
 10
119.1912720706
 20
81.7964382357
 30
0.0
  0
VERTEX
  5
1C5
330
6D
100
AcDbEntity
  8
DEFAULT
  6
CONTINUOUS
 62
   136
100
AcDbVertex
100
AcDb2dVertex
 10
115.9912721515
 20
81.2631049158
 30
0.0
  0
VERTEX
  5
1C6
330
6D
100
AcDbEntity
  8
DEFAULT
  6
CONTINUOUS
 62
   136
100
AcDbVertex
100
AcDb2dVertex
 10
119.1912720706
 20
80.729771596
 30
0.0
  0
SEQEND
  5
1C7
330
6D
100
AcDbEntity
  8
DEFAULT
  6
CONTINUOUS
 62
   136
  0
POLYLINE
  5
6E
330
6B
100
AcDbEntity
  8
DEFAULT
  6
CONTINUOUS
 62
   136
100
AcDb2dPolyline
 66
     1
 10
0.0
 20
0.0
 30
0.0
  0
VERTEX
  5
1C8
330
6E
100
AcDbEntity
  8
DEFAULT
  6
CONTINUOUS
 62
   136
100
AcDbVertex
100
AcDb2dVertex
 10
172.6912729237
 20
81.7964382357
 30
0.0
  0
VERTEX
  5
1C9
330
6E
100
AcDbEntity
  8
DEFAULT
  6
CONTINUOUS
 62
   136
100
AcDbVertex
100
AcDb2dVertex
 10
175.8912728429
 20
81.2631049158
 30
0.0
  0
VERTEX
  5
1CA
330
6E
100
AcDbEntity
  8
DEFAULT
  6
CONTINUOUS
 62
   136
100
AcDbVertex
100
AcDb2dVertex
 10
172.6912729237
 20
80.729771596
 30
0.0
  0
SEQEND
  5
1CB
330
6E
100
AcDbEntity
  8
DEFAULT
  6
CONTINUOUS
 62
   136
  0
LINE
  5
6F
330
6B
100
AcDbEntity
  8
DEFAULT
  6
CONTINUOUS
 62
   136
100
AcDbLine
 10
115.9912721515
 20
93.5735888744
 30
0.0
 11
115.9912721515
 21
79.6631049562
 31
0.0
  0
LINE
  5
70
330
6B
100
AcDbEntity
  8
DEFAULT
  6
CONTINUOUS
 62
   136
100
AcDbLine
 10
175.8912721515
 20
102.6735888744
 30
0.0
 11
175.8912721515
 21
79.6631049562
 31
0.0
  0
LINE
  5
71
330
6B
100
AcDbEntity
  8
DEFAULT
  6
CONTINUOUS
 62
   136
100
AcDbLine
 10
115.9912721515
 20
81.2631049158
 30
0.0
 11
175.8912728429
 21
81.2631049158
 31
0.0
  0
TEXT
  5
72
330
6B
100
AcDbEntity
  8
DEFAULT
  6
CONTINUOUS
 62
   136
100
AcDbText
 10
141.9412724972
 20
82.0631049158
 30
0.0
 40
3.2
  1
59.9
  7
SEACAD_SEANSI_TTF
 11
141.9412724972
 21
85.2631049158
 31
0.0
100
AcDbText
 73
     3
  0
ENDBLK
  5
74
330
6B
100
AcDbEntity
  8
0
100
AcDbBlockEnd
  0
BLOCK
  5
7D
330
75
100
AcDbEntity
  8
0
100
AcDbBlockBegin
  2
GDIMGGROUP2
 70
     0
 10
0.0
 20
0.0
 30
0.0
  3
GDIMGGROUP2
  1

  0
POLYLINE
  5
77
330
75
100
AcDbEntity
  8
DEFAULT
  6
CONTINUOUS
 62
   136
100
AcDb2dPolyline
 66
     1
 10
0.0
 20
0.0
 30
0.0
  0
VERTEX
  5
1CC
330
77
100
AcDbEntity
  8
DEFAULT
  6
CONTINUOUS
 62
   136
100
AcDbVertex
100
AcDb2dVertex
 10
179.0912720706
 20
81.7964378617
 30
0.0
  0
VERTEX
  5
1CD
330
77
100
AcDbEntity
  8
DEFAULT
  6
CONTINUOUS
 62
   136
100
AcDbVertex
100
AcDb2dVertex
 10
175.8912721515
 20
81.2631045418
 30
0.0
  0
VERTEX
  5
1CE
330
77
100
AcDbEntity
  8
DEFAULT
  6
CONTINUOUS
 62
   136
100
AcDbVertex
100
AcDb2dVertex
 10
179.0912720706
 20
80.7297712219
 30
0.0
  0
SEQEND
  5
1CF
330
77
100
AcDbEntity
  8
DEFAULT
  6
CONTINUOUS
 62
   136
  0
POLYLINE
  5
78
330
75
100
AcDbEntity
  8
DEFAULT
  6
CONTINUOUS
 62
   136
100
AcDb2dPolyline
 66
     1
 10
0.0
 20
0.0
 30
0.0
  0
VERTEX
  5
1D0
330
78
100
AcDbEntity
  8
DEFAULT
  6
CONTINUOUS
 62
   136
100
AcDbVertex
100
AcDb2dVertex
 10
179.8094870854
 20
81.7964378617
 30
0.0
  0
VERTEX
  5
1D1
330
78
100
AcDbEntity
  8
DEFAULT
  6
CONTINUOUS
 62
   136
100
AcDbVertex
100
AcDb2dVertex
 10
183.0094870046
 20
81.2631045418
 30
0.0
  0
VERTEX
  5
1D2
330
78
100
AcDbEntity
  8
DEFAULT
  6
CONTINUOUS
 62
   136
100
AcDbVertex
100
AcDb2dVertex
 10
179.8094870854
 20
80.7297712219
 30
0.0
  0
SEQEND
  5
1D3
330
78
100
AcDbEntity
  8
DEFAULT
  6
CONTINUOUS
 62
   136
  0
LINE
  5
79
330
75
100
AcDbEntity
  8
DEFAULT
  6
CONTINUOUS
 62
   136
100
AcDbLine
 10
175.8912721515
 20
102.6735888744
 30
0.0
 11
175.8912721515
 21
79.6631045822
 31
0.0
  0
LINE
  5
7A
330
75
100
AcDbEntity
  8
DEFAULT
  6
CONTINUOUS
 62
   136
100
AcDbLine
 10
183.0094871219
 20
106.4735888744
 30
0.0
 11
183.0094871219
 21
79.6631045822
 31
0.0
  0
LINE
  5
7B
330
75
100
AcDbEntity
  8
DEFAULT
  6
CONTINUOUS
 62
   136
100
AcDbLine
 10
175.8912721515
 20
81.2631045418
 30
0.0
 11
183.0094870046
 21
81.2631045418
 31
0.0
  0
TEXT
  5
7C
330
75
100
AcDbEntity
  8
DEFAULT
  6
CONTINUOUS
 62
   136
100
AcDbText
 10
176.6211112853
 20
82.0631045418
 30
0.0
 40
3.2
  1
7.1
  7
SEACAD_SEANSI_TTF
 11
176.6211112853
 21
85.2631045418
 31
0.0
100
AcDbText
 73
     3
  0
ENDBLK
  5
7E
330
75
100
AcDbEntity
  8
0
100
AcDbBlockEnd
  0
BLOCK
  5
87
330
7F
100
AcDbEntity
  8
0
100
AcDbBlockBegin
  2
GDIMGGROUP3
 70
     0
 10
0.0
 20
0.0
 30
0.0
  3
GDIMGGROUP3
  1

  0
POLYLINE
  5
81
330
7F
100
AcDbEntity
  8
DEFAULT
  6
CONTINUOUS
 62
   136
100
AcDb2dPolyline
 66
     1
 10
0.0
 20
0.0
 30
0.0
  0
VERTEX
  5
1D4
330
81
100
AcDbEntity
  8
DEFAULT
  6
CONTINUOUS
 62
   136
100
AcDbVertex
100
AcDb2dVertex
 10
183.0922720706
 20
90.2323916218
 30
0.0
  0
VERTEX
  5
1D5
330
81
100
AcDbEntity
  8
DEFAULT
  6
CONTINUOUS
 62
   136
100
AcDbVertex
100
AcDb2dVertex
 10
179.8922721515
 20
89.699058302
 30
0.0
  0
VERTEX
  5
1D6
330
81
100
AcDbEntity
  8
DEFAULT
  6
CONTINUOUS
 62
   136
100
AcDbVertex
100
AcDb2dVertex
 10
183.0922720706
 20
89.1657249821
 30
0.0
  0
SEQEND
  5
1D7
330
81
100
AcDbEntity
  8
DEFAULT
  6
CONTINUOUS
 62
   136
  0
POLYLINE
  5
82
330
7F
100
AcDbEntity
  8
DEFAULT
  6
CONTINUOUS
 62
   136
100
AcDb2dPolyline
 66
     1
 10
0.0
 20
0.0
 30
0.0
  0
VERTEX
  5
1D8
330
82
100
AcDbEntity
  8
DEFAULT
  6
CONTINUOUS
 62
   136
100
AcDbVertex
100
AcDb2dVertex
 10
172.6912722323
 20
90.2323916218
 30
0.0
  0
VERTEX
  5
1D9
330
82
100
AcDbEntity
  8
DEFAULT
  6
CONTINUOUS
 62
   136
100
AcDbVertex
100
AcDb2dVertex
 10
175.8912721515
 20
89.699058302
 30
0.0
  0
VERTEX
  5
1DA
330
82
100
AcDbEntity
  8
DEFAULT
  6
CONTINUOUS
 62
   136
100
AcDbVertex
100
AcDb2dVertex
 10
172.6912722323
 20
89.1657249821
 30
0.0
  0
SEQEND
  5
1DB
330
82
100
AcDbEntity
  8
DEFAULT
  6
CONTINUOUS
 62
   136
  0
LINE
  5
83
330
7F
100
AcDbEntity
  8
DEFAULT
  6
CONTINUOUS
 62
   136
100
AcDbLine
 10
179.8922721515
 20
105.0735888744
 30
0.0
 11
179.8922721515
 21
88.0990583424
 31
0.0
  0
LINE
  5
84
330
7F
100
AcDbEntity
  8
DEFAULT
  6
CONTINUOUS
 62
   136
100
AcDbLine
 10
175.8912721515
 20
102.6735888744
 30
0.0
 11
175.8912721515
 21
88.0990583424
 31
0.0
  0
LINE
  5
85
330
7F
100
AcDbEntity
  8
DEFAULT
  6
CONTINUOUS
 62
   136
100
AcDbLine
 10
186.2922719898
 20
89.699058302
 30
0.0
 11
169.4912718827
 21
89.699058302
 31
0.0
  0
TEXT
  5
86
330
7F
100
AcDbEntity
  8
DEFAULT
  6
CONTINUOUS
 62
   136
100
AcDbText
 10
176.7210404618
 20
90.499058302
 30
0.0
 40
3.2
  1
4
  7
SEACAD_SEANSI_TTF
 11
176.7210404618
 21
93.699058302
 31
0.0
100
AcDbText
 73
     3
  0
ENDBLK
  5
88
330
7F
100
AcDbEntity
  8
0
100
AcDbBlockEnd
  0
BLOCK
  5
92
330
89
100
AcDbEntity
  8
0
100
AcDbBlockBegin
  2
GDIMGGROUP4
 70
     0
 10
0.0
 20
0.0
 30
0.0
  3
GDIMGGROUP4
  1

  0
POLYLINE
  5
8B
330
89
100
AcDbEntity
  8
DEFAULT
  6
CONTINUOUS
 62
   136
100
AcDb2dPolyline
 66
     1
 10
0.0
 20
0.0
 30
0.0
  0
VERTEX
  5
1DC
330
8B
100
AcDbEntity
  8
DEFAULT
  6
CONTINUOUS
 62
   136
100
AcDbVertex
100
AcDb2dVertex
 10
200.123474693
 20
135.4535889229
 30
0.0
  0
VERTEX
  5
1DD
330
8B
100
AcDbEntity
  8
DEFAULT
  6
CONTINUOUS
 62
   136
100
AcDbVertex
100
AcDb2dVertex
 10
200.6568080129
 20
138.6535888421
 30
0.0
  0
VERTEX
  5
1DE
330
8B
100
AcDbEntity
  8
DEFAULT
  6
CONTINUOUS
 62
   136
100
AcDbVertex
100
AcDb2dVertex
 10
201.1901413327
 20
135.4535889229
 30
0.0
  0
SEQEND
  5
1DF
330
8B
100
AcDbEntity
  8
DEFAULT
  6
CONTINUOUS
 62
   136
  0
POLYLINE
  5
8C
330
89
100
AcDbEntity
  8
DEFAULT
  6
CONTINUOUS
 62
   136
100
AcDb2dPolyline
 66
     1
 10
0.0
 20
0.0
 30
0.0
  0
VERTEX
  5
1E0
330
8C
100
AcDbEntity
  8
DEFAULT
  6
CONTINUOUS
 62
   136
100
AcDbVertex
100
AcDb2dVertex
 10
200.123474693
 20
101.8535896553
 30
0.0
  0
VERTEX
  5
1E1
330
8C
100
AcDbEntity
  8
DEFAULT
  6
CONTINUOUS
 62
   136
100
AcDbVertex
100
AcDb2dVertex
 10
200.6568080129
 20
98.6535897361
 30
0.0
  0
VERTEX
  5
1E2
330
8C
100
AcDbEntity
  8
DEFAULT
  6
CONTINUOUS
 62
   136
100
AcDbVertex
100
AcDb2dVertex
 10
201.1901413327
 20
101.8535896553
 30
0.0
  0
SEQEND
  5
1E3
330
8C
100
AcDbEntity
  8
DEFAULT
  6
CONTINUOUS
 62
   136
  0
LINE
  5
8D
330
89
100
AcDbEntity
  8
DEFAULT
  6
CONTINUOUS
 62
   136
100
AcDbLine
 10
171.0682721191
 20
138.6535888421
 30
0.0
 11
202.2568079724
 21
138.6535888421
 31
0.0
  0
LINE
  5
8E
330
89
100
AcDbEntity
  8
DEFAULT
  6
CONTINUOUS
 62
   136
100
AcDbLine
 10
171.0682721191
 20
98.6535888421
 30
0.0
 11
202.2568079724
 21
98.6535888421
 31
0.0
  0
LINE
  5
8F
330
89
100
AcDbEntity
  8
DEFAULT
  6
CONTINUOUS
 62
   136
100
AcDbLine
 10
200.6568080129
 20
138.6535888421
 30
0.0
 11
200.6568080129
 21
98.6535897361
 31
0.0
  0
TEXT
  5
90
330
89
100
AcDbEntity
  8
DEFAULT
  6
CONTINUOUS
 62
   136
100
AcDbText
 10
199.8568080129
 20
118.296687278
 30
0.0
 40
3.2
  1
40
 50
90.0
  7
SEACAD_SEANSI_TTF
 11
196.6568080129
 21
118.296687278
 31
0.0
100
AcDbText
 73
     3
  0
TEXT
  5
91
330
89
100
AcDbEntity
  8
DEFAULT
  6
CONTINUOUS
 62
   136
100
AcDbText
 10
199.8568080129
 20
114.327564471
 30
0.0
 40
3.2
  1
O
 50
90.0
  7
SEACAD_SEMECA1_TTF
 11
196.6568080129
 21
114.327564471
 31
0.0
100
AcDbText
 73
     3
  0
ENDBLK
  5
93
330
89
100
AcDbEntity
  8
0
100
AcDbBlockEnd
  0
BLOCK
  5
1A9
330
94
100
AcDbEntity
  8
0
100
AcDbBlockBegin
  2
SE
 70
     0
 10
0.0
 20
0.0
 30
0.0
  3
SE
  1

  0
LINE
  5
97
330
94
100
AcDbEntity
  8
DV1_デフォルト
  6
CONTINUOUS
 62
     7
100
AcDbLine
 10
151.4912721515
 20
118.8035888421
 30
0.0
 11
159.4882721515
 21
118.8035888421
 31
0.0
  0
LINE
  5
98
330
94
100
AcDbEntity
  8
DV1_デフォルト
  6
CONTINUOUS
 62
     7
100
AcDbLine
 10
159.4882721515
 20
137.4035888421
 30
0.0
 11
151.4912721515
 21
137.4035888421
 31
0.0
  0
LINE
  5
99
330
94
100
AcDbEntity
  8
DV1_デフォルト
  6
CONTINUOUS
 62
     7
100
AcDbLine
 10
151.4912721515
 20
99.9035888421
 30
0.0
 11
159.4882721515
 21
99.9035888421
 31
0.0
  0
LINE
  5
9A
330
94
100
AcDbEntity
  8
DV1_デフォルト
  6
CONTINUOUS
 62
     7
100
AcDbLine
 10
159.6882721515
 20
98.6535888421
 30
0.0
 11
159.6882721515
 21
138.6535888421
 31
0.0
  0
LINE
  5
9B
330
94
100
AcDbEntity
  8
DV1_デフォルト
  6
CONTINUOUS
 62
     7
100
AcDbLine
 10
159.4882721515
 20
138.4535888421
 30
0.0
 11
159.4882721515
 21
98.8535888421
 31
0.0
  0
LINE
  5
9C
330
94
100
AcDbEntity
  8
DV1_デフォルト
  6
CONTINUOUS
 62
     7
100
AcDbLine
 10
169.9882721515
 20
98.8535888421
 30
0.0
 11
169.9882721515
 21
138.4535888421
 31
0.0
  0
LINE
  5
9D
330
94
100
AcDbEntity
  8
DV1_デフォルト
  6
CONTINUOUS
 62
     7
100
AcDbLine
 10
169.7882721515
 20
138.6535888421
 30
0.0
 11
169.7882721515
 21
98.6535888421
 31
0.0
  0
LINE
  5
9E
330
94
100
AcDbEntity
  8
DV1_デフォルト
  6
CONTINUOUS
 62
     7
100
AcDbLine
 10
159.6882721515
 20
138.6535888421
 30
0.0
 11
159.4882721515
 21
138.4535888421
 31
0.0
  0
LINE
  5
9F
330
94
100
AcDbEntity
  8
DV1_デフォルト
  6
CONTINUOUS
 62
     7
100
AcDbLine
 10
159.4882721515
 20
98.8535888421
 30
0.0
 11
159.6882721515
 21
98.6535888421
 31
0.0
  0
LINE
  5
A0
330
94
100
AcDbEntity
  8
DV1_デフォルト
  6
CONTINUOUS
 62
     7
100
AcDbLine
 10
169.7882721515
 20
98.6535888421
 30
0.0
 11
169.9882721515
 21
98.8535888421
 31
0.0
  0
LINE
  5
A1
330
94
100
AcDbEntity
  8
DV1_デフォルト
  6
CONTINUOUS
 62
     7
100
AcDbLine
 10
169.9882721515
 20
138.4535888421
 30
0.0
 11
169.7882721515
 21
138.6535888421
 31
0.0
  0
LINE
  5
A2
330
94
100
AcDbEntity
  8
DV1_デフォルト
  6
CONTINUOUS
 62
     7
100
AcDbLine
 10
169.7882721515
 20
138.6535888421
 30
0.0
 11
159.6882721515
 21
138.6535888421
 31
0.0
  0
LINE
  5
A3
330
94
100
AcDbEntity
  8
DV1_デフォルト
  6
CONTINUOUS
 62
     7
100
AcDbLine
 10
159.6882721515
 20
98.6535888421
 30
0.0
 11
169.7882721515
 21
98.6535888421
 31
0.0
  0
LINE
  5
A4
330
94
100
AcDbEntity
  8
DV1_デフォルト
  6
CONTINUOUS
 62
     7
100
AcDbLine
 10
182.8094871219
 20
119.1535888421
 30
0.0
 11
182.8094871219
 21
129.7535888421
 31
0.0
  0
LINE
  5
A5
330
94
100
AcDbEntity
  8
DV1_デフォルト
  6
CONTINUOUS
 62
     7
100
AcDbLine
 10
183.0094871219
 20
107.7535888421
 30
0.0
 11
183.0094871219
 21
118.1535888421
 31
0.0
  0
LINE
  5
A6
330
94
100
AcDbEntity
  8
DV1_デフォルト
  6
CONTINUOUS
 62
     7
100
AcDbLine
 10
182.8094871219
 20
118.1535888421
 30
0.0
 11
182.8094871219
 21
107.5535888421
 31
0.0
  0
LINE
  5
A7
330
94
100
AcDbEntity
  8
DV1_デフォルト
  6
CONTINUOUS
 62
     7
100
AcDbLine
 10
183.0094871219
 20
129.5535888421
 30
0.0
 11
183.0094871219
 21
119.1535888421
 31
0.0
  0
LINE
  5
A8
330
94
100
AcDbEntity
  8
DV1_デフォルト
  6
CONTINUOUS
 62
     7
100
AcDbLine
 10
182.0207541014
 20
118.1535888421
 30
0.0
 11
182.8094871219
 21
118.1535888421
 31
0.0
  0
LINE
  5
A9
330
94
100
AcDbEntity
  8
DV1_デフォルト
  6
CONTINUOUS
 62
     7
100
AcDbLine
 10
182.8094871219
 20
118.1535888421
 30
0.0
 11
183.0094871219
 21
118.1535888421
 31
0.0
  0
LINE
  5
AA
330
94
100
AcDbEntity
  8
DV1_デフォルト
  6
CONTINUOUS
 62
     7
100
AcDbLine
 10
183.0094871219
 20
118.1535888421
 30
0.0
 11
183.0094871219
 21
119.1535888421
 31
0.0
  0
ARC
  5
AB
330
94
100
AcDbEntity
  8
DV1_デフォルト
  6
CONTINUOUS
 62
     7
100
AcDbCircle
 10
193.1094871219
 20
118.6535888421
 30
0.0
 40
11.10000000000015
100
AcDbArc
 50
180.0
 51
182.5817645624
  0
ARC
  5
AC
330
94
100
AcDbEntity
  8
DV1_デフォルト
  6
CONTINUOUS
 62
     7
100
AcDbCircle
 10
193.1094871219
 20
118.6535888421
 30
0.0
 40
11.09999999999957
100
AcDbArc
 50
177.4182354376
 51
180.0
  0
LINE
  5
AD
330
94
100
AcDbEntity
  8
DV1_デフォルト
  6
CONTINUOUS
 62
     7
100
AcDbLine
 10
182.0207541014
 20
119.1535888421
 30
0.0
 11
182.8094871219
 21
119.1535888421
 31
0.0
  0
LINE
  5
AE
330
94
100
AcDbEntity
  8
DV1_デフォルト
  6
CONTINUOUS
 62
     7
100
AcDbLine
 10
182.8094871219
 20
119.1535888421
 30
0.0
 11
183.0094871219
 21
119.1535888421
 31
0.0
  0
LINE
  5
AF
330
94
100
AcDbEntity
  8
DV1_デフォルト
  6
CONTINUOUS
 62
     7
100
AcDbLine
 10
182.8094871219
 20
107.5535888421
 30
0.0
 11
183.0094871219
 21
107.7535888421
 31
0.0
  0
LINE
  5
B0
330
94
100
AcDbEntity
  8
DV1_デフォルト
  6
CONTINUOUS
 62
     7
100
AcDbLine
 10
183.0094871219
 20
129.5535888421
 30
0.0
 11
182.8094871219
 21
129.7535888421
 31
0.0
  0
LINE
  5
B1
330
94
100
AcDbEntity
  8
DV1_デフォルト
  6
CONTINUOUS
 62
     7
100
AcDbLine
 10
170.3882721515
 20
99.4035888421
 30
0.0
 11
170.3882721515
 21
137.9035888421
 31
0.0
  0
LINE
  5
B2
330
94
100
AcDbEntity
  8
DV1_デフォルト
  6
CONTINUOUS
 62
     7
100
AcDbLine
 10
170.1882721515
 20
137.7035888421
 30
0.0
 11
170.1882721515
 21
99.6035888421
 31
0.0
  0
CIRCLE
  5
B3
330
94
100
AcDbEntity
  8
DV1_デフォルト
  6
CONTINUOUS
 62
     7
100
AcDbCircle
 10
172.4882721515
 20
118.6535888421
 30
0.0
 40
0.7999999999999985
  0
LINE
  5
B4
330
94
100
AcDbEntity
  8
DV1_デフォルト
  6
CONTINUOUS
 62
     7
100
AcDbLine
 10
175.3912721515
 20
99.4035888421
 30
0.0
 11
175.3912721515
 21
137.9035888421
 31
0.0
  0
LINE
  5
B5
330
94
100
AcDbEntity
  8
DV1_デフォルト
  6
CONTINUOUS
 62
     7
100
AcDbLine
 10
175.5912721515
 20
99.6035888421
 30
0.0
 11
175.5912721515
 21
137.7035888421
 31
0.0
  0
LINE
  5
B6
330
94
100
AcDbEntity
  8
DV1_デフォルト
  6
CONTINUOUS
 62
     7
100
AcDbLine
 10
175.8912721515
 20
103.9535888421
 30
0.0
 11
175.8912721515
 21
133.3535888421
 31
0.0
  0
LINE
  5
B7
330
94
100
AcDbEntity
  8
DV1_デフォルト
  6
CONTINUOUS
 62
     7
100
AcDbLine
 10
179.4922721515
 20
105.9535888421
 30
0.0
 11
179.4922721515
 21
131.3535888421
 31
0.0
  0
LINE
  5
B8
330
94
100
AcDbEntity
  8
DV1_デフォルト
  6
CONTINUOUS
 62
     7
100
AcDbLine
 10
179.8922721515
 20
106.3535888421
 30
0.0
 11
179.8922721515
 21
130.9535888421
 31
0.0
  0
LINE
  5
B9
330
94
100
AcDbEntity
  8
DV1_デフォルト
  6
CONTINUOUS
 62
     7
100
AcDbLine
 10
177.0912721515
 20
105.9535888421
 30
0.0
 11
177.0912721515
 21
131.3535888421
 31
0.0
  0
LINE
  5
BA
330
94
100
AcDbEntity
  8
DV1_デフォルト
  6
CONTINUOUS
 62
     7
100
AcDbLine
 10
177.0912721515
 20
130.9535888421
 30
0.0
 11
175.8912721515
 21
130.9535888421
 31
0.0
  0
LINE
  5
BB
330
94
100
AcDbEntity
  8
DV1_デフォルト
  6
CONTINUOUS
 62
     7
100
AcDbLine
 10
175.8912721515
 20
106.3535888421
 30
0.0
 11
177.0912721515
 21
106.3535888421
 31
0.0
  0
LINE
  5
BC
330
94
100
AcDbEntity
  8
DV1_デフォルト
  6
CONTINUOUS
 62
     7
100
AcDbLine
 10
179.4922721515
 20
131.3535888421
 30
0.0
 11
177.0912721515
 21
131.3535888421
 31
0.0
  0
LINE
  5
BD
330
94
100
AcDbEntity
  8
DV1_デフォルト
  6
CONTINUOUS
 62
     7
100
AcDbLine
 10
177.0912721515
 20
105.9535888421
 30
0.0
 11
179.4922721515
 21
105.9535888421
 31
0.0
  0
LINE
  5
BE
330
94
100
AcDbEntity
  8
DV1_デフォルト
  6
CONTINUOUS
 62
     7
100
AcDbLine
 10
170.3882721515
 20
137.9035888421
 30
0.0
 11
170.1882721515
 21
137.7035888421
 31
0.0
  0
LINE
  5
BF
330
94
100
AcDbEntity
  8
DV1_デフォルト
  6
CONTINUOUS
 62
     7
100
AcDbLine
 10
170.1882721515
 20
99.6035888421
 30
0.0
 11
170.3882721515
 21
99.4035888421
 31
0.0
  0
LINE
  5
C0
330
94
100
AcDbEntity
  8
DV1_デフォルト
  6
CONTINUOUS
 62
     7
100
AcDbLine
 10
175.3912721515
 20
137.9035888421
 30
0.0
 11
170.3882721515
 21
137.9035888421
 31
0.0
  0
LINE
  5
C1
330
94
100
AcDbEntity
  8
DV1_デフォルト
  6
CONTINUOUS
 62
     7
100
AcDbLine
 10
170.3882721515
 20
99.4035888421
 30
0.0
 11
175.3912721515
 21
99.4035888421
 31
0.0
  0
LINE
  5
C2
330
94
100
AcDbEntity
  8
DV1_デフォルト
  6
CONTINUOUS
 62
     7
100
AcDbLine
 10
169.9882721515
 20
99.9035888421
 30
0.0
 11
170.1882721515
 21
99.9035888421
 31
0.0
  0
LINE
  5
C3
330
94
100
AcDbEntity
  8
DV1_デフォルト
  6
CONTINUOUS
 62
     7
100
AcDbLine
 10
170.1882721515
 20
137.4035888421
 30
0.0
 11
169.9882721515
 21
137.4035888421
 31
0.0
  0
LINE
  5
C4
330
94
100
AcDbEntity
  8
DV1_デフォルト
  6
CONTINUOUS
 62
     7
100
AcDbLine
 10
175.3912721515
 20
99.4035888421
 30
0.0
 11
175.5912721515
 21
99.6035888421
 31
0.0
  0
LINE
  5
C5
330
94
100
AcDbEntity
  8
DV1_デフォルト
  6
CONTINUOUS
 62
     7
100
AcDbLine
 10
175.5912721515
 20
137.7035888421
 30
0.0
 11
175.3912721515
 21
137.9035888421
 31
0.0
  0
LINE
  5
C6
330
94
100
AcDbEntity
  8
DV1_デフォルト
  6
CONTINUOUS
 62
     7
100
AcDbLine
 10
175.5912721515
 20
103.6535888421
 30
0.0
 11
175.8912721515
 21
103.9535888421
 31
0.0
  0
LINE
  5
C7
330
94
100
AcDbEntity
  8
DV1_デフォルト
  6
CONTINUOUS
 62
     7
100
AcDbLine
 10
175.8912721515
 20
133.3535888421
 30
0.0
 11
175.5912721515
 21
133.6535888421
 31
0.0
  0
LINE
  5
C8
330
94
100
AcDbEntity
  8
DV1_デフォルト
  6
CONTINUOUS
 62
     7
100
AcDbLine
 10
179.4922721515
 20
105.9535888421
 30
0.0
 11
179.8922721515
 21
106.3535888421
 31
0.0
  0
LINE
  5
C9
330
94
100
AcDbEntity
  8
DV1_デフォルト
  6
CONTINUOUS
 62
     7
100
AcDbLine
 10
179.8922721515
 20
130.9535888421
 30
0.0
 11
179.4922721515
 21
131.3535888421
 31
0.0
  0
ELLIPSE
  5
CA
330
94
100
AcDbEntity
  8
DV1_デフォルト
  6
CONTINUOUS
 62
     7
100
AcDbEllipse
 10
162.4882721515
 20
98.5816818193
 30
0.0
 11
1.500000000000005
 21
3.469446951953614E-15
 31
0.0
210
0.0
220
0.0
230
1.0
 40
0.2588190451
 41
0.0
 42
0.1862939684605555
  0
ELLIPSE
  5
CB
330
94
100
AcDbEntity
  8
DV1_デフォルト
  6
CONTINUOUS
 62
     7
100
AcDbEllipse
 10
162.4882721515
 20
98.5816818193
 30
0.0
 11
1.500000000000005
 21
3.469446951953614E-15
 31
0.0
210
0.0
220
0.0
230
1.0
 40
0.2588190451
 41
2.955298685129133
 42
3.141592653589793
  0
ELLIPSE
  5
CC
330
94
100
AcDbEntity
  8
DV1_デフォルト
  6
CONTINUOUS
 62
     7
100
AcDbEllipse
 10
162.4882721515
 20
98.1784742922
 30
0.0
 11
1.463479506699308
 21
0.0
 31
0.0
210
0.0
220
0.0
230
1.0
 40
0.2588190451
 41
6.259740642764526
 42
6.283185307179586
  0
LINE
  5
CD
330
94
100
AcDbEntity
  8
DV1_デフォルト
  6
CONTINUOUS
 62
     7
100
AcDbLine
 10
161.4882721515
 20
98.6535888421
 30
0.0
 11
161.4882721515
 21
98.6299781106
 31
0.0
  0
LINE
  5
CE
330
94
100
AcDbEntity
  8
DV1_デフォルト
  6
CONTINUOUS
 62
     7
100
AcDbLine
 10
163.4882721515
 20
98.6535888421
 30
0.0
 11
163.4882721515
 21
98.6299781106
 31
0.0
  0
ELLIPSE
  5
CF
330
94
100
AcDbEntity
  8
DV1_デフォルト
  6
CONTINUOUS
 62
     7
100
AcDbEllipse
 10
162.4882721515
 20
98.5816818193
 30
0.0
 11
-1.499999999999998
 21
0.0
 31
0.0
210
0.0
220
0.0
230
1.0
 40
0.2588190451
 41
0.0
 42
3.141592653589793
  0
ELLIPSE
  5
D0
330
94
100
AcDbEntity
  8
DV1_デフォルト
  6
CONTINUOUS
 62
     7
100
AcDbEllipse
 10
162.4882721515
 20
98.1784742922
 30
0.0
 11
1.463479506699311
 21
1.331839856717338E-32
 31
0.0
210
0.0
220
0.0
230
1.0
 40
0.2588190451
 41
3.141592653589793
 42
3.165037318004129
  0
SPLINE
  5
D1
330
94
100
AcDbEntity
  8
DV1_デフォルト
  6
CONTINUOUS
 62
     7
100
AcDbSpline
210
0.0
220
0.0
230
1.0
 70
     8
 71
     3
 72
    18
 73
    14
 74
     0
 42
0.0000000060263205
 43
0.0000000001
 40
0.0
 40
0.0
 40
0.0
 40
0.0
 40
0.053515063681896
 40
0.1554496129523202
 40
0.2576870483690076
 40
0.3604901399728061
 40
0.4643622763654609
 40
0.5701740233227047
 40
0.6796360569186329
 40
0.7961955180517646
 40
0.8739617867325739
 40
0.9433855370838646
 40
0.9999999999999999
 40
0.9999999999999999
 40
0.9999999999999999
 40
0.9999999999999999
 10
162.4882721514775
 20
97.66810195242604
 30
0.0
 10
162.5301412446311
 20
97.66833700321706
 30
0.0
 10
162.6335175494694
 20
97.669130549285
 30
0.0
 10
162.8198206040161
 20
97.67745941426608
 30
0.0
 10
163.0263596624843
 20
97.69610566041814
 30
0.0
 10
163.2225582616213
 20
97.72385012211794
 30
0.0
 10
163.4022524501738
 20
97.76046914146515
 30
0.0
 10
163.563595976902
 20
97.80645065236503
 30
0.0
 10
163.7059616127078
 20
97.86421145252297
 30
0.0
 10
163.8133098043353
 20
97.93003762268981
 30
0.0
 10
163.8920198840098
 20
98.00895737632655
 30
0.0
 10
163.9351809460382
 20
98.08809077123011
 30
0.0
 10
163.9526758713898
 20
98.1494678488673
 30
0.0
 10
163.9529945656882
 20
98.1754482207237
 30
0.0
  0
SPLINE
  5
D2
330
94
100
AcDbEntity
  8
DV1_デフォルト
  6
CONTINUOUS
 62
     7
100
AcDbSpline
210
0.0
220
0.0
230
1.0
 70
     8
 71
     3
 72
    18
 73
    14
 74
     0
 42
0.0000000060524796
 43
0.0000000001
 40
0.0
 40
0.0
 40
0.0
 40
0.0
 40
0.0474152242591098
 40
0.1149724485042206
 40
0.1863201198625402
 40
0.2702494485619312
 40
0.3745255591026385
 40
0.4890084649124311
 40
0.5982248645591886
 40
0.70391969894021
 40
0.8078088973751412
 40
0.9107704984691628
 40
1.0
 40
1.0
 40
1.0
 40
1.0
 10
161.0290826775666
 20
98.16922002570712
 30
0.0
 10
161.031341306682
 20
98.14449158282834
 30
0.0
 10
161.0364150603405
 20
98.09382832832104
 30
0.0
 10
161.0794027950921
 20
98.01778411809187
 30
0.0
 10
161.1420089337848
 20
97.94938448706448
 30
0.0
 10
161.2292966831944
 20
97.88751684975195
 30
0.0
 10
161.3480774764134
 20
97.83015536099697
 30
0.0
 10
161.5019964639129
 20
97.77891519366142
 30
0.0
 10
161.681776430203
 20
97.7369490646733
 30
0.0
 10
161.8769123126555
 20
97.705144845388
 30
0.0
 10
162.0822589923826
 20
97.68304797096224
 30
0.0
 10
162.2921643446639
 20
97.67029739723229
 30
0.0
 10
162.4187978702542
 20
97.66874958504067
 30
0.0
 10
162.4882721514775
 20
97.66810195242604
 30
0.0
  0
LINE
  5
D3
330
94
100
AcDbEntity
  8
DV1_デフォルト
  6
CONTINUOUS
 62
     7
100
AcDbLine
 10
160.9886843718
 20
98.5725807646
 30
0.0
 11
161.0251948288
 21
98.1695948209
 31
0.0
  0
LINE
  5
D4
330
94
100
AcDbEntity
  8
DV1_デフォルト
  6
CONTINUOUS
 62
     7
100
AcDbLine
 10
163.9513494742
 20
98.1695948209
 30
0.0
 11
163.9878599311
 21
98.5725807646
 31
0.0
  0
ELLIPSE
  5
D5
330
94
100
AcDbEntity
  8
DV1_デフォルト
  6
CONTINUOUS
 62
     7
100
AcDbEllipse
 10
162.4882721515
 20
124.0318401194
 30
0.0
 11
1.499999999999998
 21
-3.469446951953614E-15
 31
0.0
210
0.0
220
0.0
230
1.0
 40
0.9659258263
 41
3.141592653589795
 42
6.283185307179579
  0
ELLIPSE
  5
D6
330
94
100
AcDbEntity
  8
DV1_デフォルト
  6
CONTINUOUS
 62
     7
100
AcDbEllipse
 10
162.4882721515
 20
124.1398792506
 30
0.0
 11
1.463479506699308
 21
8.673617379884035E-15
 31
0.0
210
0.0
220
0.0
230
1.0
 40
0.9659258263
 41
0.0000000000000039
 42
1.570796326794891
  0
LINE
  5
D7
330
94
100
AcDbEntity
  8
DV1_デフォルト
  6
CONTINUOUS
 62
     7
100
AcDbLine
 10
162.6882721515
 20
123.9939463812
 30
0.0
 11
162.4882721515
 21
124.04491165
 31
0.0
  0
LINE
  5
D8
330
94
100
AcDbEntity
  8
DV1_デフォルト
  6
CONTINUOUS
 62
     7
100
AcDbLine
 10
162.4882721515
 20
123.1755784063
 30
0.0
 11
162.4882721515
 21
124.04491165
 31
0.0
  0
LINE
  5
D9
330
94
100
AcDbEntity
  8
DV1_デフォルト
  6
CONTINUOUS
 62
     7
100
AcDbLine
 10
162.6882721515
 20
123.1246131375
 30
0.0
 11
162.4882721515
 21
123.1755784063
 31
0.0
  0
LINE
  5
DA
330
94
100
AcDbEntity
  8
DV1_デフォルト
  6
CONTINUOUS
 62
     7
100
AcDbLine
 10
162.6882721515
 20
123.9939463812
 30
0.0
 11
162.6882721515
 21
123.1246131375
 31
0.0
  0
LINE
  5
DB
330
94
100
AcDbEntity
  8
DV1_デフォルト
  6
CONTINUOUS
 62
     7
100
AcDbLine
 10
162.4882721515
 20
124.04491165
 30
0.0
 11
162.6882721515
 21
124.3803167117
 31
0.0
  0
LINE
  5
DC
330
94
100
AcDbEntity
  8
DV1_デフォルト
  6
CONTINUOUS
 62
     7
100
AcDbLine
 10
162.6882721515
 20
125.2496499553
 30
0.0
 11
162.6882721515
 21
124.3803167117
 31
0.0
  0
LINE
  5
DD
330
94
100
AcDbEntity
  8
DV1_デフォルト
  6
CONTINUOUS
 62
     7
100
AcDbLine
 10
162.6882721515
 20
125.2496499553
 30
0.0
 11
162.4882721515
 21
124.9142448937
 31
0.0
  0
LINE
  5
DE
330
94
100
AcDbEntity
  8
DV1_デフォルト
  6
CONTINUOUS
 62
     7
100
AcDbLine
 10
162.4882721515
 20
124.04491165
 30
0.0
 11
162.4882721515
 21
124.9142448937
 31
0.0
  0
LINE
  5
DF
330
94
100
AcDbEntity
  8
DV1_デフォルト
  6
CONTINUOUS
 62
     7
100
AcDbLine
 10
162.4882721515
 20
124.04491165
 30
0.0
 11
162.2882721515
 21
123.9939463812
 31
0.0
  0
LINE
  5
E0
330
94
100
AcDbEntity
  8
DV1_デフォルト
  6
CONTINUOUS
 62
     7
100
AcDbLine
 10
162.2882721515
 20
123.1246131375
 30
0.0
 11
162.2882721515
 21
123.9939463812
 31
0.0
  0
LINE
  5
E1
330
94
100
AcDbEntity
  8
DV1_デフォルト
  6
CONTINUOUS
 62
     7
100
AcDbLine
 10
162.2882721515
 20
123.1246131375
 30
0.0
 11
162.4882721515
 21
123.1755784063
 31
0.0
  0
LINE
  5
E2
330
94
100
AcDbEntity
  8
DV1_デフォルト
  6
CONTINUOUS
 62
     7
100
AcDbLine
 10
162.2882721515
 20
124.3803167117
 30
0.0
 11
162.4882721515
 21
124.04491165
 31
0.0
  0
LINE
  5
E3
330
94
100
AcDbEntity
  8
DV1_デフォルト
  6
CONTINUOUS
 62
     7
100
AcDbLine
 10
162.2882721515
 20
125.2496499553
 30
0.0
 11
162.4882721515
 21
124.9142448937
 31
0.0
  0
LINE
  5
E4
330
94
100
AcDbEntity
  8
DV1_デフォルト
  6
CONTINUOUS
 62
     7
100
AcDbLine
 10
162.2882721515
 20
124.3803167117
 30
0.0
 11
162.2882721515
 21
125.2496499553
 31
0.0
  0
LINE
  5
E5
330
94
100
AcDbEntity
  8
DV1_デフォルト
  6
CONTINUOUS
 62
     7
100
AcDbLine
 10
162.6882721515
 20
123.1246131375
 30
0.0
 11
162.2882721515
 21
123.1246131375
 31
0.0
  0
LINE
  5
E6
330
94
100
AcDbEntity
  8
DV1_デフォルト
  6
CONTINUOUS
 62
     7
100
AcDbLine
 10
162.2882721515
 20
125.2496499553
 30
0.0
 11
162.6882721515
 21
125.2496499553
 31
0.0
  0
LINE
  5
E7
330
94
100
AcDbEntity
  8
DV1_デフォルト
  6
CONTINUOUS
 62
     7
100
AcDbLine
 10
161.3882721515
 20
124.3803167117
 30
0.0
 11
162.2882721515
 21
124.3803167117
 31
0.0
  0
LINE
  5
E8
330
94
100
AcDbEntity
  8
DV1_デフォルト
  6
CONTINUOUS
 62
     7
100
AcDbLine
 10
161.3882721515
 20
124.3803167117
 30
0.0
 11
161.5882721515
 21
124.04491165
 31
0.0
  0
LINE
  5
E9
330
94
100
AcDbEntity
  8
DV1_デフォルト
  6
CONTINUOUS
 62
     7
100
AcDbLine
 10
161.5882721515
 20
124.04491165
 30
0.0
 11
162.4882721515
 21
124.04491165
 31
0.0
  0
LINE
  5
EA
330
94
100
AcDbEntity
  8
DV1_デフォルト
  6
CONTINUOUS
 62
     7
100
AcDbLine
 10
161.3882721515
 20
123.9939463812
 30
0.0
 11
161.5882721515
 21
124.04491165
 31
0.0
  0
LINE
  5
EB
330
94
100
AcDbEntity
  8
DV1_デフォルト
  6
CONTINUOUS
 62
     7
100
AcDbLine
 10
162.2882721515
 20
123.9939463812
 30
0.0
 11
161.3882721515
 21
123.9939463812
 31
0.0
  0
LINE
  5
EC
330
94
100
AcDbEntity
  8
DV1_デフォルト
  6
CONTINUOUS
 62
     7
100
AcDbLine
 10
163.5882721515
 20
123.9939463812
 30
0.0
 11
162.6882721515
 21
123.9939463812
 31
0.0
  0
LINE
  5
ED
330
94
100
AcDbEntity
  8
DV1_デフォルト
  6
CONTINUOUS
 62
     7
100
AcDbLine
 10
163.5882721515
 20
123.9939463812
 30
0.0
 11
163.3882721515
 21
124.04491165
 31
0.0
  0
LINE
  5
EE
330
94
100
AcDbEntity
  8
DV1_デフォルト
  6
CONTINUOUS
 62
     7
100
AcDbLine
 10
162.4882721515
 20
124.04491165
 30
0.0
 11
163.3882721515
 21
124.04491165
 31
0.0
  0
LINE
  5
EF
330
94
100
AcDbEntity
  8
DV1_デフォルト
  6
CONTINUOUS
 62
     7
100
AcDbLine
 10
161.3882721515
 20
123.9939463812
 30
0.0
 11
161.3882721515
 21
124.3803167117
 31
0.0
  0
LINE
  5
F0
330
94
100
AcDbEntity
  8
DV1_デフォルト
  6
CONTINUOUS
 62
     7
100
AcDbLine
 10
163.5882721515
 20
124.3803167117
 30
0.0
 11
163.5882721515
 21
123.9939463812
 31
0.0
  0
LINE
  5
F1
330
94
100
AcDbEntity
  8
DV1_デフォルト
  6
CONTINUOUS
 62
     7
100
AcDbLine
 10
163.5882721515
 20
124.3803167117
 30
0.0
 11
163.3882721515
 21
124.04491165
 31
0.0
  0
LINE
  5
F2
330
94
100
AcDbEntity
  8
DV1_デフォルト
  6
CONTINUOUS
 62
     7
100
AcDbLine
 10
162.6882721515
 20
124.3803167117
 30
0.0
 11
163.5882721515
 21
124.3803167117
 31
0.0
  0
ELLIPSE
  5
F3
330
94
100
AcDbEntity
  8
DV1_デフォルト
  6
CONTINUOUS
 62
     7
100
AcDbEllipse
 10
162.4882721515
 20
124.0318401194
 30
0.0
 11
-1.500000000000005
 21
2.255140518769849E-14
 31
0.0
210
0.0
220
0.0
230
1.0
 40
0.9659258263
 41
5.950574201624554
 42
6.283185307179586
  0
ELLIPSE
  5
F4
330
94
100
AcDbEntity
  8
DV1_デフォルト
  6
CONTINUOUS
 62
     7
100
AcDbEllipse
 10
162.4882721515
 20
124.0318401194
 30
0.0
 11
-1.500000000000005
 21
2.255140518769849E-14
 31
0.0
210
0.0
220
0.0
230
1.0
 40
0.9659258263
 41
3.141592653589793
 42
3.474203759144797
  0
ELLIPSE
  5
F5
330
94
100
AcDbEntity
  8
DV1_デフォルト
  6
CONTINUOUS
 62
     7
100
AcDbEllipse
 10
162.4882721515
 20
124.1398792506
 30
0.0
 11
1.463479506699311
 21
9.540979117872439E-15
 31
0.0
210
0.0
220
0.0
230
1.0
 40
0.9659258263
 41
1.57079632679489
 42
3.141592653589793
  0
LINE
  5
F6
330
94
100
AcDbEntity
  8
DV1_デフォルト
  6
CONTINUOUS
 62
     7
100
AcDbLine
 10
163.9060616649
 20
124.5049198785
 30
0.0
 11
163.8715427499
 21
124.601440939
 31
0.0
  0
LINE
  5
F7
330
94
100
AcDbEntity
  8
DV1_デフォルト
  6
CONTINUOUS
 62
     7
100
AcDbLine
 10
161.105001553
 20
124.601440939
 30
0.0
 11
161.0704826381
 21
124.5049198785
 31
0.0
  0
ELLIPSE
  5
F8
330
94
100
AcDbEntity
  8
DV1_デフォルト
  6
CONTINUOUS
 62
     7
100
AcDbEllipse
 10
155.4882721515
 20
101.9825998192
 30
0.0
 11
-1.500000000000001
 21
0.0
 31
0.0
210
0.0
220
0.0
230
1.0
 40
0.5
 41
3.091059546049562
 42
4.71238898038469
  0
ELLIPSE
  5
F9
330
94
100
AcDbEntity
  8
DV1_デフォルト
  6
CONTINUOUS
 62
     7
100
AcDbEllipse
 10
155.4882721515
 20
101.6210938402
 30
0.0
 11
-1.463479506699311
 21
0.0
 31
0.0
210
0.0
220
0.0
230
1.0
 40
0.5
 41
3.091059546049735
 42
3.141592653589793
  0
LINE
  5
FA
330
94
100
AcDbEntity
  8
DV1_デフォルト
  6
CONTINUOUS
 62
     7
100
AcDbLine
 10
155.6882721515
 20
101.5629845769
 30
0.0
 11
155.4882721515
 21
101.9388616253
 31
0.0
  0
LINE
  5
FB
330
94
100
AcDbEntity
  8
DV1_デフォルト
  6
CONTINUOUS
 62
     7
100
AcDbLine
 10
155.6882721515
 20
101.5629845769
 30
0.0
 11
156.5882721515
 21
101.5629845769
 31
0.0
  0
LINE
  5
FC
330
94
100
AcDbEntity
  8
DV1_デフォルト
  6
CONTINUOUS
 62
     7
100
AcDbLine
 10
155.4882721515
 20
101.9388616253
 30
0.0
 11
155.2882721515
 21
101.5629845769
 31
0.0
  0
LINE
  5
FD
330
94
100
AcDbEntity
  8
DV1_デフォルト
  6
CONTINUOUS
 62
     7
100
AcDbLine
 10
154.3882721515
 20
101.5629845769
 30
0.0
 11
155.2882721515
 21
101.5629845769
 31
0.0
  0
LINE
  5
FE
330
94
100
AcDbEntity
  8
DV1_デフォルト
  6
CONTINUOUS
 62
     7
100
AcDbLine
 10
155.4882721515
 20
101.9388616253
 30
0.0
 11
155.6882721515
 21
101.3629845769
 31
0.0
  0
LINE
  5
FF
330
94
100
AcDbEntity
  8
DV1_デフォルト
  6
CONTINUOUS
 62
     7
100
AcDbLine
 10
156.5882721515
 20
101.3629845769
 30
0.0
 11
155.6882721515
 21
101.3629845769
 31
0.0
  0
LINE
  5
100
330
94
100
AcDbEntity
  8
DV1_デフォルト
  6
CONTINUOUS
 62
     7
100
AcDbLine
 10
156.5882721515
 20
101.3629845769
 30
0.0
 11
156.5188128804
 21
101.5629845769
 31
0.0
  0
LINE
  5
101
330
94
100
AcDbEntity
  8
DV1_デフォルト
  6
CONTINUOUS
 62
     7
100
AcDbLine
 10
155.2882721515
 20
101.3629845769
 30
0.0
 11
155.4882721515
 21
101.9388616253
 31
0.0
  0
LINE
  5
102
330
94
100
AcDbEntity
  8
DV1_デフォルト
  6
CONTINUOUS
 62
     7
100
AcDbLine
 10
154.3882721515
 20
101.3629845769
 30
0.0
 11
154.4577314225
 21
101.5629845769
 31
0.0
  0
LINE
  5
103
330
94
100
AcDbEntity
  8
DV1_デフォルト
  6
CONTINUOUS
 62
     7
100
AcDbLine
 10
155.2882721515
 20
101.3629845769
 30
0.0
 11
154.3882721515
 21
101.3629845769
 31
0.0
  0
LINE
  5
104
330
94
100
AcDbEntity
  8
DV1_デフォルト
  6
CONTINUOUS
 62
     7
100
AcDbLine
 10
156.5882721515
 20
101.5629845769
 30
0.0
 11
156.5882721515
 21
101.3629845769
 31
0.0
  0
LINE
  5
105
330
94
100
AcDbEntity
  8
DV1_デフォルト
  6
CONTINUOUS
 62
     7
100
AcDbLine
 10
154.3882721515
 20
101.3629845769
 30
0.0
 11
154.3882721515
 21
101.5629845769
 31
0.0
  0
LINE
  5
106
330
94
100
AcDbEntity
  8
DV1_デフォルト
  6
CONTINUOUS
 62
     7
100
AcDbLine
 10
155.2882721515
 20
100.9129845769
 30
0.0
 11
155.2882721515
 21
101.3629845769
 31
0.0
  0
LINE
  5
107
330
94
100
AcDbEntity
  8
DV1_デフォルト
  6
CONTINUOUS
 62
     7
100
AcDbLine
 10
155.2882721515
 20
100.9129845769
 30
0.0
 11
155.4882721515
 21
101.4888616253
 31
0.0
  0
LINE
  5
108
330
94
100
AcDbEntity
  8
DV1_デフォルト
  6
CONTINUOUS
 62
     7
100
AcDbLine
 10
155.4882721515
 20
101.4888616253
 30
0.0
 11
155.4882721515
 21
101.9388616253
 31
0.0
  0
LINE
  5
109
330
94
100
AcDbEntity
  8
DV1_デフォルト
  6
CONTINUOUS
 62
     7
100
AcDbLine
 10
155.6882721515
 20
100.9129845769
 30
0.0
 11
155.4882721515
 21
101.4888616253
 31
0.0
  0
LINE
  5
10A
330
94
100
AcDbEntity
  8
DV1_デフォルト
  6
CONTINUOUS
 62
     7
100
AcDbLine
 10
155.6882721515
 20
101.3629845769
 30
0.0
 11
155.6882721515
 21
100.9129845769
 31
0.0
  0
LINE
  5
10B
330
94
100
AcDbEntity
  8
DV1_デフォルト
  6
CONTINUOUS
 62
     7
100
AcDbLine
 10
155.6882721515
 20
102.0129845769
 30
0.0
 11
155.6882721515
 21
101.5629845769
 31
0.0
  0
LINE
  5
10C
330
94
100
AcDbEntity
  8
DV1_デフォルト
  6
CONTINUOUS
 62
     7
100
AcDbLine
 10
155.4882721515
 20
101.9388616253
 30
0.0
 11
155.4882721515
 21
102.0129845769
 31
0.0
  0
LINE
  5
10D
330
94
100
AcDbEntity
  8
DV1_デフォルト
  6
CONTINUOUS
 62
     7
100
AcDbLine
 10
155.6882721515
 20
100.9129845769
 30
0.0
 11
155.2882721515
 21
100.9129845769
 31
0.0
  0
LINE
  5
10E
330
94
100
AcDbEntity
  8
DV1_デフォルト
  6
CONTINUOUS
 62
     7
100
AcDbLine
 10
155.2882721515
 20
102.0129845769
 30
0.0
 11
155.6882721515
 21
102.0129845769
 31
0.0
  0
LINE
  5
10F
330
94
100
AcDbEntity
  8
DV1_デフォルト
  6
CONTINUOUS
 62
     7
100
AcDbLine
 10
155.2882721515
 20
101.5629845769
 30
0.0
 11
155.2882721515
 21
102.0129845769
 31
0.0
  0
ELLIPSE
  5
110
330
94
100
AcDbEntity
  8
DV1_デフォルト
  6
CONTINUOUS
 62
     7
100
AcDbEllipse
 10
155.4882721515
 20
101.9825998192
 30
0.0
 11
1.500000000000001
 21
0.0
 31
0.0
210
0.0
220
0.0
230
1.0
 40
0.5
 41
1.570796326794897
 42
3.192125761130025
  0
LINE
  5
111
330
94
100
AcDbEntity
  8
DV1_デフォルト
  6
CONTINUOUS
 62
     7
100
AcDbLine
 10
156.9498834888
 20
101.584132492
 30
0.0
 11
156.9863573628
 21
101.9447161166
 31
0.0
  0
SPLINE
  5
112
330
94
100
AcDbEntity
  8
DV1_デフォルト
  6
CONTINUOUS
 62
     7
100
AcDbSpline
210
0.0
220
0.0
230
1.0
 70
     8
 71
     3
 72
    28
 73
    24
 74
     0
 42
0.0000000027712635
 43
0.0000000001
 40
0.0
 40
0.0
 40
0.0
 40
0.0
 40
0.0156219405178351
 40
0.0606985587834001
 40
0.1063147077034716
 40
0.1540868331680458
 40
0.2045833602913788
 40
0.2570427327840804
 40
0.3101006264909164
 40
0.362892105274871
 40
0.4153284405190257
 40
0.4675031916459157
 40
0.5195523171458072
 40
0.5716174700105352
 40
0.623804027358926
 40
0.6762625011250423
 40
0.7291666107557564
 40
0.7826903201911585
 40
0.8369064947503339
 40
0.891248262238074
 40
0.9372350006781424
 40
0.9811302521618003
 40
1.0
 40
1.0
 40
1.0
 40
1.0
 10
154.027778922471
 20
101.5929562897235
 30
0.0
 10
154.028785911412
 20
101.5760840678929
 30
0.0
 10
154.0325164736424
 20
101.5201788698206
 30
0.0
 10
154.0667721236512
 20
101.4164863513102
 30
0.0
 10
154.1361058610131
 20
101.2973721283042
 30
0.0
 10
154.236229202432
 20
101.1863157438384
 30
0.0
 10
154.3658923408757
 20
101.0853232830516
 30
0.0
 10
154.5244130245026
 20
100.9962651390767
 30
0.0
 10
154.7073004628882
 20
100.922177203949
 30
0.0
 10
154.9086060805012
 20
100.8650351408441
 30
0.0
 10
155.1226353991184
 20
100.8257784568265
 30
0.0
 10
155.3444385045695
 20
100.804777541345
 30
0.0
 10
155.5691777713927
 20
100.8021956293072
 30
0.0
 10
155.7919845961665
 20
100.8180165845427
 30
0.0
 10
156.0080749181296
 20
100.8520408409768
 30
0.0
 10
156.212894489552
 20
100.9039513121196
 30
0.0
 10
156.4022268807246
 20
100.9734580943172
 30
0.0
 10
156.5721296156374
 20
101.0605467843815
 30
0.0
 10
156.717979315459
 20
101.1651736910589
 30
0.0
 10
156.8298340992029
 20
101.2821340592713
 30
0.0
 10
156.9043814180004
 20
101.4051447720134
 30
0.0
 10
156.9419605440868
 20
101.5102286119353
 30
0.0
 10
156.9463190359683
 20
101.5679136216636
 30
0.0
 10
156.9476956367265
 20
101.5882872956577
 30
0.0
  0
LINE
  5
113
330
94
100
AcDbEntity
  8
DV1_デフォルト
  6
CONTINUOUS
 62
     7
100
AcDbLine
 10
153.9901869402
 20
101.9447161166
 30
0.0
 11
154.0266608141
 21
101.584132492
 31
0.0
  0
ELLIPSE
  5
114
330
94
100
AcDbEntity
  8
DV1_デフォルト
  6
CONTINUOUS
 62
     7
100
AcDbEllipse
 10
155.4882721515
 20
135.3245778649
 30
0.0
 11
-1.500000000000001
 21
0.0
 31
0.0
210
0.0
220
0.0
230
1.0
 40
0.5
 41
1.570796326794897
 42
3.192125761129649
  0
ELLIPSE
  5
115
330
94
100
AcDbEntity
  8
DV1_デフォルト
  6
CONTINUOUS
 62
     7
100
AcDbEllipse
 10
155.4882721515
 20
135.6860838439
 30
0.0
 11
1.463479506699304
 21
3.469446951953614E-15
 31
0.0
210
0.0
220
0.0
230
1.0
 40
0.5
 41
3.091059546049825
 42
3.141592653589789
  0
LINE
  5
116
330
94
100
AcDbEntity
  8
DV1_デフォルト
  6
CONTINUOUS
 62
     7
100
AcDbLine
 10
155.6882721515
 20
135.9441931072
 30
0.0
 11
155.4882721515
 21
135.3683160589
 31
0.0
  0
LINE
  5
117
330
94
100
AcDbEntity
  8
DV1_デフォルト
  6
CONTINUOUS
 62
     7
100
AcDbLine
 10
156.5882721515
 20
135.9441931072
 30
0.0
 11
156.5188128804
 21
135.7441931072
 31
0.0
  0
LINE
  5
118
330
94
100
AcDbEntity
  8
DV1_デフォルト
  6
CONTINUOUS
 62
     7
100
AcDbLine
 10
155.6882721515
 20
135.9441931072
 30
0.0
 11
156.5882721515
 21
135.9441931072
 31
0.0
  0
LINE
  5
119
330
94
100
AcDbEntity
  8
DV1_デフォルト
  6
CONTINUOUS
 62
     7
100
AcDbLine
 10
155.4882721515
 20
135.3683160589
 30
0.0
 11
155.2882721515
 21
135.9441931072
 31
0.0
  0
LINE
  5
11A
330
94
100
AcDbEntity
  8
DV1_デフォルト
  6
CONTINUOUS
 62
     7
100
AcDbLine
 10
154.3882721515
 20
135.9441931072
 30
0.0
 11
155.2882721515
 21
135.9441931072
 31
0.0
  0
LINE
  5
11B
330
94
100
AcDbEntity
  8
DV1_デフォルト
  6
CONTINUOUS
 62
     7
100
AcDbLine
 10
154.3882721515
 20
135.9441931072
 30
0.0
 11
154.4577314225
 21
135.7441931072
 31
0.0
  0
LINE
  5
11C
330
94
100
AcDbEntity
  8
DV1_デフォルト
  6
CONTINUOUS
 62
     7
100
AcDbLine
 10
155.4882721515
 20
135.3683160589
 30
0.0
 11
155.6882721515
 21
135.7441931072
 31
0.0
  0
LINE
  5
11D
330
94
100
AcDbEntity
  8
DV1_デフォルト
  6
CONTINUOUS
 62
     7
100
AcDbLine
 10
156.5882721515
 20
135.7441931072
 30
0.0
 11
155.6882721515
 21
135.7441931072
 31
0.0
  0
LINE
  5
11E
330
94
100
AcDbEntity
  8
DV1_デフォルト
  6
CONTINUOUS
 62
     7
100
AcDbLine
 10
155.2882721515
 20
135.7441931072
 30
0.0
 11
155.4882721515
 21
135.3683160589
 31
0.0
  0
LINE
  5
11F
330
94
100
AcDbEntity
  8
DV1_デフォルト
  6
CONTINUOUS
 62
     7
100
AcDbLine
 10
155.2882721515
 20
135.7441931072
 30
0.0
 11
154.3882721515
 21
135.7441931072
 31
0.0
  0
LINE
  5
120
330
94
100
AcDbEntity
  8
DV1_デフォルト
  6
CONTINUOUS
 62
     7
100
AcDbLine
 10
156.5882721515
 20
135.9441931072
 30
0.0
 11
156.5882721515
 21
135.7441931072
 31
0.0
  0
LINE
  5
121
330
94
100
AcDbEntity
  8
DV1_デフォルト
  6
CONTINUOUS
 62
     7
100
AcDbLine
 10
154.3882721515
 20
135.7441931072
 30
0.0
 11
154.3882721515
 21
135.9441931072
 31
0.0
  0
LINE
  5
122
330
94
100
AcDbEntity
  8
DV1_デフォルト
  6
CONTINUOUS
 62
     7
100
AcDbLine
 10
155.2882721515
 20
135.2941931072
 30
0.0
 11
155.2882721515
 21
135.7441931072
 31
0.0
  0
LINE
  5
123
330
94
100
AcDbEntity
  8
DV1_デフォルト
  6
CONTINUOUS
 62
     7
100
AcDbLine
 10
155.4882721515
 20
135.2941931072
 30
0.0
 11
155.4882721515
 21
135.3683160589
 31
0.0
  0
LINE
  5
124
330
94
100
AcDbEntity
  8
DV1_デフォルト
  6
CONTINUOUS
 62
     7
100
AcDbLine
 10
155.6882721515
 20
135.7441931072
 30
0.0
 11
155.6882721515
 21
135.2941931072
 31
0.0
  0
LINE
  5
125
330
94
100
AcDbEntity
  8
DV1_デフォルト
  6
CONTINUOUS
 62
     7
100
AcDbLine
 10
155.6882721515
 20
136.3941931072
 30
0.0
 11
155.6882721515
 21
135.9441931072
 31
0.0
  0
LINE
  5
126
330
94
100
AcDbEntity
  8
DV1_デフォルト
  6
CONTINUOUS
 62
     7
100
AcDbLine
 10
155.6882721515
 20
136.3941931072
 30
0.0
 11
155.4882721515
 21
135.8183160589
 31
0.0
  0
LINE
  5
127
330
94
100
AcDbEntity
  8
DV1_デフォルト
  6
CONTINUOUS
 62
     7
100
AcDbLine
 10
155.4882721515
 20
135.3683160589
 30
0.0
 11
155.4882721515
 21
135.8183160589
 31
0.0
  0
LINE
  5
128
330
94
100
AcDbEntity
  8
DV1_デフォルト
  6
CONTINUOUS
 62
     7
100
AcDbLine
 10
155.6882721515
 20
135.2941931072
 30
0.0
 11
155.2882721515
 21
135.2941931072
 31
0.0
  0
LINE
  5
129
330
94
100
AcDbEntity
  8
DV1_デフォルト
  6
CONTINUOUS
 62
     7
100
AcDbLine
 10
155.2882721515
 20
136.3941931072
 30
0.0
 11
155.6882721515
 21
136.3941931072
 31
0.0
  0
LINE
  5
12A
330
94
100
AcDbEntity
  8
DV1_デフォルト
  6
CONTINUOUS
 62
     7
100
AcDbLine
 10
155.2882721515
 20
136.3941931072
 30
0.0
 11
155.4882721515
 21
135.8183160589
 31
0.0
  0
LINE
  5
12B
330
94
100
AcDbEntity
  8
DV1_デフォルト
  6
CONTINUOUS
 62
     7
100
AcDbLine
 10
155.2882721515
 20
135.9441931072
 30
0.0
 11
155.2882721515
 21
136.3941931072
 31
0.0
  0
ELLIPSE
  5
12C
330
94
100
AcDbEntity
  8
DV1_デフォルト
  6
CONTINUOUS
 62
     7
100
AcDbEllipse
 10
155.4882721515
 20
135.3245778649
 30
0.0
 11
1.500000000000001
 21
0.0
 31
0.0
210
0.0
220
0.0
230
1.0
 40
0.5
 41
3.091059546049562
 42
4.71238898038469
  0
LINE
  5
12D
330
94
100
AcDbEntity
  8
DV1_デフォルト
  6
CONTINUOUS
 62
     7
100
AcDbLine
 10
156.9863573628
 20
135.3624615675
 30
0.0
 11
156.9498834888
 21
135.7230451921
 31
0.0
  0
SPLINE
  5
12E
330
94
100
AcDbEntity
  8
DV1_デフォルト
  6
CONTINUOUS
 62
     7
100
AcDbSpline
210
0.0
220
0.0
230
1.0
 70
     8
 71
     3
 72
    28
 73
    24
 74
     0
 42
0.0000000027712635
 43
0.0000000001
 40
0.0
 40
0.0
 40
0.0
 40
0.0
 40
0.0156219405178351
 40
0.0606985587833998
 40
0.1063147077034713
 40
0.1540868331680445
 40
0.2045833602913786
 40
0.2570427327840806
 40
0.3101006264909164
 40
0.3628921052748713
 40
0.415328440519026
 40
0.467503191645916
 40
0.5195523171458059
 40
0.5716174700105355
 40
0.6238040273589247
 40
0.6762625011250425
 40
0.7291666107557553
 40
0.7826903201911586
 40
0.8369064947503343
 40
0.8912482622380742
 40
0.9372350006781427
 40
0.9811302521618007
 40
1.0
 40
1.0
 40
1.0
 40
1.0
 10
156.9487653804839
 20
135.7142213943962
 30
0.0
 10
156.9477583915429
 20
135.7310936162267
 30
0.0
 10
156.9440278293125
 20
135.7869988142991
 30
0.0
 10
156.9097721793038
 20
135.8906913328095
 30
0.0
 10
156.8404384419419
 20
136.0098055558155
 30
0.0
 10
156.7403151005229
 20
136.1208619402813
 30
0.0
 10
156.6106519620792
 20
136.2218544010681
 30
0.0
 10
156.4521312784523
 20
136.3109125450429
 30
0.0
 10
156.2692438400668
 20
136.3850004801706
 30
0.0
 10
156.0679382224537
 20
136.4421425432756
 30
0.0
 10
155.8539089038365
 20
136.4813992272931
 30
0.0
 10
155.6321057983855
 20
136.5024001427747
 30
0.0
 10
155.4073665315622
 20
136.5049820548124
 30
0.0
 10
155.1845597067885
 20
136.4891610995769
 30
0.0
 10
154.9684693848255
 20
136.4551368431428
 30
0.0
 10
154.763649813403
 20
136.4032263720001
 30
0.0
 10
154.5743174222303
 20
136.3337195898025
 30
0.0
 10
154.4044146873175
 20
136.2466308997381
 30
0.0
 10
154.2585649874959
 20
136.1420039930607
 30
0.0
 10
154.1467102037521
 20
136.0250436248484
 30
0.0
 10
154.0721628849546
 20
135.9020329121063
 30
0.0
 10
154.0345837588681
 20
135.7969490721843
 30
0.0
 10
154.0302252669866
 20
135.7392640624561
 30
0.0
 10
154.0288486662285
 20
135.718890388462
 30
0.0
  0
LINE
  5
12F
330
94
100
AcDbEntity
  8
DV1_デフォルト
  6
CONTINUOUS
 62
     7
100
AcDbLine
 10
154.0266608141
 20
135.7230451921
 30
0.0
 11
153.9901869402
 21
135.3624615675
 31
0.0
  0
LINE
  5
130
330
94
100
AcDbEntity
  8
DV1_デフォルト
  6
CONTINUOUS
 62
     7
100
AcDbLine
 10
133.5280004287
 20
135.7490969177
 30
0.0
 11
133.2681928076
 21
135.9740969177
 31
0.0
  0
LINE
  5
131
330
94
100
AcDbEntity
  8
DV1_デフォルト
  6
CONTINUOUS
 62
     7
100
AcDbLine
 10
133.2681928076
 20
135.9740969177
 30
0.0
 11
133.5280004287
 21
136.1990969177
 31
0.0
  0
LINE
  5
132
330
94
100
AcDbEntity
  8
DV1_デフォルト
  6
CONTINUOUS
 62
     7
100
AcDbLine
 10
133.5280004287
 20
136.1990969177
 30
0.0
 11
134.047615671
 21
136.1990969177
 31
0.0
  0
LINE
  5
133
330
94
100
AcDbEntity
  8
DV1_デフォルト
  6
CONTINUOUS
 62
     7
100
AcDbLine
 10
133.5280004287
 20
135.7490969177
 30
0.0
 11
133.5280004287
 21
136.1990969177
 31
0.0
  0
LINE
  5
134
330
94
100
AcDbEntity
  8
DV1_デフォルト
  6
CONTINUOUS
 62
     7
100
AcDbLine
 10
134.047615671
 20
136.1990969177
 30
0.0
 11
134.3074232921
 21
135.9740969177
 31
0.0
  0
LINE
  5
135
330
94
100
AcDbEntity
  8
DV1_デフォルト
  6
CONTINUOUS
 62
     7
100
AcDbLine
 10
134.047615671
 20
135.7490969177
 30
0.0
 11
134.047615671
 21
136.1990969177
 31
0.0
  0
LINE
  5
136
330
94
100
AcDbEntity
  8
DV1_デフォルト
  6
CONTINUOUS
 62
     7
100
AcDbLine
 10
134.3074232921
 20
135.9740969177
 30
0.0
 11
134.047615671
 21
135.7490969177
 31
0.0
  0
LINE
  5
137
330
94
100
AcDbEntity
  8
DV1_デフォルト
  6
CONTINUOUS
 62
     7
100
AcDbLine
 10
134.047615671
 20
135.7490969177
 30
0.0
 11
133.5280004287
 21
135.7490969177
 31
0.0
  0
ELLIPSE
  5
138
330
94
100
AcDbEntity
  8
DV1_デフォルト
  6
CONTINUOUS
 62
     7
100
AcDbEllipse
 10
133.7912721515
 20
135.9740969177
 30
0.0
 11
0.800000000000002
 21
-3.469446951953614E-15
 31
0.0
210
0.0
220
0.0
230
1.0
 40
0.5
 41
0.0
 42
6.283185307179586
  0
LINE
  5
139
330
94
100
AcDbEntity
  8
DV1_デフォルト
  6
CONTINUOUS
 62
     7
100
AcDbLine
 10
133.5280004287
 20
101.1080807664
 30
0.0
 11
133.2681928076
 21
101.3330807664
 31
0.0
  0
LINE
  5
13A
330
94
100
AcDbEntity
  8
DV1_デフォルト
  6
CONTINUOUS
 62
     7
100
AcDbLine
 10
133.5280004287
 20
101.5580807664
 30
0.0
 11
133.5280004287
 21
101.1080807664
 31
0.0
  0
LINE
  5
13B
330
94
100
AcDbEntity
  8
DV1_デフォルト
  6
CONTINUOUS
 62
     7
100
AcDbLine
 10
133.2681928076
 20
101.3330807664
 30
0.0
 11
133.5280004287
 21
101.5580807664
 31
0.0
  0
LINE
  5
13C
330
94
100
AcDbEntity
  8
DV1_デフォルト
  6
CONTINUOUS
 62
     7
100
AcDbLine
 10
133.5280004287
 20
101.5580807664
 30
0.0
 11
134.047615671
 21
101.5580807664
 31
0.0
  0
LINE
  5
13D
330
94
100
AcDbEntity
  8
DV1_デフォルト
  6
CONTINUOUS
 62
     7
100
AcDbLine
 10
134.047615671
 20
101.5580807664
 30
0.0
 11
134.3074232921
 21
101.3330807664
 31
0.0
  0
LINE
  5
13E
330
94
100
AcDbEntity
  8
DV1_デフォルト
  6
CONTINUOUS
 62
     7
100
AcDbLine
 10
134.3074232921
 20
101.3330807664
 30
0.0
 11
134.047615671
 21
101.1080807664
 31
0.0
  0
LINE
  5
13F
330
94
100
AcDbEntity
  8
DV1_デフォルト
  6
CONTINUOUS
 62
     7
100
AcDbLine
 10
134.047615671
 20
101.1080807664
 30
0.0
 11
133.5280004287
 21
101.1080807664
 31
0.0
  0
LINE
  5
140
330
94
100
AcDbEntity
  8
DV1_デフォルト
  6
CONTINUOUS
 62
     7
100
AcDbLine
 10
134.047615671
 20
101.5580807664
 30
0.0
 11
134.047615671
 21
101.1080807664
 31
0.0
  0
ELLIPSE
  5
141
330
94
100
AcDbEntity
  8
DV1_デフォルト
  6
CONTINUOUS
 62
     7
100
AcDbEllipse
 10
133.7912721515
 20
101.3330807664
 30
0.0
 11
-0.800000000000002
 21
-6.938893903907228E-15
 31
0.0
210
0.0
220
0.0
230
1.0
 40
0.5
 41
0.0
 42
6.283185307179586
  0
LINE
  5
142
330
94
100
AcDbEntity
  8
DV1_デフォルト
  6
CONTINUOUS
 62
     7
100
AcDbLine
 10
173.1105097885
 20
118.4535888421
 30
0.0
 11
171.8660345144
 21
118.4535888421
 31
0.0
  0
LINE
  5
143
330
94
100
AcDbEntity
  8
DV1_デフォルト
  6
CONTINUOUS
 62
     7
100
AcDbLine
 10
171.8660345144
 20
118.8535888421
 30
0.0
 11
173.1105097885
 21
118.8535888421
 31
0.0
  0
ARC
  5
144
330
94
100
AcDbEntity
  8
DV1_デフォルト
  6
CONTINUOUS
 62
     7
100
AcDbCircle
 10
172.4882721515
 20
118.6535888421
 30
0.0
 40
0.6535898384862244
100
AcDbArc
 50
17.8184754
 51
162.1815246
  0
ARC
  5
145
330
94
100
AcDbEntity
  8
DV1_デフォルト
  6
CONTINUOUS
 62
     7
100
AcDbCircle
 10
172.4882721515
 20
118.6535888421
 30
0.0
 40
0.6535898384862244
100
AcDbArc
 50
197.8184754
 51
342.1815246
  0
LINE
  5
146
330
94
100
AcDbEntity
  8
DV1_デフォルト
  6
CONTINUOUS
 62
     7
100
AcDbLine
 10
171.7382721515
 20
118.4535888421
 30
0.0
 11
171.8660345144
 21
118.4535888421
 31
0.0
  0
LINE
  5
147
330
94
100
AcDbEntity
  8
DV1_デフォルト
  6
CONTINUOUS
 62
     7
100
AcDbLine
 10
173.1105097885
 20
118.4535888421
 30
0.0
 11
173.2512699854
 21
118.4535888421
 31
0.0
  0
LINE
  5
148
330
94
100
AcDbEntity
  8
DV1_デフォルト
  6
CONTINUOUS
 62
     7
100
AcDbLine
 10
173.2599242582
 20
118.8535888421
 30
0.0
 11
173.1105097885
 21
118.8535888421
 31
0.0
  0
LINE
  5
149
330
94
100
AcDbEntity
  8
DV1_デフォルト
  6
CONTINUOUS
 62
     7
100
AcDbLine
 10
171.8660345144
 20
118.8535888421
 30
0.0
 11
171.7188158
 21
118.8535888421
 31
0.0
  0
LINE
  5
14A
330
94
100
AcDbEntity
  8
DV1_デフォルト
  6
CONTINUOUS
 62
     7
100
AcDbLine
 10
116.1912721515
 20
94.6535888421
 30
0.0
 11
116.1912721515
 21
142.6535888421
 31
0.0
  0
LINE
  5
14B
330
94
100
AcDbEntity
  8
DV1_デフォルト
  6
CONTINUOUS
 62
     7
100
AcDbLine
 10
115.9912721515
 20
142.4535888421
 30
0.0
 11
115.9912721515
 21
94.8535888421
 31
0.0
  0
LINE
  5
14C
330
94
100
AcDbEntity
  8
DV1_デフォルト
  6
CONTINUOUS
 62
     7
100
AcDbLine
 10
126.9912721515
 20
139.4535888421
 30
0.0
 11
126.9912721515
 21
97.8535888421
 31
0.0
  0
LINE
  5
14D
330
94
100
AcDbEntity
  8
DV1_デフォルト
  6
CONTINUOUS
 62
     7
100
AcDbLine
 10
126.7912721515
 20
97.6535888421
 30
0.0
 11
126.7912721515
 21
139.6535888421
 31
0.0
  0
LINE
  5
14E
330
94
100
AcDbEntity
  8
DV1_デフォルト
  6
CONTINUOUS
 62
     7
100
AcDbLine
 10
123.9912721515
 20
142.4535888421
 30
0.0
 11
123.9912721515
 21
94.8535888421
 31
0.0
  0
LINE
  5
14F
330
94
100
AcDbEntity
  8
DV1_デフォルト
  6
CONTINUOUS
 62
     7
100
AcDbLine
 10
123.7912721515
 20
94.6535888421
 30
0.0
 11
123.7912721515
 21
142.6535888421
 31
0.0
  0
SPLINE
  5
150
330
94
100
AcDbEntity
  8
DV1_デフォルト
  6
CONTINUOUS
 62
     7
100
AcDbSpline
210
0.0
220
0.0
230
1.0
 70
    11
 71
     3
 72
    62
 73
    58
 74
     0
 42
0.0000000018676836
 43
0.0000000001
 40
0.0
 40
0.0
 40
0.0
 40
0.0
 40
0.0536543104527878
 40
0.0536543104527878
 40
0.0536543104527878
 40
0.1073054825134268
 40
0.1073054825134268
 40
0.1073054825134268
 40
0.1610037105990052
 40
0.1610037105990052
 40
0.1610037105990052
 40
0.2147340830577812
 40
0.2147340830577812
 40
0.2147340830577812
 40
0.2684137807473533
 40
0.2684137807473533
 40
0.2684137807473533
 40
0.3220391875939121
 40
0.3220391875939121
 40
0.3220391875939121
 40
0.3756911894492979
 40
0.3756911894492979
 40
0.3756911894492979
 40
0.429409264377864
 40
0.429409264377864
 40
0.429409264377864
 40
0.4831299347535268
 40
0.4831299347535268
 40
0.4831299347535268
 40
0.5367854176480547
 40
0.5367854176480547
 40
0.5367854176480547
 40
0.590409753307292
 40
0.590409753307292
 40
0.590409753307292
 40
0.6440855126079998
 40
0.6440855126079998
 40
0.6440855126079998
 40
0.6978150486884509
 40
0.6978150486884509
 40
0.6978150486884509
 40
0.7515168333911911
 40
0.7515168333911911
 40
0.7515168333911911
 40
0.8051527537557732
 40
0.8051527537557732
 40
0.8051527537557732
 40
0.8587873703619897
 40
0.8587873703619897
 40
0.8587873703619897
 40
0.9124871798491162
 40
0.9124871798491162
 40
0.9124871798491162
 40
0.9662172243682616
 40
0.9662172243682616
 40
0.9662172243682616
 40
1.0
 40
1.0
 40
1.0
 40
1.0
 10
125.4912721514775
 20
136.2651554044465
 30
0.0
 10
125.6142942623928
 20
136.2651554044465
 30
0.0
 10
125.7390125212942
 20
136.276757096264
 30
0.0
 10
125.855095273384
 20
136.2988428632518
 30
0.0
 10
125.9711741655729
 20
136.3209278958593
 30
0.0
 10
126.0818187418354
 20
136.3540891599617
 30
0.0
 10
126.1778965759788
 20
136.395193602788
 30
0.0
 10
126.2740573021648
 20
136.4363335088535
 30
0.0
 10
126.3582786110334
 20
136.4865431710902
 30
0.0
 10
126.4236002454023
 20
136.5412194091603
 30
0.0
 10
126.4889586363437
 20
136.595926413624
 30
0.0
 10
126.5371979479802
 20
136.6565970417695
 30
0.0
 10
126.5643064943068
 20
136.7178796304333
 30
0.0
 10
126.5913896875793
 20
136.7791049050394
 30
0.0
 10
126.5981273767232
 20
136.8426219026005
 30
0.0
 10
126.5839578399333
 20
136.9031122064254
 30
0.0
 10
126.5698020780864
 20
136.9635437044831
 30
0.0
 10
126.5343924919468
 20
137.0226251229942
 30
0.0
 10
126.48066835414
 20
137.0757183821145
 30
0.0
 10
126.4269170637174
 20
137.1288384749995
 30
0.0
 10
126.3533548194808
 20
137.1774457140556
 30
0.0
 10
126.2660583174418
 20
137.2179645316291
 30
0.0
 10
126.1786573672228
 20
137.2585318290002
 30
0.0
 10
126.0750766189925
 20
137.2921321774305
 30
0.0
 10
125.9638791370281
 20
137.3164161345382
 30
0.0
 10
125.8526790731739
 20
137.3407006554941
 30
0.0
 10
125.7307887300228
 20
137.356354763329
 30
0.0
 10
125.6083191232414
 20
137.3623157811488
 30
0.0
 10
125.485995162428
 20
137.3682697098774
 30
0.0
 10
125.3597183817192
 20
137.3647224404376
 30
0.0
 10
125.2399560948915
 20
137.351912615401
 30
0.0
 10
125.1202590644758
 20
137.3391097702179
 30
0.0
 10
125.0037712013617
 20
137.3166935331849
 30
0.0
 10
124.9001088919312
 20
137.2861926134807
 30
0.0
 10
124.7963480563182
 20
137.2556627040772
 30
0.0
 10
124.7025764804076
 20
137.2161721120638
 30
0.0
 10
124.6265332172161
 20
137.1705251064864
 30
0.0
 10
124.5504167606434
 20
137.1248341646215
 30
0.0
 10
124.4899636391586
 20
137.0716911777741
 30
0.0
 10
124.4501913106718
 20
137.0151094392784
 30
0.0
 10
124.4104398750814
 20
136.9585574238702
 30
0.0
 10
124.3902527343849
 20
136.8969944189206
 30
0.0
 10
124.3913129298628
 20
136.8353846828587
 30
0.0
 10
124.3923718625796
 20
136.7738483279562
 30
0.0
 10
124.4146552018243
 20
136.7105691437454
 30
0.0
 10
124.4563098171679
 20
136.6509440970779
 30
0.0
 10
124.4979644341203
 20
136.5913190481075
 30
0.0
 10
124.56013406041
 20
136.5337192139527
 30
0.0
 10
124.6376776019157
 20
136.4832873467546
 30
0.0
 10
124.7153134952258
 20
136.4327954168634
 30
0.0
 10
124.8105007170268
 20
136.3881175604718
 30
0.0
 10
124.9153768696743
 20
136.3534019243466
 30
0.0
 10
125.0203083588367
 20
136.318667970975
 30
0.0
 10
125.1378390631411
 20
136.2929689573621
 30
0.0
 10
125.2582281938029
 20
136.2787615164717
 30
0.0
 10
125.3345773724199
 20
136.2697513472291
 30
0.0
 10
125.4131450185162
 20
136.2651554044465
 30
0.0
 10
125.4912721514775
 20
136.2651554044465
 30
0.0
  0
ELLIPSE
  5
151
330
94
100
AcDbEntity
  8
DV1_デフォルト
  6
CONTINUOUS
 62
     7
100
AcDbEllipse
 10
125.4912721515
 20
136.4071096196
 30
0.0
 11
-1.100000000000004
 21
0.0
 31
0.0
210
0.0
220
0.0
230
1.0
 40
0.5
 41
-0.4802327736914593
 42
-0.3968089600395395
  0
ELLIPSE
  5
152
330
94
100
AcDbEntity
  8
DV1_デフォルト
  6
CONTINUOUS
 62
     7
100
AcDbEllipse
 10
125.4912721515
 20
136.4071096196
 30
0.0
 11
-1.100000000000004
 21
0.0
 31
0.0
210
0.0
220
0.0
230
1.0
 40
0.5
 41
3.548190002816185
 42
3.621825427281224
  0
SPLINE
  5
153
330
94
100
AcDbEntity
  8
DV1_デフォルト
  6
CONTINUOUS
 62
     7
100
AcDbSpline
210
0.0
220
0.0
230
1.0
 70
    11
 71
     3
 72
    62
 73
    58
 74
     0
 42
0.0000000018676632
 43
0.0000000001
 40
0.0
 40
0.0
 40
0.0
 40
0.0
 40
0.0536543104527899
 40
0.0536543104527899
 40
0.0536543104527899
 40
0.1073054825134293
 40
0.1073054825134293
 40
0.1073054825134293
 40
0.161003710599009
 40
0.161003710599009
 40
0.161003710599009
 40
0.2147340830577844
 40
0.2147340830577844
 40
0.2147340830577844
 40
0.2684137807473561
 40
0.2684137807473561
 40
0.2684137807473561
 40
0.3220391875939156
 40
0.3220391875939156
 40
0.3220391875939156
 40
0.3756911894493007
 40
0.3756911894493007
 40
0.3756911894493007
 40
0.4294092643778683
 40
0.4294092643778683
 40
0.4294092643778683
 40
0.4831299347535307
 40
0.4831299347535307
 40
0.4831299347535307
 40
0.5367854176480586
 40
0.5367854176480586
 40
0.5367854176480586
 40
0.5904097533072941
 40
0.5904097533072941
 40
0.5904097533072941
 40
0.6440855126080017
 40
0.6440855126080017
 40
0.6440855126080017
 40
0.697815048688454
 40
0.697815048688454
 40
0.697815048688454
 40
0.7515168333911941
 40
0.7515168333911941
 40
0.7515168333911941
 40
0.8051527537557768
 40
0.8051527537557768
 40
0.8051527537557768
 40
0.8587873703619948
 40
0.8587873703619948
 40
0.8587873703619948
 40
0.9124871798491182
 40
0.9124871798491182
 40
0.9124871798491182
 40
0.9662172243682655
 40
0.9662172243682655
 40
0.9662172243682655
 40
1.0
 40
1.0
 40
1.0
 40
1.0
 10
125.4912721514775
 20
99.94202227967322
 30
0.0
 10
125.6142942623928
 20
99.94202227967322
 30
0.0
 10
125.7390125212942
 20
99.95164577613058
 30
0.0
 10
125.855095273384
 20
99.97024391157042
 30
0.0
 10
125.9711741655729
 20
99.98884142859833
 30
0.0
 10
126.0818187418354
 20
100.0169377494515
 30
0.0
 10
126.1778965759788
 20
100.0525965670646
 30
0.0
 10
126.2740573021648
 20
100.0882861496534
 30
0.0
 10
126.3582786110334
 20
100.1325567995039
 30
0.0
 10
126.4236002454023
 20
100.1822080498815
 30
0.0
 10
126.4889586363437
 20
100.2318872390853
 30
0.0
 10
126.5371979479802
 20
100.2883460052913
 30
0.0
 10
126.5643064943068
 20
100.3472292636517
 30
0.0
 10
126.5913896875793
 20
100.4060574519092
 30
0.0
 10
126.5981273767232
 20
100.4689393179014
 30
0.0
 10
126.5839578399333
 20
100.5307066488977
 30
0.0
 10
126.5698020780864
 20
100.5924139326625
 30
0.0
 10
126.5343924919467
 20
100.6547043614822
 30
0.0
 10
126.48066835414
 20
100.7121828755452
 30
0.0
 10
126.4269170637173
 20
100.7696904397163
 30
0.0
 10
126.3533548194808
 20
100.8239489261986
 30
0.0
 10
126.2660583174418
 20
100.8700501374178
 30
0.0
 10
126.1786573672228
 20
100.9162065076355
 30
0.0
 10
126.0750766189924
 20
100.9554371274032
 30
0.0
 10
125.9638791370281
 20
100.9840604155875
 30
0.0
 10
125.8526790731739
 20
101.0126843683747
 30
0.0
 10
125.7307887300228
 20
101.0314719753269
 30
0.0
 10
125.6083191232414
 20
101.0386169058856
 30
0.0
 10
125.4859951624279
 20
101.0457533393946
 30
0.0
 10
125.3597183817192
 20
101.0414668547163
 30
0.0
 10
125.2399560948914
 20
101.026171338988
 30
0.0
 10
125.1202590644758
 20
101.0108841575233
 30
0.0
 10
125.0037712013617
 20
100.9841907360638
 30
0.0
 10
124.9001088919312
 20
100.9486304773341
 30
0.0
 10
124.7963480563182
 20
100.9130364202398
 30
0.0
 10
124.7025764804076
 20
100.8675984908433
 30
0.0
 10
124.6265332172161
 20
100.8165250477132
 30
0.0
 10
124.5504167606434
 20
100.7654024452252
 30
0.0
 10
124.4899636391585
 20
100.7072425725414
 30
0.0
 10
124.4501913106718
 20
100.6472452189083
 30
0.0
 10
124.4104398750814
 20
100.5872793826276
 30
0.0
 10
124.3902527343849
 20
100.5238349753467
 30
0.0
 10
124.3913129298628
 20
100.4623214235229
 30
0.0
 10
124.3923718625796
 20
100.4008811382968
 30
0.0
 10
124.4146552018243
 20
100.3396725436461
 30
0.0
 10
124.4563098171679
 20
100.2836037887694
 30
0.0
 10
124.4979644341203
 20
100.2275350317272
 30
0.0
 10
124.56013406041
 20
100.1750469985352
 30
0.0
 10
124.6376776019157
 20
100.1300774339405
 30
0.0
 10
124.7153134952258
 20
100.0850543120752
 30
0.0
 10
124.8105007170268
 20
100.0463044923165
 30
0.0
 10
124.9153768696743
 20
100.0165753412943
 30
0.0
 10
125.0203083588367
 20
99.98683050407881
 30
0.0
 10
125.1378390631411
 20
99.96527608285945
 30
0.0
 10
125.2582281938029
 20
99.95338569654898
 30
0.0
 10
125.3345773724199
 20
99.94584497237187
 30
0.0
 10
125.4131450185162
 20
99.94202227967322
 30
0.0
 10
125.4912721514775
 20
99.94202227967322
 30
0.0
  0
ELLIPSE
  5
154
330
94
100
AcDbEntity
  8
DV1_デフォルト
  6
CONTINUOUS
 62
     7
100
AcDbEllipse
 10
125.4912721515
 20
100.9000680645
 30
0.0
 11
-1.100000000000004
 21
0.0
 31
0.0
210
0.0
220
0.0
230
1.0
 40
0.5
 41
-3.621825427281224
 42
-3.547723369833629
  0
ELLIPSE
  5
155
330
94
100
AcDbEntity
  8
DV1_デフォルト
  6
CONTINUOUS
 62
     7
100
AcDbEllipse
 10
125.4912721515
 20
100.9000680645
 30
0.0
 11
-1.100000000000004
 21
0.0
 31
0.0
210
0.0
220
0.0
230
1.0
 40
0.5
 41
0.3995510407989745
 42
0.4802327736914592
  0
LINE
  5
156
330
94
100
AcDbEntity
  8
DV1_デフォルト
  6
CONTINUOUS
 62
     7
100
AcDbLine
 10
123.7912721515
 20
142.6535888421
 30
0.0
 11
116.1912721515
 21
142.6535888421
 31
0.0
  0
LINE
  5
157
330
94
100
AcDbEntity
  8
DV1_デフォルト
  6
CONTINUOUS
 62
     7
100
AcDbLine
 10
116.1912721515
 20
94.6535888421
 30
0.0
 11
123.7912721515
 21
94.6535888421
 31
0.0
  0
LINE
  5
158
330
94
100
AcDbEntity
  8
DV1_デフォルト
  6
CONTINUOUS
 62
     7
100
AcDbLine
 10
116.1912721515
 20
142.6535888421
 30
0.0
 11
115.9912721515
 21
142.4535888421
 31
0.0
  0
LINE
  5
159
330
94
100
AcDbEntity
  8
DV1_デフォルト
  6
CONTINUOUS
 62
     7
100
AcDbLine
 10
115.9912721515
 20
94.8535888421
 30
0.0
 11
116.1912721515
 21
94.6535888421
 31
0.0
  0
LINE
  5
15A
330
94
100
AcDbEntity
  8
DV1_デフォルト
  6
CONTINUOUS
 62
     7
100
AcDbLine
 10
123.9912721515
 20
97.6535888421
 30
0.0
 11
126.7912721515
 21
97.6535888421
 31
0.0
  0
LINE
  5
15B
330
94
100
AcDbEntity
  8
DV1_デフォルト
  6
CONTINUOUS
 62
     7
100
AcDbLine
 10
126.7912721515
 20
139.6535888421
 30
0.0
 11
123.9912721515
 21
139.6535888421
 31
0.0
  0
LINE
  5
15C
330
94
100
AcDbEntity
  8
DV1_デフォルト
  6
CONTINUOUS
 62
     7
100
AcDbLine
 10
126.7912721515
 20
97.6535888421
 30
0.0
 11
126.9912721515
 21
97.8535888421
 31
0.0
  0
LINE
  5
15D
330
94
100
AcDbEntity
  8
DV1_デフォルト
  6
CONTINUOUS
 62
     7
100
AcDbLine
 10
126.9912721515
 20
139.4535888421
 30
0.0
 11
126.7912721515
 21
139.6535888421
 31
0.0
  0
LINE
  5
15E
330
94
100
AcDbEntity
  8
DV1_デフォルト
  6
CONTINUOUS
 62
     7
100
AcDbLine
 10
123.7912721515
 20
94.6535888421
 30
0.0
 11
123.9912721515
 21
94.8535888421
 31
0.0
  0
LINE
  5
15F
330
94
100
AcDbEntity
  8
DV1_デフォルト
  6
CONTINUOUS
 62
     7
100
AcDbLine
 10
123.9912721515
 20
142.4535888421
 30
0.0
 11
123.7912721515
 21
142.6535888421
 31
0.0
  0
LINE
  5
160
330
94
100
AcDbEntity
  8
DV1_デフォルト
  6
CONTINUOUS
 62
     7
100
AcDbLine
 10
151.4912721515
 20
98.8535888421
 30
0.0
 11
151.4912721515
 21
138.4535888421
 31
0.0
  0
LINE
  5
161
330
94
100
AcDbEntity
  8
DV1_デフォルト
  6
CONTINUOUS
 62
     7
100
AcDbLine
 10
151.2912721515
 20
138.6535888421
 30
0.0
 11
151.2912721515
 21
98.6535888421
 31
0.0
  0
SPLINE
  5
162
330
94
100
AcDbEntity
  8
DV1_デフォルト
  6
CONTINUOUS
 62
     7
100
AcDbSpline
210
0.0
220
0.0
230
1.0
 70
    11
 71
     3
 72
    62
 73
    58
 74
     0
 42
0.0000000025682273
 43
0.0000000001
 40
0.0
 40
0.0
 40
0.0
 40
0.0
 40
0.0536752104836313
 40
0.0536752104836313
 40
0.0536752104836313
 40
0.1073485905235066
 40
0.1073485905235066
 40
0.1073485905235066
 40
0.1610494173768951
 40
0.1610494173768951
 40
0.1610494173768951
 40
0.2147689672590498
 40
0.2147689672590498
 40
0.2147689672590498
 40
0.2684589479448222
 40
0.2684589479448222
 40
0.2684589479448222
 40
0.3221172582177401
 40
0.3221172582177401
 40
0.3221172582177401
 40
0.3757911500795104
 40
0.3757911500795104
 40
0.3757911500795104
 40
0.4295035896087576
 40
0.4295035896087576
 40
0.4295035896087576
 40
0.4832174329829895
 40
0.4832174329829895
 40
0.4832174329829895
 40
0.5368932587211908
 40
0.5368932587211908
 40
0.5368932587211908
 40
0.5905510126320745
 40
0.5905510126320745
 40
0.5905510126320745
 40
0.6442388196296619
 40
0.6442388196296619
 40
0.6442388196296619
 40
0.6979579109207269
 40
0.6979579109207269
 40
0.6979579109207269
 40
0.7516607051706957
 40
0.7516607051706957
 40
0.7516607051706957
 40
0.8053250929742659
 40
0.8053250929742659
 40
0.8053250929742659
 40
0.8589888685620779
 40
0.8589888685620779
 40
0.8589888685620779
 40
0.9126907486879627
 40
0.9126907486879627
 40
0.9126907486879627
 40
0.9664100753349957
 40
0.9664100753349957
 40
0.9664100753349957
 40
1.0
 40
1.0
 40
1.0
 40
1.0
 10
133.7912721514774
 20
135.5602349641169
 30
0.0
 10
133.7017730034294
 20
135.5602349641169
 30
0.0
 10
133.6110397779947
 20
135.5685072486419
 30
0.0
 10
133.5265876917136
 20
135.5842803488337
 30
0.0
 10
133.4421372425175
 20
135.6000531432673
 30
0.0
 10
133.3616388602087
 20
135.6237528044258
 30
0.0
 10
133.2917458784915
 20
135.6532014589283
 30
0.0
 10
133.2218177398985
 20
135.6826649264014
 30
0.0
 10
133.1605768668757
 20
135.71868372111
 30
0.0
 10
133.1130886505597
 20
135.7580263180601
 30
0.0
 10
133.0655848711596
 20
135.7973818085697
 30
0.0
 10
133.0305328891856
 20
135.8411389857862
 30
0.0
 10
133.0108425670783
 20
135.8854931008834
 30
0.0
 10
132.9911629925029
 20
135.9298230062564
 30
0.0
 10
132.9862860485938
 20
135.9759673371981
 30
0.0
 10
132.9966171891076
 20
136.0200737542804
 30
0.0
 10
133.0069424721636
 20
136.0641551643002
 30
0.0
 10
133.0327420199375
 20
136.1074191210411
 30
0.0
 10
133.0718763969251
 20
136.1464235571047
 30
0.0
 10
133.1110223529135
 20
136.1854395337223
 30
0.0
 10
133.1645887537927
 20
136.2212787564235
 30
0.0
 10
133.2281461431068
 20
136.2512214090071
 30
0.0
 10
133.2917478766196
 20
136.2811849526774
 30
0.0
 10
133.3671096278262
 20
136.3060823439783
 30
0.0
 10
133.4479967812418
 20
136.3240919820828
 30
0.0
 10
133.5288848703951
 20
136.3421018285305
 30
0.0
 10
133.6175320881174
 20
136.3537297651036
 30
0.0
 10
133.7065902054991
 20
136.3581430849779
 30
0.0
 10
133.7955865493758
 20
136.3625533436351
 30
0.0
 10
133.8874483082743
 20
136.3598831962219
 30
0.0
 10
133.9745640417233
 20
136.3503226618445
 30
0.0
 10
134.0616522517884
 20
136.3407651480265
 30
0.0
 10
134.1463980909544
 20
136.3240534078365
 30
0.0
 10
134.2217964835031
 20
136.301388934088
 30
0.0
 10
134.2972367273051
 20
136.2787118800098
 30
0.0
 10
134.3653993888238
 20
136.2494395094884
 30
0.0
 10
134.4206509769356
 20
136.2157381072963
 30
0.0
 10
134.4759334925809
 20
136.1820178404656
 30
0.0
 10
134.5198151226766
 20
136.1429207155972
 30
0.0
 10
134.5486571903872
 20
136.1014697939534
 30
0.0
 10
134.5774903619467
 20
136.0600316575811
 30
0.0
 10
134.5920878158985
 20
136.0150896911505
 30
0.0
 10
134.5912359486563
 20
135.9702902987785
 30
0.0
 10
134.5903846730079
 20
135.9255220181138
 30
0.0
 10
134.5740827125295
 20
135.8796618537884
 30
0.0
 10
134.5436833736018
 20
135.8365954087711
 30
0.0
 10
134.5132839512817
 20
135.7935288456126
 30
0.0
 10
134.467950810718
 20
135.7520766702252
 30
0.0
 10
134.4114349078455
 20
135.7158818394081
 30
0.0
 10
134.3548796901956
 20
135.6796618299838
 30
0.0
 10
134.2855664903073
 20
135.647719530599
 30
0.0
 10
134.209226655851
 20
135.6229499889133
 30
0.0
 10
134.1328635913211
 20
135.5981729099008
 30
0.0
 10
134.0473609180052
 20
135.5799007096094
 30
0.0
 10
133.9598026060984
 20
135.5698268859637
 30
0.0
 10
133.9045771438334
 20
135.5634730452433
 30
0.0
 10
133.847767313396
 20
135.5602349641169
 30
0.0
 10
133.7912721514774
 20
135.5602349641169
 30
0.0
  0
SPLINE
  5
163
330
94
100
AcDbEntity
  8
DV1_デフォルト
  6
CONTINUOUS
 62
     7
100
AcDbSpline
210
0.0
220
0.0
230
1.0
 70
    11
 71
     3
 72
    62
 73
    58
 74
     0
 42
0.0000000025682058
 43
0.0000000001
 40
0.0
 40
0.0
 40
0.0
 40
0.0
 40
0.0536752104836313
 40
0.0536752104836313
 40
0.0536752104836313
 40
0.1073485905235063
 40
0.1073485905235063
 40
0.1073485905235063
 40
0.1610494173768948
 40
0.1610494173768948
 40
0.1610494173768948
 40
0.214768967259049
 40
0.214768967259049
 40
0.214768967259049
 40
0.2684589479448219
 40
0.2684589479448219
 40
0.2684589479448219
 40
0.3221172582177399
 40
0.3221172582177399
 40
0.3221172582177399
 40
0.3757911500795106
 40
0.3757911500795106
 40
0.3757911500795106
 40
0.4295035896087578
 40
0.4295035896087578
 40
0.4295035896087578
 40
0.4832174329829896
 40
0.4832174329829896
 40
0.4832174329829896
 40
0.5368932587211909
 40
0.5368932587211909
 40
0.5368932587211909
 40
0.5905510126320745
 40
0.5905510126320745
 40
0.5905510126320745
 40
0.6442388196296618
 40
0.6442388196296618
 40
0.6442388196296618
 40
0.6979579109207277
 40
0.6979579109207277
 40
0.6979579109207277
 40
0.7516607051706959
 40
0.7516607051706959
 40
0.7516607051706959
 40
0.8053250929742659
 40
0.8053250929742659
 40
0.8053250929742659
 40
0.8589888685620776
 40
0.8589888685620776
 40
0.8589888685620776
 40
0.9126907486879625
 40
0.9126907486879625
 40
0.9126907486879625
 40
0.9664100753349955
 40
0.9664100753349955
 40
0.9664100753349955
 40
1.0
 40
1.0
 40
1.0
 40
1.0
 10
133.7912721514774
 20
100.9469427196847
 30
0.0
 10
133.7017730034294
 20
100.9469427196847
 30
0.0
 10
133.6110397779947
 20
100.9541163337053
 30
0.0
 10
133.5265876917136
 20
100.9679522132806
 30
0.0
 10
133.4421372425175
 20
100.9817878246505
 30
0.0
 10
133.3616388602086
 20
101.002673844377
 30
0.0
 10
133.2917458784915
 20
101.0290974345493
 30
0.0
 10
133.2218177398985
 20
101.0555343160543
 30
0.0
 10
133.1605768668757
 20
101.0882553088653
 30
0.0
 10
133.1130886505597
 20
101.1248081802384
 30
0.0
 10
133.0655848711596
 20
101.1613730309077
 30
0.0
 10
133.0305328891855
 20
101.2027930189256
 30
0.0
 10
133.0108425670782
 20
101.2458162691304
 30
0.0
 10
132.9911629925029
 20
101.2888160360346
 30
0.0
 10
132.9862860485937
 20
101.3346092779992
 30
0.0
 10
132.9966171891076
 20
101.3794266828438
 30
0.0
 10
133.0069424721636
 20
101.4242186775163
 30
0.0
 10
133.0327420199375
 20
101.4692679675833
 30
0.0
 10
133.0718763969251
 20
101.5107109073602
 30
0.0
 10
133.1110223529135
 20
101.5521661091907
 30
0.0
 10
133.1645887537927
 20
101.5911461081981
 30
0.0
 10
133.2281461431068
 20
101.6241895884049
 30
0.0
 10
133.2917478766196
 20
101.657256123156
 30
0.0
 10
133.3671096278261
 20
101.6852776286647
 30
0.0
 10
133.4479967812418
 20
101.7056934931172
 30
0.0
 10
133.5288848703951
 20
101.7261095937493
 30
0.0
 10
133.6175320881173
 20
101.7394731182712
 30
0.0
 10
133.7065902054991
 20
101.7445400783933
 30
0.0
 10
133.7955865493758
 20
101.7496035239129
 30
0.0
 10
133.8874483082743
 20
101.7465189560469
 30
0.0
 10
133.9745640417233
 20
101.7355745369111
 30
0.0
 10
134.0616522517884
 20
101.72463357556
 30
0.0
 10
134.1463980909544
 20
101.705542514688
 30
0.0
 10
134.2217964835031
 20
101.6800652505157
 30
0.0
 10
134.2972367273051
 20
101.654573844723
 30
0.0
 10
134.3653993888238
 20
101.6219978321719
 30
0.0
 10
134.4206509769356
 20
101.5852839791918
 30
0.0
 10
134.4759334925809
 20
101.5485495753289
 30
0.0
 10
134.5198151226766
 20
101.506670448454
 30
0.0
 10
134.5486571903872
 20
101.4633275762769
 30
0.0
 10
134.5774903619467
 20
101.4199980729312
 30
0.0
 10
134.5920878158985
 20
101.3740170314918
 30
0.0
 10
134.5912359486563
 20
101.3292766555495
 30
0.0
 10
134.5903846730079
 20
101.2845673503295
 30
0.0
 10
134.5740827125295
 20
101.2398638074925
 30
0.0
 10
134.5436833736018
 20
101.1987783883378
 30
0.0
 10
134.5132839512817
 20
101.1576928564764
 30
0.0
 10
134.467950810718
 20
101.1190850422975
 30
0.0
 10
134.4114349078455
 20
101.0859265184408
 30
0.0
 10
134.3548796901956
 20
101.0527449281564
 30
0.0
 10
134.2855664903073
 20
101.024093131677
 30
0.0
 10
134.209226655851
 20
101.0020883892668
 30
0.0
 10
134.1328635913211
 20
100.9800769508532
 30
0.0
 10
134.0473609180052
 20
100.9640987309
 30
0.0
 10
133.9598026060984
 20
100.955303813402
 30
0.0
 10
133.9045771438333
 20
100.9497566143545
 30
0.0
 10
133.847767313396
 20
100.9469427196847
 30
0.0
 10
133.7912721514774
 20
100.9469427196847
 30
0.0
  0
LINE
  5
164
330
94
100
AcDbEntity
  8
DV1_デフォルト
  6
CONTINUOUS
 62
     7
100
AcDbLine
 10
127.1912721515
 20
138.6535888421
 30
0.0
 11
127.1912721515
 21
98.6535888421
 31
0.0
  0
LINE
  5
165
330
94
100
AcDbEntity
  8
DV1_デフォルト
  6
CONTINUOUS
 62
     7
100
AcDbLine
 10
151.2912721515
 20
98.6535888421
 30
0.0
 11
151.4912721515
 21
98.8535888421
 31
0.0
  0
LINE
  5
166
330
94
100
AcDbEntity
  8
DV1_デフォルト
  6
CONTINUOUS
 62
     7
100
AcDbLine
 10
151.4912721515
 20
138.4535888421
 30
0.0
 11
151.2912721515
 21
138.6535888421
 31
0.0
  0
LINE
  5
167
330
94
100
AcDbEntity
  8
DV1_デフォルト
  6
CONTINUOUS
 62
     7
100
AcDbLine
 10
151.2912721515
 20
138.6535888421
 30
0.0
 11
127.1912721515
 21
138.6535888421
 31
0.0
  0
LINE
  5
168
330
94
100
AcDbEntity
  8
DV1_デフォルト
  6
CONTINUOUS
 62
     7
100
AcDbLine
 10
127.1912721515
 20
98.6535888421
 30
0.0
 11
151.2912721515
 21
98.6535888421
 31
0.0
  0
LINE
  5
169
330
94
100
AcDbEntity
  8
DV1_デフォルト
  6
CONTINUOUS
 62
     7
100
AcDbLine
 10
126.9912721515
 20
99.1535888421
 30
0.0
 11
127.1912721515
 21
99.1535888421
 31
0.0
  0
LINE
  5
16A
330
94
100
AcDbEntity
  8
DV1_デフォルト
  6
CONTINUOUS
 62
     7
100
AcDbLine
 10
127.1912721515
 20
138.1535888421
 30
0.0
 11
126.9912721515
 21
138.1535888421
 31
0.0
  0
ELLIPSE
  5
16B
330
94
100
AcDbEntity
  8
DV1_デフォルト
  6
CONTINUOUS
 62
     7
100
AcDbEllipse
 10
125.4912721515
 20
136.6820130582
 30
0.0
 11
0.9722283730519005
 21
0.0
 31
0.0
210
0.0
220
0.0
230
1.0
 40
0.5
 41
3.091059546050414
 42
3.141592653589793
  0
LINE
  5
16C
330
94
100
AcDbEntity
  8
DV1_デフォルト
  6
CONTINUOUS
 62
     7
100
AcDbLine
 10
125.3412721515
 20
136.9151223215
 30
0.0
 11
125.4912721515
 21
136.5615427008
 31
0.0
  0
LINE
  5
16D
330
94
100
AcDbEntity
  8
DV1_デフォルト
  6
CONTINUOUS
 62
     7
100
AcDbLine
 10
125.4912721515
 20
136.8365427008
 30
0.0
 11
125.4912721515
 21
136.5615427008
 31
0.0
  0
LINE
  5
16E
330
94
100
AcDbEntity
  8
DV1_デフォルト
  6
CONTINUOUS
 62
     7
100
AcDbLine
 10
125.3412721515
 20
137.1901223215
 30
0.0
 11
125.4912721515
 21
136.8365427008
 31
0.0
  0
LINE
  5
16F
330
94
100
AcDbEntity
  8
DV1_デフォルト
  6
CONTINUOUS
 62
     7
100
AcDbLine
 10
125.3412721515
 20
136.9151223215
 30
0.0
 11
125.3412721515
 21
137.1901223215
 31
0.0
  0
LINE
  5
170
330
94
100
AcDbEntity
  8
DV1_デフォルト
  6
CONTINUOUS
 62
     7
100
AcDbLine
 10
125.4912721515
 20
136.5615427008
 30
0.0
 11
125.3412721515
 21
136.7651223215
 31
0.0
  0
LINE
  5
171
330
94
100
AcDbEntity
  8
DV1_デフォルト
  6
CONTINUOUS
 62
     7
100
AcDbLine
 10
125.3412721515
 20
136.4901223215
 30
0.0
 11
125.3412721515
 21
136.7651223215
 31
0.0
  0
LINE
  5
172
330
94
100
AcDbEntity
  8
DV1_デフォルト
  6
CONTINUOUS
 62
     7
100
AcDbLine
 10
125.4912721515
 20
136.5615427008
 30
0.0
 11
125.4912721515
 21
136.4901223215
 31
0.0
  0
LINE
  5
173
330
94
100
AcDbEntity
  8
DV1_デフォルト
  6
CONTINUOUS
 62
     7
100
AcDbLine
 10
125.4912721515
 20
136.5615427008
 30
0.0
 11
125.6412721515
 21
136.9151223215
 31
0.0
  0
LINE
  5
174
330
94
100
AcDbEntity
  8
DV1_デフォルト
  6
CONTINUOUS
 62
     7
100
AcDbLine
 10
125.6412721515
 20
137.1901223215
 30
0.0
 11
125.6412721515
 21
136.9151223215
 31
0.0
  0
LINE
  5
175
330
94
100
AcDbEntity
  8
DV1_デフォルト
  6
CONTINUOUS
 62
     7
100
AcDbLine
 10
125.6412721515
 20
137.1901223215
 30
0.0
 11
125.4912721515
 21
136.8365427008
 31
0.0
  0
LINE
  5
176
330
94
100
AcDbEntity
  8
DV1_デフォルト
  6
CONTINUOUS
 62
     7
100
AcDbLine
 10
125.6412721515
 20
136.7651223215
 30
0.0
 11
125.4912721515
 21
136.5615427008
 31
0.0
  0
LINE
  5
177
330
94
100
AcDbEntity
  8
DV1_デフォルト
  6
CONTINUOUS
 62
     7
100
AcDbLine
 10
125.6412721515
 20
136.7651223215
 30
0.0
 11
125.6412721515
 21
136.4901223215
 31
0.0
  0
LINE
  5
178
330
94
100
AcDbEntity
  8
DV1_デフォルト
  6
CONTINUOUS
 62
     7
100
AcDbLine
 10
125.3412721515
 20
137.1901223215
 30
0.0
 11
125.6412721515
 21
137.1901223215
 31
0.0
  0
LINE
  5
179
330
94
100
AcDbEntity
  8
DV1_デフォルト
  6
CONTINUOUS
 62
     7
100
AcDbLine
 10
125.6412721515
 20
136.4901223215
 30
0.0
 11
125.3412721515
 21
136.4901223215
 31
0.0
  0
LINE
  5
17A
330
94
100
AcDbEntity
  8
DV1_デフォルト
  6
CONTINUOUS
 62
     7
100
AcDbLine
 10
126.1912721515
 20
136.7651223215
 30
0.0
 11
125.6412721515
 21
136.7651223215
 31
0.0
  0
LINE
  5
17B
330
94
100
AcDbEntity
  8
DV1_デフォルト
  6
CONTINUOUS
 62
     7
100
AcDbLine
 10
126.1912721515
 20
136.9151223215
 30
0.0
 11
126.1276372623
 21
136.7651223215
 31
0.0
  0
LINE
  5
17C
330
94
100
AcDbEntity
  8
DV1_デフォルト
  6
CONTINUOUS
 62
     7
100
AcDbLine
 10
125.6412721515
 20
136.9151223215
 30
0.0
 11
126.1912721515
 21
136.9151223215
 31
0.0
  0
LINE
  5
17D
330
94
100
AcDbEntity
  8
DV1_デフォルト
  6
CONTINUOUS
 62
     7
100
AcDbLine
 10
124.7912721515
 20
136.9151223215
 30
0.0
 11
125.3412721515
 21
136.9151223215
 31
0.0
  0
LINE
  5
17E
330
94
100
AcDbEntity
  8
DV1_デフォルト
  6
CONTINUOUS
 62
     7
100
AcDbLine
 10
124.7912721515
 20
136.9151223215
 30
0.0
 11
124.8549070407
 21
136.7651223215
 31
0.0
  0
LINE
  5
17F
330
94
100
AcDbEntity
  8
DV1_デフォルト
  6
CONTINUOUS
 62
     7
100
AcDbLine
 10
126.1912721515
 20
136.9151223215
 30
0.0
 11
126.1912721515
 21
136.7651223215
 31
0.0
  0
LINE
  5
180
330
94
100
AcDbEntity
  8
DV1_デフォルト
  6
CONTINUOUS
 62
     7
100
AcDbLine
 10
124.7912721515
 20
136.7651223215
 30
0.0
 11
124.7912721515
 21
136.9151223215
 31
0.0
  0
LINE
  5
181
330
94
100
AcDbEntity
  8
DV1_デフォルト
  6
CONTINUOUS
 62
     7
100
AcDbLine
 10
125.3412721515
 20
136.7651223215
 30
0.0
 11
124.7912721515
 21
136.7651223215
 31
0.0
  0
LINE
  5
182
330
94
100
AcDbEntity
  8
DV1_デフォルト
  6
CONTINUOUS
 62
     7
100
AcDbLine
 10
126.4727436179
 20
136.6029201448
 30
0.0
 11
126.4622594499
 21
136.7065674653
 31
0.0
  0
LINE
  5
183
330
94
100
AcDbEntity
  8
DV1_デフォルト
  6
CONTINUOUS
 62
     7
100
AcDbLine
 10
124.520284853
 20
136.7065674653
 30
0.0
 11
124.5096690429
 21
136.60161872
 31
0.0
  0
SPLINE
  5
184
330
94
100
AcDbEntity
  8
DV1_デフォルト
  6
CONTINUOUS
 62
     7
100
AcDbSpline
210
0.0
220
0.0
230
1.0
 70
     8
 71
     3
 72
    16
 73
    12
 74
     0
 42
0.0000000080347141
 43
0.0000000001
 40
0.0
 40
0.0
 40
0.0
 40
0.0
 40
0.0672115551578743
 40
0.193788813662949
 40
0.321426400349406
 40
0.4510258810489213
 40
0.5837193683202532
 40
0.7037476911185123
 40
0.8146650739904366
 40
0.9186521471962289
 40
1.0
 40
1.0
 40
1.0
 40
1.0
 10
125.4912721514775
 20
137.2534119574929
 30
0.0
 10
125.4558418799588
 20
137.2529225326374
 30
0.0
 10
125.3689935056638
 20
137.251279993779
 30
0.0
 10
125.2130596137363
 20
137.2341130085831
 30
0.0
 10
125.0428591858404
 20
137.1957141175925
 30
0.0
 10
124.8844286506862
 20
137.1378580450739
 30
0.0
 10
124.7502429464634
 20
137.0630280322306
 30
0.0
 10
124.6445954856266
 20
136.9738934363565
 30
0.0
 10
124.5710304419564
 20
136.8760185240114
 30
0.0
 10
124.526808373542
 20
136.7731743014751
 30
0.0
 10
124.5225993679264
 20
136.7100362157186
 30
0.0
 10
124.5208809277936
 20
136.6773298815337
 30
0.0
  0
SPLINE
  5
185
330
94
100
AcDbEntity
  8
DV1_デフォルト
  6
CONTINUOUS
 62
     7
100
AcDbSpline
210
0.0
220
0.0
230
1.0
 70
     8
 71
     3
 72
    16
 73
    12
 74
     0
 42
0.0000000082221212
 43
0.0000000001
 40
0.0
 40
0.0
 40
0.0
 40
0.0
 40
0.0838239048872123
 40
0.191191149375502
 40
0.302449874088122
 40
0.4224246890556498
 40
0.5512235217226059
 40
0.6837147859992107
 40
0.8152326003567406
 40
0.9455274481188473
 40
1.0
 40
1.0
 40
1.0
 40
1.0
 10
126.4593480299882
 20
136.7049785173006
 30
0.0
 10
126.4555549618344
 20
136.7376249031373
 30
0.0
 10
126.4473631617554
 20
136.8007125117874
 30
0.0
 10
126.3964779143862
 20
136.8997517138042
 30
0.0
 10
126.3188348266301
 20
136.9925545729419
 30
0.0
 10
126.2128227252019
 20
137.0753781399804
 30
0.0
 10
126.0796531145726
 20
137.1457531212347
 30
0.0
 10
125.922203021695
 20
137.2006683288781
 30
0.0
 10
125.7505460104459
 20
137.2371842124544
 30
0.0
 10
125.6001360034469
 20
137.2518775242019
 30
0.0
 10
125.5192590778098
 20
137.2531065583009
 30
0.0
 10
125.4912721514775
 20
137.2534119574929
 30
0.0
  0
LINE
  5
186
330
94
100
AcDbEntity
  8
DV1_デフォルト
  6
CONTINUOUS
 62
     7
100
AcDbLine
 10
125.3412721515
 20
100.5420553626
 30
0.0
 11
125.4912721515
 21
100.7456349833
 31
0.0
  0
LINE
  5
187
330
94
100
AcDbEntity
  8
DV1_デフォルト
  6
CONTINUOUS
 62
     7
100
AcDbLine
 10
125.4912721515
 20
100.8170553626
 30
0.0
 11
125.4912721515
 21
100.7456349833
 31
0.0
  0
LINE
  5
188
330
94
100
AcDbEntity
  8
DV1_デフォルト
  6
CONTINUOUS
 62
     7
100
AcDbLine
 10
125.3412721515
 20
100.5420553626
 30
0.0
 11
125.3412721515
 21
100.8170553626
 31
0.0
  0
LINE
  5
189
330
94
100
AcDbEntity
  8
DV1_デフォルト
  6
CONTINUOUS
 62
     7
100
AcDbLine
 10
125.4912721515
 20
100.7456349833
 30
0.0
 11
125.3412721515
 21
100.3920553626
 31
0.0
  0
LINE
  5
18A
330
94
100
AcDbEntity
  8
DV1_デフォルト
  6
CONTINUOUS
 62
     7
100
AcDbLine
 10
125.3412721515
 20
100.1170553626
 30
0.0
 11
125.3412721515
 21
100.3920553626
 31
0.0
  0
LINE
  5
18B
330
94
100
AcDbEntity
  8
DV1_デフォルト
  6
CONTINUOUS
 62
     7
100
AcDbLine
 10
125.3412721515
 20
100.1170553626
 30
0.0
 11
125.4912721515
 21
100.4706349833
 31
0.0
  0
LINE
  5
18C
330
94
100
AcDbEntity
  8
DV1_デフォルト
  6
CONTINUOUS
 62
     7
100
AcDbLine
 10
125.4912721515
 20
100.7456349833
 30
0.0
 11
125.4912721515
 21
100.4706349833
 31
0.0
  0
LINE
  5
18D
330
94
100
AcDbEntity
  8
DV1_デフォルト
  6
CONTINUOUS
 62
     7
100
AcDbLine
 10
125.4912721515
 20
100.7456349833
 30
0.0
 11
125.6412721515
 21
100.5420553626
 31
0.0
  0
LINE
  5
18E
330
94
100
AcDbEntity
  8
DV1_デフォルト
  6
CONTINUOUS
 62
     7
100
AcDbLine
 10
125.6412721515
 20
100.8170553626
 30
0.0
 11
125.6412721515
 21
100.5420553626
 31
0.0
  0
LINE
  5
18F
330
94
100
AcDbEntity
  8
DV1_デフォルト
  6
CONTINUOUS
 62
     7
100
AcDbLine
 10
125.6412721515
 20
100.3920553626
 30
0.0
 11
125.4912721515
 21
100.7456349833
 31
0.0
  0
LINE
  5
190
330
94
100
AcDbEntity
  8
DV1_デフォルト
  6
CONTINUOUS
 62
     7
100
AcDbLine
 10
125.6412721515
 20
100.1170553626
 30
0.0
 11
125.4912721515
 21
100.4706349833
 31
0.0
  0
LINE
  5
191
330
94
100
AcDbEntity
  8
DV1_デフォルト
  6
CONTINUOUS
 62
     7
100
AcDbLine
 10
125.6412721515
 20
100.3920553626
 30
0.0
 11
125.6412721515
 21
100.1170553626
 31
0.0
  0
LINE
  5
192
330
94
100
AcDbEntity
  8
DV1_デフォルト
  6
CONTINUOUS
 62
     7
100
AcDbLine
 10
125.3412721515
 20
100.8170553626
 30
0.0
 11
125.6412721515
 21
100.8170553626
 31
0.0
  0
LINE
  5
193
330
94
100
AcDbEntity
  8
DV1_デフォルト
  6
CONTINUOUS
 62
     7
100
AcDbLine
 10
125.6412721515
 20
100.1170553626
 30
0.0
 11
125.3412721515
 21
100.1170553626
 31
0.0
  0
LINE
  5
194
330
94
100
AcDbEntity
  8
DV1_デフォルト
  6
CONTINUOUS
 62
     7
100
AcDbLine
 10
126.1912721515
 20
100.3920553626
 30
0.0
 11
125.6412721515
 21
100.3920553626
 31
0.0
  0
LINE
  5
195
330
94
100
AcDbEntity
  8
DV1_デフォルト
  6
CONTINUOUS
 62
     7
100
AcDbLine
 10
126.1912721515
 20
100.3920553626
 30
0.0
 11
126.1276372623
 21
100.5420553626
 31
0.0
  0
LINE
  5
196
330
94
100
AcDbEntity
  8
DV1_デフォルト
  6
CONTINUOUS
 62
     7
100
AcDbLine
 10
125.6412721515
 20
100.5420553626
 30
0.0
 11
126.1912721515
 21
100.5420553626
 31
0.0
  0
LINE
  5
197
330
94
100
AcDbEntity
  8
DV1_デフォルト
  6
CONTINUOUS
 62
     7
100
AcDbLine
 10
124.7912721515
 20
100.5420553626
 30
0.0
 11
125.3412721515
 21
100.5420553626
 31
0.0
  0
LINE
  5
198
330
94
100
AcDbEntity
  8
DV1_デフォルト
  6
CONTINUOUS
 62
     7
100
AcDbLine
 10
126.1912721515
 20
100.5420553626
 30
0.0
 11
126.1912721515
 21
100.3920553626
 31
0.0
  0
LINE
  5
199
330
94
100
AcDbEntity
  8
DV1_デフォルト
  6
CONTINUOUS
 62
     7
100
AcDbLine
 10
124.7912721515
 20
100.3920553626
 30
0.0
 11
124.7912721515
 21
100.5420553626
 31
0.0
  0
LINE
  5
19A
330
94
100
AcDbEntity
  8
DV1_デフォルト
  6
CONTINUOUS
 62
     7
100
AcDbLine
 10
124.7912721515
 20
100.3920553626
 30
0.0
 11
124.8549070407
 21
100.5420553626
 31
0.0
  0
LINE
  5
19B
330
94
100
AcDbEntity
  8
DV1_デフォルト
  6
CONTINUOUS
 62
     7
100
AcDbLine
 10
125.3412721515
 20
100.3920553626
 30
0.0
 11
124.7912721515
 21
100.3920553626
 31
0.0
  0
ELLIPSE
  5
19C
330
94
100
AcDbEntity
  8
DV1_デフォルト
  6
CONTINUOUS
 62
     7
100
AcDbEllipse
 10
125.4912721515
 20
100.6251646259
 30
0.0
 11
-0.9722283730519005
 21
-1.331839856717338E-32
 31
0.0
210
0.0
220
0.0
230
1.0
 40
0.5
 41
3.091059546049544
 42
3.141592653589793
  0
SPLINE
  5
19D
330
94
100
AcDbEntity
  8
DV1_デフォルト
  6
CONTINUOUS
 62
     7
100
AcDbSpline
210
0.0
220
0.0
230
1.0
 70
     8
 71
     3
 72
    16
 73
    12
 74
     0
 42
0.0000000082221212
 43
0.0000000001
 40
0.0
 40
0.0
 40
0.0
 40
0.0
 40
0.0838239048872111
 40
0.1911911493754962
 40
0.3024498740881158
 40
0.4224246890556436
 40
0.5512235217226062
 40
0.6837147859992022
 40
0.8152326003567413
 40
0.9455274481188475
 40
1.0
 40
1.0
 40
1.0
 40
1.0
 10
124.5231962729668
 20
100.6021991668191
 30
0.0
 10
124.5269893411206
 20
100.5695527809824
 30
0.0
 10
124.5351811411996
 20
100.5064651723323
 30
0.0
 10
124.5860663885687
 20
100.4074259703155
 30
0.0
 10
124.6637094763249
 20
100.3146231111778
 30
0.0
 10
124.7697215777531
 20
100.2317995441393
 30
0.0
 10
124.9028911883823
 20
100.161424562885
 30
0.0
 10
125.06034128126
 20
100.1065093552416
 30
0.0
 10
125.231998292509
 20
100.0699934716653
 30
0.0
 10
125.3824082995081
 20
100.0553001599178
 30
0.0
 10
125.4632852251451
 20
100.0540711258188
 30
0.0
 10
125.4912721514775
 20
100.0537657266268
 30
0.0
  0
SPLINE
  5
19E
330
94
100
AcDbEntity
  8
DV1_デフォルト
  6
CONTINUOUS
 62
     7
100
AcDbSpline
210
0.0
220
0.0
230
1.0
 70
     8
 71
     3
 72
    16
 73
    12
 74
     0
 42
0.0000000080347141
 43
0.0000000001
 40
0.0
 40
0.0
 40
0.0
 40
0.0
 40
0.0672115551578744
 40
0.1937888136629492
 40
0.3214264003493973
 40
0.4510258810489213
 40
0.5837193683202525
 40
0.7037476911185113
 40
0.8146650739904356
 40
0.9186521471962297
 40
1.0
 40
1.0
 40
1.0
 40
1.0
 10
125.4912721514775
 20
100.0537657266268
 30
0.0
 10
125.5267024229961
 20
100.0542551514823
 30
0.0
 10
125.6135507972911
 20
100.0558976903407
 30
0.0
 10
125.7694846892188
 20
100.0730646755366
 30
0.0
 10
125.9396851171145
 20
100.1114635665271
 30
0.0
 10
126.0981156522689
 20
100.1693196390458
 30
0.0
 10
126.2323013564915
 20
100.2441496518891
 30
0.0
 10
126.3379488173284
 20
100.3332842477632
 30
0.0
 10
126.4115138609986
 20
100.4311591601083
 30
0.0
 10
126.455735929413
 20
100.5340033826446
 30
0.0
 10
126.4599449350285
 20
100.5971414684011
 30
0.0
 10
126.4616633751614
 20
100.629847802586
 30
0.0
  0
LINE
  5
19F
330
94
100
AcDbEntity
  8
DV1_デフォルト
  6
CONTINUOUS
 62
     7
100
AcDbLine
 10
124.5097813379
 20
100.704448806
 30
0.0
 11
124.520284853
 21
100.6006102189
 31
0.0
  0
LINE
  5
1A0
330
94
100
AcDbEntity
  8
DV1_デフォルト
  6
CONTINUOUS
 62
     7
100
AcDbLine
 10
126.4622594499
 20
100.6006102189
 30
0.0
 11
126.4740385898
 21
100.7170597339
 31
0.0
  0
LINE
  5
1A3
330
94
100
AcDbEntity
  8
DV1_ﾃ_ﾌｫﾙﾄ
  6
CENTER2
 62
     7
100
AcDbLine
 10
115.0206819092
 20
118.6535888421
 30
0.0
 11
184.0708750496
 21
118.6535888421
 31
0.0
  0
LINE
  5
1A4
330
94
100
AcDbEntity
  8
DV1_デフォルト
  6
CONTINUOUS
 62
     7
100
AcDbLine
 10
151.4912721515
 20
118.5035888421
 30
0.0
 11
159.4882721515
 21
118.5035888421
 31
0.0
  0
LINE
  5
1A5
330
94
100
AcDbEntity
  8
DV1_デフォルト
  6
CONTINUOUS
 62
     7
100
AcDbLine
 10
182.8094871219
 20
129.7535888421
 30
0.0
 11
179.8922721515
 21
129.7535888421
 31
0.0
  0
LINE
  5
1A6
330
94
100
AcDbEntity
  8
DV1_デフォルト
  6
CONTINUOUS
 62
     7
100
AcDbLine
 10
182.8094871219
 20
107.5535888421
 30
0.0
 11
179.8922721515
 21
107.5535888421
 31
0.0
  0
LINE
  5
1A7
330
94
100
AcDbEntity
  8
DV1_デフォルト
  6
CENTER2
 62
     7
100
AcDbLine
 10
177.0912721515
 20
130.9535888421
 30
0.0
 11
179.8922721515
 21
130.9535888421
 31
0.0
  0
LINE
  5
1A8
330
94
100
AcDbEntity
  8
DV1_デフォルト
  6
CENTER2
 62
     7
100
AcDbLine
 10
177.0912721515
 20
106.3535888421
 30
0.0
 11
179.8922721515
 21
106.3535888421
 31
0.0
  0
ENDBLK
  5
1AA
330
94
100
AcDbEntity
  8
0
100
AcDbBlockEnd
  0
BLOCK
  5
1B4
330
1AB
100
AcDbEntity
  8
0
100
AcDbBlockBegin
  2
GDIMGGROUP5
 70
     0
 10
0.0
 20
0.0
 30
0.0
  3
GDIMGGROUP5
  1

  0
POLYLINE
  5
1AD
330
1AB
100
AcDbEntity
  8
DEFAULT
  6
CONTINUOUS
 62
   136
100
AcDb2dPolyline
 66
     1
 10
0.0
 20
0.0
 30
0.0
  0
VERTEX
  5
1E4
330
1AD
100
AcDbEntity
  8
DEFAULT
  6
CONTINUOUS
 62
   136
100
AcDbVertex
100
AcDb2dVertex
 10
191.6295111693
 20
126.5535889229
 30
0.0
  0
VERTEX
  5
1E5
330
1AD
100
AcDbEntity
  8
DEFAULT
  6
CONTINUOUS
 62
   136
100
AcDbVertex
100
AcDb2dVertex
 10
192.1628444892
 20
129.7535888421
 30
0.0
  0
VERTEX
  5
1E6
330
1AD
100
AcDbEntity
  8
DEFAULT
  6
CONTINUOUS
 62
   136
100
AcDbVertex
100
AcDb2dVertex
 10
192.696177809
 20
126.5535889229
 30
0.0
  0
SEQEND
  5
1E7
330
1AD
100
AcDbEntity
  8
DEFAULT
  6
CONTINUOUS
 62
   136
  0
POLYLINE
  5
1AE
330
1AB
100
AcDbEntity
  8
DEFAULT
  6
CONTINUOUS
 62
   136
100
AcDb2dPolyline
 66
     1
 10
0.0
 20
0.0
 30
0.0
  0
VERTEX
  5
1E8
330
1AE
100
AcDbEntity
  8
DEFAULT
  6
CONTINUOUS
 62
   136
100
AcDbVertex
100
AcDb2dVertex
 10
191.6295111693
 20
110.7535892202
 30
0.0
  0
VERTEX
  5
1E9
330
1AE
100
AcDbEntity
  8
DEFAULT
  6
CONTINUOUS
 62
   136
100
AcDbVertex
100
AcDb2dVertex
 10
192.1628444892
 20
107.553589301
 30
0.0
  0
VERTEX
  5
1EA
330
1AE
100
AcDbEntity
  8
DEFAULT
  6
CONTINUOUS
 62
   136
100
AcDbVertex
100
AcDb2dVertex
 10
192.696177809
 20
110.7535892202
 30
0.0
  0
SEQEND
  5
1EB
330
1AE
100
AcDbEntity
  8
DEFAULT
  6
CONTINUOUS
 62
   136
  0
LINE
  5
1AF
330
1AB
100
AcDbEntity
  8
DEFAULT
  6
CONTINUOUS
 62
   136
100
AcDbLine
 10
184.0894870896
 20
129.7535888421
 30
0.0
 11
193.7628444487
 21
129.7535888421
 31
0.0
  0
LINE
  5
1B0
330
1AB
100
AcDbEntity
  8
DEFAULT
  6
CONTINUOUS
 62
   136
100
AcDbLine
 10
184.0894873472
 20
107.5535888421
 30
0.0
 11
193.7628444487
 21
107.5535888421
 31
0.0
  0
LINE
  5
1B1
330
1AB
100
AcDbEntity
  8
DEFAULT
  6
CONTINUOUS
 62
   136
100
AcDbLine
 10
192.1628444892
 20
129.7535888421
 30
0.0
 11
192.1628444892
 21
107.553589301
 31
0.0
  0
TEXT
  5
1B2
330
1AB
100
AcDbEntity
  8
DEFAULT
  6
CONTINUOUS
 62
   136
100
AcDbText
 10
191.3628444892
 20
116.638150475
 30
0.0
 40
3.2
  1
22.2
 50
90.0
  7
SEACAD_SEANSI_TTF
 11
188.1628444892
 21
116.638150475
 31
0.0
100
AcDbText
 73
     3
  0
TEXT
  5
1B3
330
1AB
100
AcDbEntity
  8
DEFAULT
  6
CONTINUOUS
 62
   136
100
AcDbText
 10
191.3628444892
 20
112.669027668
 30
0.0
 40
3.2
  1
O
 50
90.0
  7
SEACAD_SEMECA1_TTF
 11
188.1628444892
 21
112.669027668
 31
0.0
100
AcDbText
 73
     3
  0
ENDBLK
  5
1B5
330
1AB
100
AcDbEntity
  8
0
100
AcDbBlockEnd
  0
ENDSEC
  0
SECTION
  2
ENTITIES
  0
INSERT
  5
3D
330
1F
100
AcDbEntity
  8
DEFAULT
100
AcDbBlockReference
  2
GDIMGGROUP
 10
0.0
 20
0.0
 30
0.0
  0
INSERT
  5
6C
330
1F
100
AcDbEntity
  8
DEFAULT
100
AcDbBlockReference
  2
GDIMGGROUP1
 10
0.0
 20
0.0
 30
0.0
  0
INSERT
  5
76
330
1F
100
AcDbEntity
  8
DEFAULT
100
AcDbBlockReference
  2
GDIMGGROUP2
 10
0.0
 20
0.0
 30
0.0
  0
INSERT
  5
80
330
1F
100
AcDbEntity
  8
DEFAULT
100
AcDbBlockReference
  2
GDIMGGROUP3
 10
0.0
 20
0.0
 30
0.0
  0
INSERT
  5
8A
330
1F
100
AcDbEntity
  8
DEFAULT
100
AcDbBlockReference
  2
GDIMGGROUP4
 10
0.0
 20
0.0
 30
0.0
  0
INSERT
  5
95
330
1F
100
AcDbEntity
  8
DEFAULT
100
AcDbBlockReference
  2
SE
 10
0.0
 20
0.0
 30
0.0
  0
INSERT
  5
1AC
330
1F
100
AcDbEntity
  8
DEFAULT
100
AcDbBlockReference
  2
GDIMGGROUP5
 10
0.0
 20
0.0
 30
0.0
  0
ENDSEC
  0
SECTION
  2
OBJECTS
  0
DICTIONARY
  5
C
330
0
100
AcDbDictionary
  3
ACAD_GROUP
350
D
  3
ACAD_LAYOUT
350
1A
  3
ACAD_MLEADERSTYLE
350
1B8
  3
ACAD_MLINESTYLE
350
17
  3
ACAD_PLOTSETTINGS
350
19
  3
ACAD_SCALELIST
350
43
  3
ACAD_VISUALSTYLE
350
2A
  3
ACDBVARIABLEDICTIONARY
350
1B6
1001
ACAD
1000
TREAT_AS_HARD
1070
     0
  0
DICTIONARY
  5
D
102
{ACAD_REACTORS
330
C
102
}
330
C
100
AcDbDictionary
1001
ACAD
1000
TREAT_AS_HARD
1070
     0
  0
DICTIONARY
  5
1A
102
{ACAD_REACTORS
330
C
102
}
330
C
100
AcDbDictionary
1001
ACAD
1000
TREAT_AS_HARD
1070
     0
  0
DICTIONARY
  5
1B8
102
{ACAD_REACTORS
330
C
102
}
330
C
100
AcDbDictionary
1001
ACAD
1000
TREAT_AS_HARD
1070
     0
  0
DICTIONARY
  5
17
102
{ACAD_REACTORS
330
C
102
}
330
C
100
AcDbDictionary
  3
STANDARD
350
18
1001
ACAD
1000
TREAT_AS_HARD
1070
     0
  0
DICTIONARY
  5
19
102
{ACAD_REACTORS
330
C
102
}
330
C
100
AcDbDictionary
1001
ACAD
1000
TREAT_AS_HARD
1070
     0
  0
DICTIONARY
  5
43
102
{ACAD_REACTORS
330
C
102
}
330
C
100
AcDbDictionary
  3
A0
350
44
  3
A1
350
45
  3
A2
350
46
  3
A3
350
47
  3
A4
350
48
  3
A5
350
49
  3
A6
350
4A
  3
A7
350
4B
  3
A8
350
4C
  3
A9
350
4D
  3
B0
350
4E
  3
B1
350
4F
  3
B2
350
50
  3
B3
350
51
  3
B4
350
52
  3
B5
350
53
  3
B6
350
54
  3
B7
350
55
  3
B8
350
56
  3
B9
350
57
  3
C0
350
58
  3
C1
350
59
  3
C2
350
5A
  3
C3
350
5B
  3
C4
350
5C
  3
C5
350
5D
  3
C6
350
5E
  3
C7
350
5F
  3
C8
350
60
  3
C9
350
61
  3
D0
350
62
  3
D1
350
63
  3
D2
350
64
1001
ACAD
1000
TREAT_AS_HARD
1070
     0
  0
DICTIONARY
  5
2A
102
{ACAD_REACTORS
330
C
102
}
330
C
100
AcDbDictionary
  3
2DWIREFRAME
350
2F
  3
3D_HIDDEN
350
31
  3
3DWIREFRAME
350
30
  3
BASIC
350
32
  3
BRIGHTEN
350
36
  3
COLORCHANGE
350
3A
  3
CONCEPTUAL
350
34
  3
DIM
350
35
  3
FACEPATTERN
350
39
  3
FLAT
350
2B
  3
FLATWITHEDGES
350
2C
  3
GOURAUD
350
2D
  3
GOURAUDWITHEDGES
350
2E
  3
LINEPATTERN
350
38
  3
REALISTIC
350
33
  3
THICKEN
350
37
1001
ACAD
1000
TREAT_AS_HARD
1070
     0
  0
DICTIONARY
  5
1B6
102
{ACAD_REACTORS
330
C
102
}
330
C
100
AcDbDictionary
  3
CANNOSCALE
350
1BB
  3
PSOLHEIGHT
350
1BA
  3
PSOLWIDTH
350
1B9
1001
ACAD
1000
TREAT_AS_HARD
1070
     0
  0
MLINESTYLE
  5
18
102
{ACAD_REACTORS
330
17
102
}
330
17
100
AcDbMlineStyle
  2
Standard
 70
     0
  3

 62
   256
 51
90.0
 52
90.0
 71
     2
 49
0.5
 62
   256
  6
BYLAYER
 49
-0.5
 62
   256
  6
BYLAYER
  0
ACAD_PROXY_OBJECT
  5
44
102
{ACAD_REACTORS
330
43
102
}
330
43
100
AcDbZombieObject
 90
      499
 91
      502
 93
       41
310
903313A31580
  0
ACAD_PROXY_OBJECT
  5
45
102
{ACAD_REACTORS
330
43
102
}
330
43
100
AcDbZombieObject
 90
      499
 91
      502
 93
      105
310
903313A324000000000000004000
  0
ACAD_PROXY_OBJECT
  5
46
102
{ACAD_REACTORS
330
43
102
}
330
43
100
AcDbZombieObject
 90
      499
 91
      502
 93
      105
310
903313A344000000000000104000
  0
ACAD_PROXY_OBJECT
  5
47
102
{ACAD_REACTORS
330
43
102
}
330
43
100
AcDbZombieObject
 90
      499
 91
      502
 93
      105
310
903313A354000000000000144000
  0
ACAD_PROXY_OBJECT
  5
48
102
{ACAD_REACTORS
330
43
102
}
330
43
100
AcDbZombieObject
 90
      499
 91
      502
 93
      105
310
903313A384000000000000204000
  0
ACAD_PROXY_OBJECT
  5
49
102
{ACAD_REACTORS
330
43
102
}
330
43
100
AcDbZombieObject
 90
      499
 91
      502
 93
      113
310
904313A31304000000000000244000
  0
ACAD_PROXY_OBJECT
  5
4A
102
{ACAD_REACTORS
330
43
102
}
330
43
100
AcDbZombieObject
 90
      499
 91
      502
 93
      113
310
904313A31364000000000000304000
  0
ACAD_PROXY_OBJECT
  5
4B
102
{ACAD_REACTORS
330
43
102
}
330
43
100
AcDbZombieObject
 90
      499
 91
      502
 93
      113
310
904313A32304000000000000344000
  0
ACAD_PROXY_OBJECT
  5
4C
102
{ACAD_REACTORS
330
43
102
}
330
43
100
AcDbZombieObject
 90
      499
 91
      502
 93
      113
310
904313A333040000000000003E4000
  0
ACAD_PROXY_OBJECT
  5
4D
102
{ACAD_REACTORS
330
43
102
}
330
43
100
AcDbZombieObject
 90
      499
 91
      502
 93
      113
310
904313A34304000000000000444000
  0
ACAD_PROXY_OBJECT
  5
4E
102
{ACAD_REACTORS
330
43
102
}
330
43
100
AcDbZombieObject
 90
      499
 91
      502
 93
      113
310
904313A35304000000000000494000
  0
ACAD_PROXY_OBJECT
  5
4F
102
{ACAD_REACTORS
330
43
102
}
330
43
100
AcDbZombieObject
 90
      499
 91
      502
 93
      121
310
905313A3130304000000000000594000
  0
ACAD_PROXY_OBJECT
  5
50
102
{ACAD_REACTORS
330
43
102
}
330
43
100
AcDbZombieObject
 90
      499
 91
      502
 93
      105
310
903323A310000000000000010100
  0
ACAD_PROXY_OBJECT
  5
51
102
{ACAD_REACTORS
330
43
102
}
330
43
100
AcDbZombieObject
 90
      499
 91
      502
 93
      105
310
903343A310000000000000410100
  0
ACAD_PROXY_OBJECT
  5
52
102
{ACAD_REACTORS
330
43
102
}
330
43
100
AcDbZombieObject
 90
      499
 91
      502
 93
      105
310
903383A310000000000000810100
  0
ACAD_PROXY_OBJECT
  5
53
102
{ACAD_REACTORS
330
43
102
}
330
43
100
AcDbZombieObject
 90
      499
 91
      502
 93
      113
310
90431303A310000000000000910100
  0
ACAD_PROXY_OBJECT
  5
54
102
{ACAD_REACTORS
330
43
102
}
330
43
100
AcDbZombieObject
 90
      499
 91
      502
 93
      121
310
9053130303A310000000000001650100
  0
ACAD_PROXY_OBJECT
  5
55
102
{ACAD_REACTORS
330
43
102
}
330
43
100
AcDbZombieObject
 90
      499
 91
      502
 93
      257
310
90E312F31323822203D2031272D3022000000000000200FC000000000000284000
  0
ACAD_PROXY_OBJECT
  5
56
102
{ACAD_REACTORS
330
43
102
}
330
43
100
AcDbZombieObject
 90
      499
 91
      502
 93
      249
310
90D312F363422203D2031272D3022000000000000240FC000000000000284000
  0
ACAD_PROXY_OBJECT
  5
57
102
{ACAD_REACTORS
330
43
102
}
330
43
100
AcDbZombieObject
 90
      499
 91
      502
 93
      249
310
90D312F333222203D2031272D3022000000000000280FC000000000000284000
  0
ACAD_PROXY_OBJECT
  5
58
102
{ACAD_REACTORS
330
43
102
}
330
43
100
AcDbZombieObject
 90
      499
 91
      502
 93
      249
310
90D312F313622203D2031272D30220000000000002C0FC000000000000284000
  0
ACAD_PROXY_OBJECT
  5
59
102
{ACAD_REACTORS
330
43
102
}
330
43
100
AcDbZombieObject
 90
      499
 91
      502
 93
      249
310
90D332F333222203D2031272D30220000000000002E0FC000000000000284000
  0
ACAD_PROXY_OBJECT
  5
5A
102
{ACAD_REACTORS
330
43
102
}
330
43
100
AcDbZombieObject
 90
      499
 91
      502
 93
      241
310
90C312F3822203D2031272D3022000000000000300FC000000000000284000
  0
ACAD_PROXY_OBJECT
  5
5B
102
{ACAD_REACTORS
330
43
102
}
330
43
100
AcDbZombieObject
 90
      499
 91
      502
 93
      249
310
90D332F313622203D2031272D3022000000000000320FC000000000000284000
  0
ACAD_PROXY_OBJECT
  5
5C
102
{ACAD_REACTORS
330
43
102
}
330
43
100
AcDbZombieObject
 90
      499
 91
      502
 93
      241
310
90C312F3422203D2031272D3022000000000000340FC000000000000284000
  0
ACAD_PROXY_OBJECT
  5
5D
102
{ACAD_REACTORS
330
43
102
}
330
43
100
AcDbZombieObject
 90
      499
 91
      502
 93
      241
310
90C332F3822203D2031272D3022000000000000360FC000000000000284000
  0
ACAD_PROXY_OBJECT
  5
5E
102
{ACAD_REACTORS
330
43
102
}
330
43
100
AcDbZombieObject
 90
      499
 91
      502
 93
      241
310
90C312F3222203D2031272D3022000000000000380FC000000000000284000
  0
ACAD_PROXY_OBJECT
  5
5F
102
{ACAD_REACTORS
330
43
102
}
330
43
100
AcDbZombieObject
 90
      499
 91
      502
 93
      241
310
90C332F3422203D2031272D30220000000000003A0FC000000000000284000
  0
ACAD_PROXY_OBJECT
  5
60
102
{ACAD_REACTORS
330
43
102
}
330
43
100
AcDbZombieObject
 90
      499
 91
      502
 93
      161
310
90A3122203D2031272D30224000000000000284000
  0
ACAD_PROXY_OBJECT
  5
61
102
{ACAD_REACTORS
330
43
102
}
330
43
100
AcDbZombieObject
 90
      499
 91
      502
 93
      257
310
90E312D312F3222203D2031272D30220000000000003E0FC000000000000284000
  0
ACAD_PROXY_OBJECT
  5
62
102
{ACAD_REACTORS
330
43
102
}
330
43
100
AcDbZombieObject
 90
      499
 91
      502
 93
      225
310
90A3322203D2031272D302200000000000002100000000000000284000
  0
ACAD_PROXY_OBJECT
  5
63
102
{ACAD_REACTORS
330
43
102
}
330
43
100
AcDbZombieObject
 90
      499
 91
      502
 93
      225
310
90A3622203D2031272D302200000000000006100000000000000284000
  0
ACAD_PROXY_OBJECT
  5
64
102
{ACAD_REACTORS
330
43
102
}
330
43
100
AcDbZombieObject
 90
      499
 91
      502
 93
      249
310
90D31272D3022203D2031272D30220000000000000A100000000000000284000
  0
ACAD_PROXY_OBJECT
  5
2F
102
{ACAD_REACTORS
330
2A
102
}
330
2A
100
AcDbZombieObject
 90
      499
 91
      501
 93
      436
310
42CC9915DA5C99599C985B595049028333333333333E3BF0000000000000FB0107901411070040501600405405064090741402480A0340
1001
ACAD
1000
AcDbSavedByObjectVersion
1070
     0
  0
ACAD_PROXY_OBJECT
  5
31
102
{ACAD_REACTORS
330
2A
102
}
330
2A
100
AcDbZombieObject
 90
      499
 91
      501
 93
      500
310
424CD108121A5919195B90640502408333333333333E3BF0000000000000FB01079024090700405020000000000001110200405405064090740C02480A0340
1001
ACAD
1000
AcDbSavedByObjectVersion
1070
     0
  0
ACAD_PROXY_OBJECT
  5
30
102
{ACAD_REACTORS
330
2A
102
}
330
2A
100
AcDbZombieObject
 90
      499
 91
      501
 93
      436
310
42CCD915DA5C99599C985B595059028333333333333E3BF0000000000000FB0107901411070040501600405405064090741402480A0340
1001
ACAD
1000
AcDbSavedByObjectVersion
1070
     0
  0
ACAD_PROXY_OBJECT
  5
32
102
{ACAD_REACTORS
330
2A
102
}
330
2A
100
AcDbZombieObject
 90
      499
 91
      501
 93
      388
310
4150985CDA58D07406404333333333333E3BF0000000000000FB0107A41107004050150841D405064090741402480A0350
1001
ACAD
1000
AcDbSavedByObjectVersion
1070
     0
  0
ACAD_PROXY_OBJECT
  5
36
102
{ACAD_REACTORS
330
2A
102
}
330
2A
100
AcDbZombieObject
 90
      499
 91
      501
 93
      428
310
42109C9A59DA1D195B90C409028333333333333E3BF0000000000000FB010790141107004050150841D405064090741402480A029950
1001
ACAD
1000
AcDbSavedByObjectVersion
1070
     0
  0
ACAD_PROXY_OBJECT
  5
3A
102
{ACAD_REACTORS
330
2A
102
}
330
2A
100
AcDbZombieObject
 90
      499
 91
      501
 93
      452
310
42D0DBDB1BDC90DA185B99D95104090240C333333333333E3BF0000000000000FB0108901411070040501508421405064090741402480A0350
1001
ACAD
1000
AcDbSavedByObjectVersion
1070
     0
  0
ACAD_PROXY_OBJECT
  5
34
102
{ACAD_REACTORS
330
2A
102
}
330
2A
100
AcDbZombieObject
 90
      499
 91
      501
 93
      500
310
4290DBDB98D95C1D1D585B10940D028333333333333E3BF0000000000000FB0107902409070040501000000000000111010841D405064090740C02480A0340
1001
ACAD
1000
AcDbSavedByObjectVersion
1070
     0
  0
ACAD_PROXY_OBJECT
  5
35
102
{ACAD_REACTORS
330
2A
102
}
330
2A
100
AcDbZombieObject
 90
      499
 91
      501
 93
      412
310
40D11A5B50B409028333333333333E3BF0000000000000FB010790141107004050150841D405064090741402480A02677FFFFFD0
1001
ACAD
1000
AcDbSavedByObjectVersion
1070
     0
  0
ACAD_PROXY_OBJECT
  5
39
102
{ACAD_REACTORS
330
2A
102
}
330
2A
100
AcDbZombieObject
 90
      499
 91
      501
 93
      444
310
42D19858D95C185D1D195C9B90F409028333333333333E3BF0000000000000FB010790141107004050150841D405064090741402480A0350
1001
ACAD
1000
AcDbSavedByObjectVersion
1070
     0
  0
ACAD_PROXY_OBJECT
  5
2B
102
{ACAD_REACTORS
330
2A
102
}
330
2A
100
AcDbZombieObject
 90
      499
 91
      501
 93
      388
310
41119B185D240901404333333333333E3BF0000000000000F9010740A41107004050150841D405064090741402480A1B50
1001
ACAD
1000
AcDbSavedByObjectVersion
1070
     0
  0
ACAD_PROXY_OBJECT
  5
2C
102
{ACAD_REACTORS
330
2A
102
}
330
2A
100
AcDbZombieObject
 90
      499
 91
      501
 93
      476
310
43519B185D15DA5D1A115919D95CD0140901404333333333333E3BF0000000000000F9010740901411070040501600405405064090741402480A1B50
1001
ACAD
1000
AcDbSavedByObjectVersion
1070
     0
  0
ACAD_PROXY_OBJECT
  5
2D
102
{ACAD_REACTORS
330
2A
102
}
330
2A
100
AcDbZombieObject
 90
      499
 91
      501
 93
      412
310
41D1DBDD5C985D5910240902404333333333333E3BF0000000000000F9010740A411070040501641D405064090741402480A1B50
1001
ACAD
1000
AcDbSavedByObjectVersion
1070
     0
  0
ACAD_PROXY_OBJECT
  5
2E
102
{ACAD_REACTORS
330
2A
102
}
330
2A
100
AcDbZombieObject
 90
      499
 91
      501
 93
      500
310
4411DBDD5C985D5915DA5D1A115919D95CD0340902404333333333333E3BF0000000000000F9010740901411070040501600405405064090741402480A1B50
1001
ACAD
1000
AcDbSavedByObjectVersion
1070
     0
  0
ACAD_PROXY_OBJECT
  5
38
102
{ACAD_REACTORS
330
2A
102
}
330
2A
100
AcDbZombieObject
 90
      499
 91
      501
 93
      444
310
42D31A5B995C185D1D195C9B90E409028333333333333E3BF0000000000000FB010790141107004050750841D405064090741402483A0350
1001
ACAD
1000
AcDbSavedByObjectVersion
1070
     0
  0
ACAD_PROXY_OBJECT
  5
33
102
{ACAD_REACTORS
330
2A
102
}
330
2A
100
AcDbZombieObject
 90
      499
 91
      501
 93
      420
310
425499585B1A5CDD1A58D08409028333333333333E3BF0000000000000FB01079019070040501508421405064090741402480A1B40
1001
ACAD
1000
AcDbSavedByObjectVersion
1070
     0
  0
ACAD_PROXY_OBJECT
  5
37
102
{ACAD_REACTORS
330
2A
102
}
330
2A
100
AcDbZombieObject
 90
      499
 91
      501
 93
      412
310
41D51A1A58DAD95B90D409028333333333333E3BF0000000000000FB010790141107004050150C41D405064090741402480A0350
1001
ACAD
1000
AcDbSavedByObjectVersion
1070
     0
  0
DICTIONARYVAR
  5
1BB
102
{ACAD_REACTORS
330
1B6
102
}
330
1B6
100
DictionaryVariables
280
     0
  1
1:1
  0
DICTIONARYVAR
  5
1BA
102
{ACAD_REACTORS
330
1B6
102
}
330
1B6
100
DictionaryVariables
280
     0
  1
80.000000
  0
DICTIONARYVAR
  5
1B9
102
{ACAD_REACTORS
330
1B6
102
}
330
1B6
100
DictionaryVariables
280
     0
  1
5.000000
  0
ENDSEC
  0
EOF
