  0
SECTION
  2
HEADER
  9
$ACADVER
  1
AC1012
  9
$DWGCODEPAGE
  3
ansi_932
  9
$INSBASE
 10
0.0
 20
0.0
 30
0.0
  9
$EXTMIN
 10
0.0
 20
0.0
 30
0.0
  9
$EXTMAX
 10
210.0
 20
297.0
 30
0.0
  9
$LIMMIN
 10
0.0
 20
0.0
  9
$LIMMAX
 10
210.0
 20
297.0
  9
$ORTHOMODE
 70
     0
  9
$REGENMODE
 70
     1
  9
$FILLMODE
 70
     1
  9
$QTEXTMODE
 70
     0
  9
$MIRRTEXT
 70
     1
  9
$DRAGMODE
 70
     2
  9
$LTSCALE
 40
1.0
  9
$OSMODE
 70
    37
  9
$ATTMODE
 70
     1
  9
$TEXTSIZE
 40
2.5
  9
$TRACEWID
 40
1.0
  9
$TEXTSTYLE
  7
STANDARD
  9
$CLAYER
  8
0
  9
$CELTYPE
  6
BYLAYER
  9
$CECOLOR
 62
   256
  9
$CELTSCALE
 40
1.0
  9
$DELOBJ
 70
     1
  9
$DISPSILH
 70
     0
  9
$DIMSCALE
 40
1.0
  9
$DIMASZ
 40
2.5
  9
$DIMEXO
 40
0.625
  9
$DIMDLI
 40
3.75
  9
$DIMRND
 40
0.0
  9
$DIMDLE
 40
0.0
  9
$DIMEXE
 40
1.25
  9
$DIMTP
 40
0.0
  9
$DIMTM
 40
0.0
  9
$DIMTXT
 40
2.5
  9
$DIMCEN
 40
2.5
  9
$DIMTSZ
 40
0.0
  9
$DIMTOL
 70
     0
  9
$DIMLIM
 70
     0
  9
$DIMTIH
 70
     0
  9
$DIMTOH
 70
     0
  9
$DIMSE1
 70
     0
  9
$DIMSE2
 70
     0
  9
$DIMTAD
 70
     1
  9
$DIMZIN
 70
     8
  9
$DIMBLK
  1

  9
$DIMASO
 70
     1
  9
$DIMSHO
 70
     1
  9
$DIMPOST
  1

  9
$DIMAPOST
  1

  9
$DIMALT
 70
     0
  9
$DIMALTD
 70
     3
  9
$DIMALTF
 40
0.0393700787
  9
$DIMLFAC
 40
1.0
  9
$DIMTOFL
 70
     1
  9
$DIMTVP
 40
0.0
  9
$DIMTIX
 70
     0
  9
$DIMSOXD
 70
     0
  9
$DIMSAH
 70
     0
  9
$DIMBLK1
  1

  9
$DIMBLK2
  1

  9
$DIMSTYLE
  2
ISO-25
  9
$DIMCLRD
 70
     0
  9
$DIMCLRE
 70
     0
  9
$DIMCLRT
 70
     0
  9
$DIMTFAC
 40
1.0
  9
$DIMGAP
 40
0.625
  9
$DIMJUST
 70
     0
  9
$DIMSD1
 70
     0
  9
$DIMSD2
 70
     0
  9
$DIMTOLJ
 70
     0
  9
$DIMTZIN
 70
     8
  9
$DIMALTZ
 70
     0
  9
$DIMALTTZ
 70
     0
  9
$DIMFIT
 70
     3
  9
$DIMUPT
 70
     0
  9
$DIMUNIT
 70
     2
  9
$DIMDEC
 70
     2
  9
$DIMTDEC
 70
     2
  9
$DIMALTU
 70
     2
  9
$DIMALTTD
 70
     3
  9
$DIMTXSTY
  7
STANDARD
  9
$DIMAUNIT
 70
     0
  9
$LUNITS
 70
     2
  9
$LUPREC
 70
     4
  9
$SKETCHINC
 40
1.0
  9
$FILLETRAD
 40
10.0
  9
$AUNITS
 70
     0
  9
$AUPREC
 70
     0
  9
$MENU
  1
.
  9
$ELEVATION
 40
0.0
  9
$PELEVATION
 40
0.0
  9
$THICKNESS
 40
0.0
  9
$LIMCHECK
 70
     0
  9
$CHAMFERA
 40
10.0
  9
$CHAMFERB
 40
10.0
  9
$CHAMFERC
 40
20.0
  9
$CHAMFERD
 40
0.0
  9
$SKPOLY
 70
     0
  9
$TDCREATE
 40
2456981.47688816
  9
$TDUPDATE
 40
2456981.476888171
  9
$TDINDWG
 40
0.0000000116
  9
$TDUSRTIMER
 40
0.0000000116
  9
$USRTIMER
 70
     1
  9
$ANGBASE
 50
0.0
  9
$ANGDIR
 70
     0
  9
$PDMODE
 70
     0
  9
$PDSIZE
 40
0.0
  9
$PLINEWID
 40
0.0
  9
$COORDS
 70
     1
  9
$SPLFRAME
 70
     0
  9
$SPLINETYPE
 70
     6
  9
$SPLINESEGS
 70
     8
  9
$ATTDIA
 70
     0
  9
$ATTREQ
 70
     1
  9
$HANDLING
 70
     1
  9
$HANDSEED
  5
1B4
  9
$SURFTAB1
 70
     6
  9
$SURFTAB2
 70
     6
  9
$SURFTYPE
 70
     6
  9
$SURFU
 70
     6
  9
$SURFV
 70
     6
  9
$UCSNAME
  2

  9
$UCSORG
 10
0.0
 20
0.0
 30
0.0
  9
$UCSXDIR
 10
1.0
 20
0.0
 30
0.0
  9
$UCSYDIR
 10
0.0
 20
1.0
 30
0.0
  9
$PUCSNAME
  2

  9
$PUCSORG
 10
0.0
 20
0.0
 30
0.0
  9
$PUCSXDIR
 10
1.0
 20
0.0
 30
0.0
  9
$PUCSYDIR
 10
0.0
 20
1.0
 30
0.0
  9
$USERI1
 70
     0
  9
$USERI2
 70
     0
  9
$USERI3
 70
     0
  9
$USERI4
 70
     0
  9
$USERI5
 70
     0
  9
$USERR1
 40
0.0
  9
$USERR2
 40
0.0
  9
$USERR3
 40
0.0
  9
$USERR4
 40
0.0
  9
$USERR5
 40
0.0
  9
$WORLDVIEW
 70
     1
  9
$SHADEDGE
 70
     3
  9
$SHADEDIF
 70
    70
  9
$TILEMODE
 70
     1
  9
$MAXACTVP
 70
    64
  9
$PINSBASE
 10
0.0
 20
0.0
 30
0.0
  9
$PLIMCHECK
 70
     0
  9
$PEXTMIN
 10
0.0
 20
0.0
 30
0.0
  9
$PEXTMAX
 10
210.0
 20
297.0
 30
0.0
  9
$PLIMMIN
 10
0.0
 20
0.0
  9
$PLIMMAX
 10
210.0
 20
297.0
  9
$UNITMODE
 70
     0
  9
$VISRETAIN
 70
     1
  9
$PLINEGEN
 70
     0
  9
$PSLTSCALE
 70
     1
  9
$TREEDEPTH
 70
  3020
  9
$PICKSTYLE
 70
     1
  9
$CMLSTYLE
  2
STANDARD
  9
$CMLJUST
 70
     0
  9
$CMLSCALE
 40
20.0
  9
$SAVEIMAGES
 70
     1
  0
ENDSEC
  0
SECTION
  2
CLASSES
  0
CLASS
  1
ACDBDICTIONARYWDFLT
  2
AcDbDictionaryWithDefault
  3
ObjectDBX Classes
 90
    32768
280
     0
281
     0
  0
CLASS
  1
VISUALSTYLE
  2
AcDbVisualStyle
  3
ObjectDBX Classes
 90
     4095
280
     0
281
     0
  0
CLASS
  1
SCALE
  2
AcDbScale
  3
ObjectDBX Classes
 90
     1153
280
     0
281
     0
  0
CLASS
  1
DICTIONARYVAR
  2
AcDbDictionaryVar
  3
ObjectDBX Classes
 90
        0
280
     0
281
     0
  0
CLASS
  1
XRECORD
  2
AcDbXrecord
  3
AutoCAD 2000
 90
    32768
280
     0
281
     0
  0
CLASS
  1
LWPOLYLINE
  2
AcDbPolyline
  3
AutoCAD 2000
 90
    32768
280
     0
281
     1
  0
CLASS
  1
HATCH
  2
AcDbHatch
  3
AutoCAD 2000
 90
    32768
280
     0
281
     1
  0
CLASS
  1
ACDBPLACEHOLDER
  2
AcDbPlaceHolder
  3
ObjectDBX Classes
 90
        0
280
     0
281
     0
  0
CLASS
  1
LAYOUT
  2
AcDbLayout
  3
ObjectDBX Classes
 90
        0
280
     0
281
     0
  0
ENDSEC
  0
SECTION
  2
TABLES
  0
TABLE
  2
VPORT
  5
8
330
0
100
AcDbSymbolTable
 70
     1
  0
VPORT
  5
29
330
8
100
AcDbSymbolTableRecord
100
AcDbViewportTableRecord
  2
*ACTIVE
 70
     0
 10
0.0
 20
0.0
 11
1.0
 21
1.0
 12
344.1869158879
 22
148.5
 13
0.0
 23
0.0
 14
10.0
 24
10.0
 15
10.0
 25
10.0
 16
0.0
 26
0.0
 36
1.0
 17
0.0
 27
0.0
 37
0.0
 40
297.0
 41
1.9729729729
 42
50.0
 43
0.0
 44
0.0
 50
0.0
 51
0.0
 71
     0
 72
   100
 73
     1
 74
     3
 75
     0
 76
     0
 77
     0
 78
     0
  0
ENDTAB
  0
TABLE
  2
LTYPE
  5
5
330
0
100
AcDbSymbolTable
 70
     2
  0
LTYPE
  5
14
330
5
100
AcDbSymbolTableRecord
100
AcDbLinetypeTableRecord
  2
BYBLOCK
 70
     0
  3

 72
    65
 73
     0
 40
0.0
  0
LTYPE
  5
15
330
5
100
AcDbSymbolTableRecord
100
AcDbLinetypeTableRecord
  2
BYLAYER
 70
     0
  3

 72
    65
 73
     0
 40
0.0
  0
LTYPE
  5
16
330
5
100
AcDbSymbolTableRecord
100
AcDbLinetypeTableRecord
  2
CONTINUOUS
 70
     0
  3
Solid line
 72
    65
 73
     0
 40
0.0
  0
LTYPE
  5
3C
330
5
100
AcDbSymbolTableRecord
100
AcDbLinetypeTableRecord
  2
DASHDOT2
 70
     0
  3
Dash dot (.5x) _._._._._._._._._._._._._._._.
 72
    65
 73
     4
 40
12.7
 49
6.35
 74
     4
 75
     0
340
0
 46
0.0
 50
0.0
 44
0.0
 45
0.0
 49
-3.175
 74
     4
 75
     0
340
0
 46
0.0
 50
0.0
 44
0.0
 45
0.0
 49
0.0
 74
     4
 75
     0
340
0
 46
0.0
 50
0.0
 44
0.0
 45
0.0
 49
-3.175
 74
     4
 75
     0
340
0
 46
0.0
 50
0.0
 44
0.0
 45
0.0
  0
ENDTAB
  0
TABLE
  2
LAYER
  5
2
330
0
100
AcDbSymbolTable
 70
    11
  0
LAYER
  5
10
330
2
100
AcDbSymbolTableRecord
100
AcDbLayerTableRecord
  2
0
 70
     0
 62
     7
  6
CONTINUOUS
  0
LAYER
  5
3B
330
2
100
AcDbSymbolTableRecord
100
AcDbLayerTableRecord
  2
DEFAULT
 70
     0
 62
     7
  6
CONTINUOUS
  0
LAYER
  5
66
330
2
100
AcDbSymbolTableRecord
100
AcDbLayerTableRecord
  2
KOTEIWAKU_001_SE
 70
     0
 62
     7
  6
CONTINUOUS
  0
LAYER
  5
7F
330
2
100
AcDbSymbolTableRecord
100
AcDbLayerTableRecord
  2
SIBORI_RING_001_
 70
     0
 62
     7
  6
CONTINUOUS
  0
LAYER
  5
8A
330
2
100
AcDbSymbolTableRecord
100
AcDbLayerTableRecord
  2
CNS14_22_001_SEP
 70
     0
 62
     7
  6
CONTINUOUS
  0
LAYER
  5
8F
330
2
100
AcDbSymbolTableRecord
100
AcDbLayerTableRecord
  2
ST17_20_001_SEP-
 70
     0
 62
     7
  6
CONTINUOUS
  0
LAYER
  5
BC
330
2
100
AcDbSymbolTableRecord
100
AcDbLayerTableRecord
  2
RING_SCALE_001_S
 70
     0
 62
     7
  6
CONTINUOUS
  0
LAYER
  5
CD
330
2
100
AcDbSymbolTableRecord
100
AcDbLayerTableRecord
  2
MOUNT_001_SEP-00
 70
     0
 62
     7
  6
CONTINUOUS
  0
LAYER
  5
100
330
2
100
AcDbSymbolTableRecord
100
AcDbLayerTableRecord
  2
CNS14_30_001_SEP
 70
     0
 62
     7
  6
CONTINUOUS
  0
LAYER
  5
145
330
2
100
AcDbSymbolTableRecord
100
AcDbLayerTableRecord
  2
SDABO_001_SEP-00
 70
     0
 62
     7
  6
CONTINUOUS
  0
LAYER
  5
149
330
2
100
AcDbSymbolTableRecord
100
AcDbLayerTableRecord
  2
DV1_ﾃﾞﾌｫﾙﾄ
 70
     0
 62
     7
  6
CONTINUOUS
  0
ENDTAB
  0
TABLE
  2
STYLE
  5
3
330
0
100
AcDbSymbolTable
 70
     3
  0
STYLE
  5
11
330
3
100
AcDbSymbolTableRecord
100
AcDbTextStyleTableRecord
  2
STANDARD
 70
     0
 40
0.0
 41
1.0
 50
0.0
 71
     0
 42
2.5
  3
txt
  4

  0
STYLE
  5
62
330
3
100
AcDbSymbolTableRecord
100
AcDbTextStyleTableRecord
  2
SEACAD_SEANSI_TTF
 70
     0
 40
0.0
 41
1.0
 50
0.0
 71
     0
 42
0.2
  3
seansi.ttf
  4

  0
STYLE
  5
157
330
3
100
AcDbSymbolTableRecord
100
AcDbTextStyleTableRecord
  2
SEACAD_SEMECA1_TTF
 70
     0
 40
0.0
 41
1.0
 50
0.0
 71
     0
 42
0.2
  3
semeca1.ttf
  4

  0
ENDTAB
  0
TABLE
  2
VIEW
  5
6
330
0
100
AcDbSymbolTable
 70
     0
  0
ENDTAB
  0
TABLE
  2
UCS
  5
7
330
0
100
AcDbSymbolTable
 70
     0
  0
ENDTAB
  0
TABLE
  2
APPID
  5
9
330
0
100
AcDbSymbolTable
 70
     1
  0
APPID
  5
12
330
9
100
AcDbSymbolTableRecord
100
AcDbRegAppTableRecord
  2
ACAD
 70
     0
  0
ENDTAB
  0
TABLE
  2
DIMSTYLE
  5
A
330
0
100
AcDbSymbolTable
 70
     1
  0
DIMSTYLE
105
27
330
A
100
AcDbSymbolTableRecord
100
AcDbDimStyleTableRecord
  2
ISO-25
 70
     0
  3

  4

  5

  6

  7

 40
1.0
 41
2.5
 42
0.625
 43
3.75
 44
1.25
 45
0.0
 46
0.0
 47
0.0
 48
0.0
140
2.5
141
2.5
142
0.0
143
0.0393700787
144
1.0
145
0.0
146
1.0
147
0.625
 71
     0
 72
     0
 73
     0
 74
     0
 75
     0
 76
     0
 77
     1
 78
     8
170
     0
171
     3
172
     1
173
     0
174
     0
175
     0
176
     0
177
     0
178
     0
270
     2
271
     2
272
     2
273
     2
274
     3
340
11
275
     0
280
     0
281
     0
282
     0
283
     0
284
     8
285
     0
286
     0
287
     3
288
     0
  0
ENDTAB
  0
TABLE
  2
BLOCK_RECORD
  5
1
330
0
100
AcDbSymbolTable
 70
     7
  0
BLOCK_RECORD
  5
1F
330
1
100
AcDbSymbolTableRecord
100
AcDbBlockTableRecord
  2
*MODEL_SPACE
  0
BLOCK_RECORD
  5
1B
330
1
100
AcDbSymbolTableRecord
100
AcDbBlockTableRecord
  2
*PAPER_SPACE
  0
BLOCK_RECORD
  5
64
330
1
100
AcDbSymbolTableRecord
100
AcDbBlockTableRecord
  2
SE
  0
BLOCK_RECORD
  5
150
330
1
100
AcDbSymbolTableRecord
100
AcDbBlockTableRecord
  2
GDIMGGROUP
  0
BLOCK_RECORD
  5
15D
330
1
100
AcDbSymbolTableRecord
100
AcDbBlockTableRecord
  2
GDIMGGROUP1
  0
BLOCK_RECORD
  5
168
330
1
100
AcDbSymbolTableRecord
100
AcDbBlockTableRecord
  2
GDIMGGROUP2
  0
BLOCK_RECORD
  5
172
330
1
100
AcDbSymbolTableRecord
100
AcDbBlockTableRecord
  2
GDIMGGROUP3
  0
BLOCK_RECORD
  5
17C
330
1
100
AcDbSymbolTableRecord
100
AcDbBlockTableRecord
  2
GDIMGGROUP4
  0
ENDTAB
  0
ENDSEC
  0
SECTION
  2
BLOCKS
  0
BLOCK
  5
20
330
1F
100
AcDbEntity
  8
0
100
AcDbBlockBegin
  2
*MODEL_SPACE
 70
     0
 10
0.0
 20
0.0
 30
0.0
  3
*MODEL_SPACE
  1

  0
ENDBLK
  5
21
330
1F
100
AcDbEntity
  8
0
100
AcDbBlockEnd
  0
BLOCK
  5
1C
330
1B
100
AcDbEntity
 67
     1
  8
0
100
AcDbBlockBegin
  2
*PAPER_SPACE
 70
     0
 10
0.0
 20
0.0
 30
0.0
  3
*PAPER_SPACE
  1

  0
ENDBLK
  5
1D
330
1B
100
AcDbEntity
 67
     1
  8
0
100
AcDbBlockEnd
  0
BLOCK
  5
14E
330
64
100
AcDbEntity
  8
0
100
AcDbBlockBegin
  2
SE
 70
     0
 10
0.0
 20
0.0
 30
0.0
  3
SE
  1

  0
LINE
  5
67
330
64
100
AcDbEntity
  8
KOTEIWAKU_001_SE
  6
CONTINUOUS
 62
     7
100
AcDbLine
 10
109.1363119013
 20
142.8212258146
 30
0.0
 11
109.1363119013
 21
184.4212258146
 31
0.0
  0
LINE
  5
68
330
64
100
AcDbEntity
  8
KOTEIWAKU_001_SE
  6
CONTINUOUS
 62
     7
100
AcDbLine
 10
108.9363119013
 20
184.6212258146
 30
0.0
 11
108.9363119013
 21
163.8725643997
 31
0.0
  0
LINE
  5
69
330
64
100
AcDbEntity
  8
KOTEIWAKU_001_SE
  6
CONTINUOUS
 62
     7
100
AcDbLine
 10
108.9363119013
 20
163.3698872294
 30
0.0
 11
108.9363119013
 21
142.6212258146
 31
0.0
  0
LINE
  5
6A
330
64
100
AcDbEntity
  8
KOTEIWAKU_001_SE
  6
CONTINUOUS
 62
     7
100
AcDbLine
 10
92.4363119013
 20
184.6212258146
 30
0.0
 11
92.4363119013
 21
163.8725643997
 31
0.0
  0
LINE
  5
6B
330
64
100
AcDbEntity
  8
KOTEIWAKU_001_SE
  6
CONTINUOUS
 62
     7
100
AcDbLine
 10
92.4363119013
 20
163.3698872294
 30
0.0
 11
92.4363119013
 21
142.6212258146
 31
0.0
  0
LINE
  5
6C
330
64
100
AcDbEntity
  8
KOTEIWAKU_001_SE
  6
CONTINUOUS
 62
     7
100
AcDbLine
 10
92.2363119013
 20
142.8212258146
 30
0.0
 11
92.2363119013
 21
184.4212258146
 31
0.0
  0
LINE
  5
6D
330
64
100
AcDbEntity
  8
KOTEIWAKU_001_SE
  6
CONTINUOUS
 62
     7
100
AcDbLine
 10
108.9363119013
 20
163.3698872294
 30
0.0
 11
109.0472545325
 21
163.4798044583
 31
0.0
  0
ARC
  5
6E
330
64
100
AcDbEntity
  8
KOTEIWAKU_001_SE
  6
CONTINUOUS
 62
     7
100
AcDbCircle
 10
108.9074011255
 20
163.6212258146
 30
0.0
 40
0.1988943826592942
100
AcDbArc
 50
314.6806114369
 51
45.3193885631
  0
LINE
  5
6F
330
64
100
AcDbEntity
  8
KOTEIWAKU_001_SE
  6
CONTINUOUS
 62
     7
100
AcDbLine
 10
109.0472545325
 20
163.7626471708
 30
0.0
 11
108.9363119013
 21
163.8725643997
 31
0.0
  0
ARC
  5
70
330
64
100
AcDbEntity
  8
KOTEIWAKU_001_SE
  6
CONTINUOUS
 62
     7
100
AcDbCircle
 10
92.4652226771
 20
163.6212258146
 30
0.0
 40
0.1988943826592769
100
AcDbArc
 50
134.6806114369
 51
225.3193885631
  0
LINE
  5
71
330
64
100
AcDbEntity
  8
KOTEIWAKU_001_SE
  6
CONTINUOUS
 62
     7
100
AcDbLine
 10
92.4363119013
 20
163.8725643997
 30
0.0
 11
108.9363119013
 21
163.8725643997
 31
0.0
  0
LINE
  5
72
330
64
100
AcDbEntity
  8
KOTEIWAKU_001_SE
  6
CONTINUOUS
 62
     7
100
AcDbLine
 10
92.4363119013
 20
163.8725643997
 30
0.0
 11
92.3253692701
 21
163.7626471708
 31
0.0
  0
LINE
  5
73
330
64
100
AcDbEntity
  8
KOTEIWAKU_001_SE
  6
CONTINUOUS
 62
     7
100
AcDbLine
 10
92.4363119013
 20
163.3698872294
 30
0.0
 11
108.9363119013
 21
163.3698872294
 31
0.0
  0
LINE
  5
74
330
64
100
AcDbEntity
  8
KOTEIWAKU_001_SE
  6
CONTINUOUS
 62
     7
100
AcDbLine
 10
92.3253692701
 20
163.4798044583
 30
0.0
 11
92.4363119013
 21
163.3698872294
 31
0.0
  0
LINE
  5
75
330
64
100
AcDbEntity
  8
KOTEIWAKU_001_SE
  6
CONTINUOUS
 62
     7
100
AcDbLine
 10
109.1363119013
 20
143.4712258146
 30
0.0
 11
109.6363119013
 21
143.4712258146
 31
0.0
  0
LINE
  5
76
330
64
100
AcDbEntity
  8
KOTEIWAKU_001_SE
  6
CONTINUOUS
 62
     7
100
AcDbLine
 10
109.6363119013
 20
183.7712258146
 30
0.0
 11
109.1363119013
 21
183.7712258146
 31
0.0
  0
LINE
  5
77
330
64
100
AcDbEntity
  8
KOTEIWAKU_001_SE
  6
CONTINUOUS
 62
     7
100
AcDbLine
 10
108.9363119013
 20
142.6212258146
 30
0.0
 11
109.1363119013
 21
142.8212258146
 31
0.0
  0
LINE
  5
78
330
64
100
AcDbEntity
  8
KOTEIWAKU_001_SE
  6
CONTINUOUS
 62
     7
100
AcDbLine
 10
109.1363119013
 20
184.4212258146
 30
0.0
 11
108.9363119013
 21
184.6212258146
 31
0.0
  0
LINE
  5
79
330
64
100
AcDbEntity
  8
KOTEIWAKU_001_SE
  6
CONTINUOUS
 62
     7
100
AcDbLine
 10
92.4363119013
 20
142.6212258146
 30
0.0
 11
108.9363119013
 21
142.6212258146
 31
0.0
  0
LINE
  5
7A
330
64
100
AcDbEntity
  8
KOTEIWAKU_001_SE
  6
CONTINUOUS
 62
     7
100
AcDbLine
 10
108.9363119013
 20
184.6212258146
 30
0.0
 11
92.4363119013
 21
184.6212258146
 31
0.0
  0
LINE
  5
7B
330
64
100
AcDbEntity
  8
KOTEIWAKU_001_SE
  6
CONTINUOUS
 62
     7
100
AcDbLine
 10
92.4363119013
 20
184.6212258146
 30
0.0
 11
92.2363119013
 21
184.4212258146
 31
0.0
  0
LINE
  5
7C
330
64
100
AcDbEntity
  8
KOTEIWAKU_001_SE
  6
CONTINUOUS
 62
     7
100
AcDbLine
 10
92.2363119013
 20
142.8212258146
 30
0.0
 11
92.4363119013
 21
142.6212258146
 31
0.0
  0
LINE
  5
7D
330
64
100
AcDbEntity
  8
KOTEIWAKU_001_SE
  6
CONTINUOUS
 62
     7
100
AcDbLine
 10
91.227658193
 20
143.4712258146
 30
0.0
 11
92.2363119013
 21
143.4712258146
 31
0.0
  0
LINE
  5
7E
330
64
100
AcDbEntity
  8
KOTEIWAKU_001_SE
  6
CONTINUOUS
 62
     7
100
AcDbLine
 10
92.2363119013
 20
183.7712258146
 30
0.0
 11
91.227658193
 21
183.7712258146
 31
0.0
  0
LINE
  5
80
330
64
100
AcDbEntity
  8
SIBORI_RING_001_
  6
CONTINUOUS
 62
     7
100
AcDbLine
 10
127.3363119013
 20
142.8212258146
 30
0.0
 11
127.3363119013
 21
184.4212258146
 31
0.0
  0
LINE
  5
81
330
64
100
AcDbEntity
  8
SIBORI_RING_001_
  6
CONTINUOUS
 62
     7
100
AcDbLine
 10
127.1363119013
 20
142.6212258146
 30
0.0
 11
127.1363119013
 21
184.6212258146
 31
0.0
  0
LINE
  5
82
330
64
100
AcDbEntity
  8
SIBORI_RING_001_
  6
CONTINUOUS
 62
     7
100
AcDbLine
 10
109.8363119013
 20
142.6212258146
 30
0.0
 11
109.8363119013
 21
184.6212258146
 31
0.0
  0
LINE
  5
83
330
64
100
AcDbEntity
  8
SIBORI_RING_001_
  6
CONTINUOUS
 62
     7
100
AcDbLine
 10
109.6363119013
 20
142.8212258146
 30
0.0
 11
109.6363119013
 21
184.4212258146
 31
0.0
  0
LINE
  5
84
330
64
100
AcDbEntity
  8
SIBORI_RING_001_
  6
CONTINUOUS
 62
     7
100
AcDbLine
 10
127.1363119013
 20
142.6212258146
 30
0.0
 11
127.3363119013
 21
142.8212258146
 31
0.0
  0
LINE
  5
85
330
64
100
AcDbEntity
  8
SIBORI_RING_001_
  6
CONTINUOUS
 62
     7
100
AcDbLine
 10
127.3363119013
 20
184.4212258146
 30
0.0
 11
127.1363119013
 21
184.6212258146
 31
0.0
  0
LINE
  5
86
330
64
100
AcDbEntity
  8
SIBORI_RING_001_
  6
CONTINUOUS
 62
     7
100
AcDbLine
 10
109.8363119013
 20
142.6212258146
 30
0.0
 11
127.1363119013
 21
142.6212258146
 31
0.0
  0
LINE
  5
87
330
64
100
AcDbEntity
  8
SIBORI_RING_001_
  6
CONTINUOUS
 62
     7
100
AcDbLine
 10
127.1363119013
 20
184.6212258146
 30
0.0
 11
109.8363119013
 21
184.6212258146
 31
0.0
  0
LINE
  5
88
330
64
100
AcDbEntity
  8
SIBORI_RING_001_
  6
CONTINUOUS
 62
     7
100
AcDbLine
 10
109.8363119013
 20
184.6212258146
 30
0.0
 11
109.6363119013
 21
184.4212258146
 31
0.0
  0
LINE
  5
89
330
64
100
AcDbEntity
  8
SIBORI_RING_001_
  6
CONTINUOUS
 62
     7
100
AcDbLine
 10
109.6363119013
 20
142.8212258146
 30
0.0
 11
109.8363119013
 21
142.6212258146
 31
0.0
  0
LINE
  5
8B
330
64
100
AcDbEntity
  8
CNS14_22_001_SEP
  6
CONTINUOUS
 62
     7
100
AcDbLine
 10
122.314075121
 20
142.4780448709
 30
0.0
 11
122.3363119013
 21
142.477802479
 31
0.0
  0
SPLINE
  5
8C
330
64
100
AcDbEntity
  8
CNS14_22_001_SEP
  6
CONTINUOUS
 62
     7
100
AcDbSpline
210
0.0
220
0.0
230
1.0
 70
     8
 71
     3
 72
    14
 73
    10
 74
     0
 42
0.0000000086157511
 43
0.0000000001
 40
0.3096209701529465
 40
0.3096209701529465
 40
0.3096209701529465
 40
0.3096209701529465
 40
0.3190655471989765
 40
0.4429004617215342
 40
0.5729187622222246
 40
0.7083164746738678
 40
0.8380186662035934
 40
0.965241547039399
 40
1.0
 40
1.0
 40
1.0
 40
1.0
 10
121.5333632615512
 20
142.6206204855307
 30
0.0
 10
121.5358343739251
 20
142.6192289359383
 30
0.0
 10
121.5708959235312
 20
142.5998460831455
 30
0.0
 10
121.6453550032738
 20
142.5681424794881
 30
0.0
 10
121.7748046304143
 20
142.5315918559231
 30
0.0
 10
121.9270558042177
 20
142.5037495662662
 30
0.0
 10
122.0924325164241
 20
142.4856575989421
 30
0.0
 10
122.2275605400644
 20
142.4787386810607
 30
0.0
 10
122.2967213008558
 20
142.4781630859539
 30
0.0
 10
122.3140751210479
 20
142.4780448709442
 30
0.0
  0
SPLINE
  5
8D
330
64
100
AcDbEntity
  8
CNS14_22_001_SEP
  6
CONTINUOUS
 62
     7
100
AcDbSpline
210
0.0
220
0.0
230
1.0
 70
     8
 71
     3
 72
    13
 73
     9
 74
     0
 42
0.0000000086427412
 43
0.0000000001
 40
0.0
 40
0.0
 40
0.0
 40
0.0
 40
0.0466386285311178
 40
0.1732528977429445
 40
0.3007580449525779
 40
0.4302545107398159
 40
0.5640785387612947
 40
0.6874442469835816
 40
0.6874442469835816
 40
0.6874442469835816
 40
0.6874442469835816
 10
122.3630366721508
 20
142.4781798912014
 30
0.0
 10
122.3862548566205
 20
142.4783791095574
 30
0.0
 10
122.4598474742296
 20
142.4791501291393
 30
0.0
 10
122.5979114949768
 20
142.4871765993538
 30
0.0
 10
122.7579758961546
 20
142.5056983859647
 30
0.0
 10
122.9068619953837
 20
142.5337267362755
 30
0.0
 10
123.0340707342083
 20
142.5704801199393
 30
0.0
 10
123.1057795797544
 20
142.6017993682626
 30
0.0
 10
123.1380262053877
 20
142.6199264270859
 30
0.0
  0
LINE
  5
8E
330
64
100
AcDbEntity
  8
CNS14_22_001_SEP
  6
CONTINUOUS
 62
     7
100
AcDbLine
 10
122.3363119013
 20
142.477802479
 30
0.0
 11
122.3630366722
 21
142.4781798912
 31
0.0
  0
ARC
  5
90
330
64
100
AcDbEntity
  8
ST17_20_001_SEP-
  6
CONTINUOUS
 62
     7
100
AcDbCircle
 10
129.6363119013
 20
163.6212258146
 30
0.0
 40
0.7500000000000018
100
AcDbArc
 50
102.3177659828
 51
257.6822340172
  0
ARC
  5
91
330
64
100
AcDbEntity
  8
ST17_20_001_SEP-
  6
CONTINUOUS
 62
     7
100
AcDbCircle
 10
129.6363119013
 20
163.6212258146
 30
0.0
 40
0.7500000000000012
100
AcDbArc
 50
282.3177659828
 51
77.6822340172
  0
LINE
  5
92
330
64
100
AcDbEntity
  8
ST17_20_001_SEP-
  6
CONTINUOUS
 62
     7
100
AcDbLine
 10
129.7963119013
 20
162.8884912105
 30
0.0
 11
129.7963119013
 21
164.3539604186
 31
0.0
  0
LINE
  5
93
330
64
100
AcDbEntity
  8
ST17_20_001_SEP-
  6
CONTINUOUS
 62
     7
100
AcDbLine
 10
129.4763119013
 20
162.8884912105
 30
0.0
 11
129.4763119013
 21
164.3539604186
 31
0.0
  0
ELLIPSE
  5
94
330
64
100
AcDbEntity
  8
CNS14_22_001_SEP
  6
CONTINUOUS
 62
     7
100
AcDbEllipse
 10
122.3363119013
 20
169.1081895707
 30
0.0
 11
-1.000000002384288
 21
-1.542881426348117E-14
 31
0.0
210
0.0
220
0.0
230
1.0
 40
0.9659258263
 41
5.950574201624524
 42
6.283185307179586
  0
ELLIPSE
  5
95
330
64
100
AcDbEntity
  8
CNS14_22_001_SEP
  6
CONTINUOUS
 62
     7
100
AcDbEllipse
 10
122.3363119013
 20
169.1081895707
 30
0.0
 11
-1.000000002384288
 21
-1.542881426348117E-14
 31
0.0
210
0.0
220
0.0
230
1.0
 40
0.9659258263
 41
0.0
 42
3.474203759144782
  0
ELLIPSE
  5
96
330
64
100
AcDbEntity
  8
CNS14_22_001_SEP
  6
CONTINUOUS
 62
     7
100
AcDbEllipse
 10
122.3363119013
 20
169.1837489357
 30
0.0
 11
0.9744586522172014
 21
-2.446513381407619E-14
 31
0.0
210
0.0
220
0.0
230
1.0
 40
0.9659258263
 41
5.969555621353658
 42
6.283185307179586
  0
ELLIPSE
  5
97
330
64
100
AcDbEntity
  8
CNS14_22_001_SEP
  6
CONTINUOUS
 62
     7
100
AcDbEllipse
 10
122.3363119013
 20
169.1837489357
 30
0.0
 11
0.9744586522172014
 21
-2.446513381407619E-14
 31
0.0
210
0.0
220
0.0
230
1.0
 40
0.9659258263
 41
1.712381289838534
 42
3.434370240042203
  0
ELLIPSE
  5
98
330
64
100
AcDbEntity
  8
CNS14_22_001_SEP
  6
CONTINUOUS
 62
     7
100
AcDbEllipse
 10
122.3363119013
 20
169.1837489357
 30
0.0
 11
0.9744586522172014
 21
-2.446513381407619E-14
 31
0.0
210
0.0
220
0.0
230
1.0
 40
0.9659258263
 41
0.0
 42
1.35831385620717
  0
ELLIPSE
  5
99
330
64
100
AcDbEntity
  8
CNS14_22_001_SEP
  6
CONTINUOUS
 62
     7
100
AcDbEllipse
 10
122.194890552
 20
165.9951680635
 30
0.0
 11
-8.335801020106665
 21
8.629856232007228
 31
0.0
210
0.0
220
0.0
230
1.0
 40
0.1830127002
 41
-1.436913300455343
 42
-1.413555899793364
  0
ELLIPSE
  5
9A
330
64
100
AcDbEntity
  8
CNS14_22_001_SEP
  6
CONTINUOUS
 62
     7
100
AcDbEllipse
 10
122.7888602621
 20
165.6946424096
 30
0.0
 11
8.325093625023989
 21
8.618771128344399
 31
0.0
210
0.0
220
0.0
230
1.0
 40
0.1830127017
 41
1.366856031379502
 42
1.400238423550423
  0
ELLIPSE
  5
9B
330
64
100
AcDbEntity
  8
CNS14_22_001_SEP
  6
CONTINUOUS
 62
     7
100
AcDbEllipse
 10
122.4777332639
 20
166.2683731436
 30
0.0
 11
-8.335801021644222
 21
8.62985623361487
 31
0.0
210
0.0
220
0.0
230
0.9999999999999998
 40
0.1830127003
 41
-1.436913300476057
 42
-1.413555899818378
  0
ARC
  5
9C
330
64
100
AcDbEntity
  8
CNS14_22_001_SEP
  6
CONTINUOUS
 62
     7
100
AcDbCircle
 10
122.8363587597
 20
169.2357695665
 30
0.0
 40
0.1509056518119771
100
AcDbArc
 50
133.5997767302
 51
226.4002232698
  0
ELLIPSE
  5
9D
330
64
100
AcDbEntity
  8
CNS14_22_001_SEP
  6
CONTINUOUS
 62
     7
100
AcDbEllipse
 10
122.4777332542
 20
165.9951679795
 30
0.0
 11
8.335801133317672
 21
8.629856364729468
 31
0.0
210
0.0
220
0.0
230
1.0
 40
0.1830127027
 41
1.330181154515035
 42
1.353538554848333
  0
ELLIPSE
  5
9E
330
64
100
AcDbEntity
  8
CNS14_22_001_SEP
  6
CONTINUOUS
 62
     7
100
AcDbEllipse
 10
122.7888602622
 20
166.5688987095
 30
0.0
 11
-8.32509362355052
 21
8.618771126589671
 31
0.0
210
0.0
220
0.0
230
1.0
 40
0.1830127017
 41
-1.400238423590592
 42
-1.366856031413552
  0
ELLIPSE
  5
9F
330
64
100
AcDbEntity
  8
CNS14_22_001_SEP
  6
CONTINUOUS
 62
     7
100
AcDbEllipse
 10
122.1948905418
 20
166.2683730591
 30
0.0
 11
8.335801134850469
 21
8.62985636650798
 31
0.0
210
0.0
220
0.0
230
1.0
 40
0.1830127027
 41
1.330181154493696
 42
1.353538554822478
  0
ARC
  5
A0
330
64
100
AcDbEntity
  8
CNS14_22_001_SEP
  6
CONTINUOUS
 62
     7
100
AcDbCircle
 10
122.3363119013
 20
169.7387740561
 30
0.0
 40
0.1653010527537273
100
AcDbArc
 50
226.8091630205
 51
313.1908369795
  0
ELLIPSE
  5
A1
330
64
100
AcDbEntity
  8
CNS14_22_001_SEP
  6
CONTINUOUS
 62
     7
100
AcDbEllipse
 10
122.4777332609
 20
166.2683730602
 30
0.0
 11
-8.335801133357199
 21
8.629856364765455
 31
0.0
210
0.0
220
0.0
230
1.0
 40
0.1830127027
 41
-1.353538554846607
 42
-1.330181154513348
  0
ELLIPSE
  5
A2
330
64
100
AcDbEntity
  8
CNS14_22_001_SEP
  6
CONTINUOUS
 62
     7
100
AcDbEllipse
 10
121.8837635405
 20
166.5688987088
 30
0.0
 11
8.325093624576915
 21
8.618771127780724
 31
0.0
210
0.0
220
0.0
230
0.9999999999999998
 40
0.1830127017
 41
1.366856031397241
 42
1.400238423569932
  0
ELLIPSE
  5
A3
330
64
100
AcDbEntity
  8
CNS14_22_001_SEP
  6
CONTINUOUS
 62
     7
100
AcDbEllipse
 10
122.1948905485
 20
165.9951679772
 30
0.0
 11
-8.335801136237023
 21
8.629856368199466
 31
0.0
210
0.0
220
0.0
230
0.9999999999999998
 40
0.1830127027
 41
-1.353538554779511
 42
-1.330181154454657
  0
ARC
  5
A4
330
64
100
AcDbEntity
  8
CNS14_22_001_SEP
  6
CONTINUOUS
 62
     7
100
AcDbCircle
 10
121.8361891832
 20
169.2357695665
 30
0.0
 40
0.150957975965348
100
AcDbArc
 50
313.6206274613
 51
46.3793725387
  0
ELLIPSE
  5
A5
330
64
100
AcDbEntity
  8
CNS14_22_001_SEP
  6
CONTINUOUS
 62
     7
100
AcDbEllipse
 10
122.1948905381
 20
166.2683731453
 30
0.0
 11
8.335801018574042
 21
8.629856230228468
 31
0.0
210
0.0
220
0.0
230
1.0
 40
0.1830127002
 41
1.413555899818306
 42
1.436913300484723
  0
ELLIPSE
  5
A6
330
64
100
AcDbEntity
  8
CNS14_22_001_SEP
  6
CONTINUOUS
 62
     7
100
AcDbEllipse
 10
121.8837635405
 20
165.6946424108
 30
0.0
 11
-8.325093623557247
 21
8.618771126582539
 31
0.0
210
0.0
220
0.0
230
1.0
 40
0.1830127017
 41
-1.400238423594308
 42
-1.366856031417152
  0
ELLIPSE
  5
A7
330
64
100
AcDbEntity
  8
CNS14_22_001_SEP
  6
CONTINUOUS
 62
     7
100
AcDbEllipse
 10
122.4777332516
 20
165.9951680598
 30
0.0
 11
8.335801025999473
 21
8.629856238647051
 31
0.0
210
0.0
220
0.0
230
1.0
 40
0.1830127004
 41
1.413555899739742
 42
1.436913300384646
  0
ARC
  5
A8
330
64
100
AcDbEntity
  8
CNS14_22_001_SEP
  6
CONTINUOUS
 62
     7
100
AcDbCircle
 10
122.3363119013
 20
168.736417363
 30
0.0
 40
0.1626574601778117
100
AcDbArc
 50
45.9286010992
 51
134.0713989007
  0
LINE
  5
A9
330
64
100
AcDbEntity
  8
CNS14_22_001_SEP
  6
CONTINUOUS
 62
     7
100
AcDbLine
 10
122.0251848967
 20
169.8064774487
 30
0.0
 11
122.0251848967
 21
169.759565974
 31
0.0
  0
LINE
  5
AA
330
64
100
AcDbEntity
  8
CNS14_22_001_SEP
  6
CONTINUOUS
 62
     7
100
AcDbLine
 10
122.6474389059
 20
169.8064774487
 30
0.0
 11
122.6474389059
 21
169.759565974
 31
0.0
  0
LINE
  5
AB
330
64
100
AcDbEntity
  8
CNS14_22_001_SEP
  6
CONTINUOUS
 62
     7
100
AcDbLine
 10
121.7666957412
 20
168.9088334048
 30
0.0
 11
121.9403321039
 21
169.0765532519
 31
0.0
  0
ELLIPSE
  5
AC
330
64
100
AcDbEntity
  8
CNS14_22_001_SEP
  6
CONTINUOUS
 62
     7
100
AcDbEllipse
 10
121.8271942235
 20
169.1858352842
 30
0.0
 11
-0.1600005623866897
 21
5.233562054418716E-15
 31
0.0
210
0.0
220
0.0
230
1.0
 40
0.9659258263
 41
2.356198005090927
 42
3.141592653589793
  0
LINE
  5
AD
330
64
100
AcDbEntity
  8
CNS14_22_001_SEP
  6
CONTINUOUS
 62
     7
100
AcDbLine
 10
121.7668668159
 20
169.5100498683
 30
0.0
 11
122.0251848967
 21
169.759565974
 31
0.0
  0
LINE
  5
AE
330
64
100
AcDbEntity
  8
CNS14_22_001_SEP
  6
CONTINUOUS
 62
     7
100
AcDbLine
 10
122.0251848967
 20
169.759565974
 30
0.0
 11
122.2231748163
 21
169.5683223973
 31
0.0
  0
ELLIPSE
  5
AF
330
64
100
AcDbEntity
  8
CNS14_22_001_SEP
  6
CONTINUOUS
 62
     7
100
AcDbEllipse
 10
122.3363119013
 20
169.6776442399
 30
0.0
 11
-0.1600291457890465
 21
-1.558311440661714E-14
 31
0.0
210
0.0
220
0.0
230
1.0
 40
0.9659258263
 41
0.7855802748209909
 42
2.35601237876874
  0
LINE
  5
B0
330
64
100
AcDbEntity
  8
CNS14_22_001_SEP
  6
CONTINUOUS
 62
     7
100
AcDbLine
 10
122.4494489863
 20
169.5683223973
 30
0.0
 11
122.6474389059
 21
169.759565974
 31
0.0
  0
LINE
  5
B1
330
64
100
AcDbEntity
  8
CNS14_22_001_SEP
  6
CONTINUOUS
 62
     7
100
AcDbLine
 10
122.6474389059
 20
169.759565974
 30
0.0
 11
122.9057569868
 21
169.5100498683
 31
0.0
  0
ELLIPSE
  5
B2
330
64
100
AcDbEntity
  8
CNS14_22_001_SEP
  6
CONTINUOUS
 62
     7
100
AcDbEllipse
 10
122.8454295791
 20
169.1858352842
 30
0.0
 11
0.1600005623866758
 21
-3.645858462200124E-14
 31
0.0
210
0.0
220
0.0
230
1.0
 40
0.9659258263
 41
3.141592653590029
 42
3.926987302089201
  0
LINE
  5
B3
330
64
100
AcDbEntity
  8
CNS14_22_001_SEP
  6
CONTINUOUS
 62
     7
100
AcDbLine
 10
122.7322916988
 20
169.0765532519
 30
0.0
 11
122.9059280615
 21
168.9088334048
 31
0.0
  0
LINE
  5
B4
330
64
100
AcDbEntity
  8
CNS14_22_001_SEP
  6
CONTINUOUS
 62
     7
100
AcDbLine
 10
123.2815049125
 20
169.4235760775
 30
0.0
 11
123.2573634069
 21
169.4910800454
 31
0.0
  0
LINE
  5
B5
330
64
100
AcDbEntity
  8
CNS14_22_001_SEP
  6
CONTINUOUS
 62
     7
100
AcDbLine
 10
121.4152603958
 20
169.4910800454
 30
0.0
 11
121.3911188901
 21
169.4235760775
 31
0.0
  0
ARC
  5
B6
330
64
100
AcDbEntity
  8
CNS14_22_001_SEP
  6
CONTINUOUS
 62
     7
100
AcDbCircle
 10
122.3538998318
 20
169.4140322709
 30
0.0
 40
0.7142264785105711
100
AcDbArc
 50
74.9009129291
 51
91.4110595036
  0
ARC
  5
B7
330
64
100
AcDbEntity
  8
CNS14_22_001_SEP
  6
CONTINUOUS
 62
     7
100
AcDbCircle
 10
122.3175218523
 20
169.5531813204
 30
0.0
 40
0.5751678497908562
100
AcDbArc
 50
88.1278819769
 51
101.7840570248
  0
LINE
  5
B8
330
64
100
AcDbEntity
  8
CNS14_22_001_SEP
  6
CONTINUOUS
 62
     7
100
AcDbLine
 10
121.9871947859
 20
169.1858352842
 30
0.0
 11
121.9871947859
 21
169.2375990933
 31
0.0
  0
LINE
  5
B9
330
64
100
AcDbEntity
  8
CNS14_22_001_SEP
  6
CONTINUOUS
 62
     7
100
AcDbLine
 10
122.6854290167
 20
169.2375990933
 30
0.0
 11
122.6854290167
 21
169.1858352842
 31
0.0
  0
LINE
  5
BA
330
64
100
AcDbEntity
  8
ST17_20_001_SEP-
  6
CONTINUOUS
 62
     7
100
AcDbLine
 10
129.7963119013
 20
142.8712258146
 30
0.0
 11
130.3863119013
 21
142.8712258146
 31
0.0
  0
LINE
  5
BB
330
64
100
AcDbEntity
  8
ST17_20_001_SEP-
  6
CONTINUOUS
 62
     7
100
AcDbLine
 10
128.8863119013
 20
142.8712258146
 30
0.0
 11
129.4763119013
 21
142.8712258146
 31
0.0
  0
LINE
  5
BD
330
64
100
AcDbEntity
  8
RING_SCALE_001_S
  6
CONTINUOUS
 62
     7
100
AcDbLine
 10
91.227658193
 20
142.8212258147
 30
0.0
 11
91.227658193
 21
184.4212258145
 31
0.0
  0
LINE
  5
BE
330
64
100
AcDbEntity
  8
RING_SCALE_001_S
  6
CONTINUOUS
 62
     7
100
AcDbLine
 10
91.0276581931
 20
142.6212258147
 30
0.0
 11
91.0276581931
 21
184.6212258144
 31
0.0
  0
LINE
  5
BF
330
64
100
AcDbEntity
  8
RING_SCALE_001_S
  6
CONTINUOUS
 62
     7
100
AcDbLine
 10
60.8276581929
 20
142.6212258147
 30
0.0
 11
60.8276581929
 21
184.6212258144
 31
0.0
  0
LINE
  5
C0
330
64
100
AcDbEntity
  8
RING_SCALE_001_S
  6
CONTINUOUS
 62
     7
100
AcDbLine
 10
60.627658193
 20
142.8212258146
 30
0.0
 11
60.627658193
 21
184.4212258145
 31
0.0
  0
SPLINE
  5
C1
330
64
100
AcDbEntity
  8
RING_SCALE_001_S
  6
CONTINUOUS
 62
     7
100
AcDbSpline
210
0.0
220
0.0
230
1.0
 70
    11
 71
     3
 72
    62
 73
    58
 74
     0
 42
0.0000000030439197
 43
0.0000000001
 40
0.0
 40
0.0
 40
0.0
 40
0.0
 40
0.0536855661724949
 40
0.0536855661724949
 40
0.0536855661724949
 40
0.1073699502750944
 40
0.1073699502750944
 40
0.1073699502750944
 40
0.1610720596201951
 40
0.1610720596201951
 40
0.1610720596201951
 40
0.2147862520023392
 40
0.2147862520023392
 40
0.2147862520023392
 40
0.268481344767931
 40
0.268481344767931
 40
0.268481344767931
 40
0.3221559834915887
 40
0.3221559834915887
 40
0.3221559834915887
 40
0.3758407070709007
 40
0.3758407070709007
 40
0.3758407070709007
 40
0.4295503275373398
 40
0.4295503275373398
 40
0.4295503275373398
 40
0.4832608194130059
 40
0.4832608194130059
 40
0.4832608194130059
 40
0.5369467610016861
 40
0.5369467610016861
 40
0.5369467610016861
 40
0.5906210623779465
 40
0.5906210623779465
 40
0.5906210623779465
 40
0.6443147908931476
 40
0.6443147908931476
 40
0.6443147908931476
 40
0.6980286964022249
 40
0.6980286964022249
 40
0.6980286964022249
 40
0.7517320419850319
 40
0.7517320419850319
 40
0.7517320419850319
 40
0.8054105880964826
 40
0.8054105880964826
 40
0.8054105880964826
 40
0.8590887864089625
 40
0.8590887864089625
 40
0.8590887864089625
 40
0.9127916178020675
 40
0.9127916178020675
 40
0.9127916178020675
 40
0.9665056555733482
 40
0.9665056555733482
 40
0.9665056555733482
 40
1.0
 40
1.0
 40
1.0
 40
1.0
 10
75.97765819302627
 20
181.4608620369217
 30
0.0
 10
76.05318502301049
 20
181.4608620369217
 30
0.0
 10
76.12975332130657
 20
181.4677527030841
 30
0.0
 10
76.2010215853339
 20
181.4809050959591
 30
0.0
 10
76.27228895739927
 20
181.4940573242245
 30
0.0
 10
76.34022184114677
 20
181.5138281296227
 30
0.0
 10
76.39920164565203
 20
181.5384341580991
 30
0.0
 10
76.45820060534241
 20
181.5630481780063
 30
0.0
 10
76.50986798968414
 20
181.5931712643493
 30
0.0
 10
76.5499284629126
 20
181.6261396006867
 30
0.0
 10
76.58999740854078
 20
181.6591149095059
 30
0.0
 10
76.61955949960414
 20
181.6958393787226
 30
0.0
 10
76.63616276867135
 20
181.7331492607507
 30
0.0
 10
76.65276018342057
 20
181.7704459873024
 30
0.0
 10
76.65686540548508
 20
181.8093532332867
 30
0.0
 10
76.64813761429042
 20
181.846628574917
 30
0.0
 10
76.63941301861003
 20
181.8838902688919
 30
0.0
 10
76.61762491406053
 20
181.9205506175701
 30
0.0
 10
76.58457919765304
 20
181.9536687728998
 30
0.0
 10
76.55152715542808
 20
181.9867932679137
 30
0.0
 10
76.50630264865603
 20
182.0172941178485
 30
0.0
 10
76.45264724359869
 20
182.042812939244
 30
0.0
 10
76.3989676656369
 20
182.0683432574128
 30
0.0
 10
76.33536856664716
 20
182.0895995087661
 30
0.0
 10
76.26711328639088
 20
182.1049841810724
 30
0.0
 10
76.19885753932812
 20
182.1203689585964
 30
0.0
 10
76.12406155177295
 20
182.1303127151822
 30
0.0
 10
76.04892319964371
 20
182.1340805402377
 30
0.0
 10
75.97381850489406
 20
182.1378466775384
 30
0.0
 10
75.8963000248339
 20
182.1355480265095
 30
0.0
 10
75.82278944833503
 20
182.1273536653736
 30
0.0
 10
75.74929382641479
 20
182.1191609712525
 30
0.0
 10
75.67777811073097
 20
182.1048457803072
 30
0.0
 10
75.61415758622023
 20
182.0854696926487
 30
0.0
 10
75.55051424202556
 20
182.0660866550915
 30
0.0
 10
75.4930166582401
 20
182.0410972701794
 30
0.0
 10
75.44642020100332
 20
182.012396613375
 30
0.0
 10
75.39980692425227
 20
181.9836855967463
 30
0.0
 10
75.36281705615836
 20
181.9504601683665
 30
0.0
 10
75.33851637629063
 20
181.9153264753095
 30
0.0
 10
75.31422055282269
 20
181.8801998035893
 30
0.0
 10
75.3019391112291
 20
181.8421911338149
 30
0.0
 10
75.30269168162468
 20
181.8043964989328
 30
0.0
 10
75.30344391456345
 20
181.7666188113782
 30
0.0
 10
75.3172388565225
 20
181.7280133218898
 30
0.0
 10
75.34293232322165
 20
181.6918368743587
 30
0.0
 10
75.36862585785211
 20
181.6556603311803
 30
0.0
 10
75.40692544431094
 20
181.6209207191766
 30
0.0
 10
75.45466117973059
 20
181.5906387158052
 30
0.0
 10
75.50241837500676
 20
181.5603430989964
 30
0.0
 10
75.56093729915096
 20
181.5336816765038
 30
0.0
 10
75.6253766062151
 20
181.5130320935552
 30
0.0
 10
75.68982850512882
 20
181.4923784755471
 30
0.0
 10
75.76198213120888
 20
181.4771769111152
 30
0.0
 10
75.83586051315078
 20
181.4688077409851
 30
0.0
 10
75.8823309379647
 20
181.4635434284615
 30
0.0
 10
75.93012613428431
 20
181.4608620369217
 30
0.0
 10
75.97765819302627
 20
181.4608620369217
 30
0.0
  0
SPLINE
  5
C2
330
64
100
AcDbEntity
  8
RING_SCALE_001_S
  6
CONTINUOUS
 62
     7
100
AcDbSpline
210
0.0
220
0.0
230
1.0
 70
    11
 71
     3
 72
    62
 73
    58
 74
     0
 42
0.0000000030438992
 43
0.0000000001
 40
0.0
 40
0.0
 40
0.0
 40
0.0
 40
0.0536855661724949
 40
0.0536855661724949
 40
0.0536855661724949
 40
0.1073699502750943
 40
0.1073699502750943
 40
0.1073699502750943
 40
0.1610720596201947
 40
0.1610720596201947
 40
0.1610720596201947
 40
0.2147862520023354
 40
0.2147862520023354
 40
0.2147862520023354
 40
0.2684813447679307
 40
0.2684813447679307
 40
0.2684813447679307
 40
0.3221559834915893
 40
0.3221559834915893
 40
0.3221559834915893
 40
0.3758407070709003
 40
0.3758407070709003
 40
0.3758407070709003
 40
0.4295503275373395
 40
0.4295503275373395
 40
0.4295503275373395
 40
0.4832608194130056
 40
0.4832608194130056
 40
0.4832608194130056
 40
0.5369467610016861
 40
0.5369467610016861
 40
0.5369467610016861
 40
0.5906210623779465
 40
0.5906210623779465
 40
0.5906210623779465
 40
0.6443147908931479
 40
0.6443147908931479
 40
0.6443147908931479
 40
0.6980286964022249
 40
0.6980286964022249
 40
0.6980286964022249
 40
0.7517320419850319
 40
0.7517320419850319
 40
0.7517320419850319
 40
0.8054105880964836
 40
0.8054105880964836
 40
0.8054105880964836
 40
0.8590887864089627
 40
0.8590887864089627
 40
0.8590887864089627
 40
0.9127916178020713
 40
0.9127916178020713
 40
0.9127916178020713
 40
0.9665056555733449
 40
0.9665056555733449
 40
0.9665056555733449
 40
1.0
 40
1.0
 40
1.0
 40
1.0
 10
75.97765819302627
 20
145.1065895922207
 30
0.0
 10
76.05318502301049
 20
145.1065895922207
 30
0.0
 10
76.12975332130657
 20
145.1127353327575
 30
0.0
 10
76.2010215853339
 20
145.1245741672389
 30
0.0
 10
76.27228895739927
 20
145.1364128535507
 30
0.0
 10
76.34022184114677
 20
145.1542757322667
 30
0.0
 10
76.39920164565203
 20
145.1768304856687
 30
0.0
 10
76.45820060534241
 20
145.199392564298
 30
0.0
 10
76.50986798968414
 20
145.2272798846739
 30
0.0
 10
76.5499284629126
 20
145.2583570896656
 30
0.0
 10
76.58999740854078
 20
145.2894408671833
 30
0.0
 10
76.61955949960414
 20
145.3245813491562
 30
0.0
 10
76.63616276867135
 20
145.3609894429452
 30
0.0
 10
76.65276018342058
 20
145.3973846992287
 30
0.0
 10
76.65686540548508
 20
145.4360544551191
 30
0.0
 10
76.64813761429042
 20
145.4738124487691
 30
0.0
 10
76.63941301861003
 20
145.5115566180499
 30
0.0
 10
76.61762491406053
 20
145.5494285029797
 30
0.0
 10
76.58457919765304
 20
145.5842010245106
 30
0.0
 10
76.55152715542808
 20
145.6189802024149
 30
0.0
 10
76.50630264865603
 20
145.6516112894139
 30
0.0
 10
76.45264724359869
 20
145.6792326867711
 30
0.0
 10
76.3989676656369
 20
145.7068665281569
 30
0.0
 10
76.33536856664716
 20
145.7302400338599
 30
0.0
 10
76.26711328639088
 20
145.7472549101626
 30
0.0
 10
76.19885753932812
 20
145.7642699028322
 30
0.0
 10
76.12406155177295
 20
145.7753888438098
 30
0.0
 10
76.04892319964371
 20
145.7795985457566
 30
0.0
 10
75.97381850489406
 20
145.7838063620147
 30
0.0
 10
75.8963000248339
 20
145.7812254237417
 30
0.0
 10
75.82278944833503
 20
145.7720916257761
 30
0.0
 10
75.74929382641479
 20
145.7629596859391
 30
0.0
 10
75.67777811073096
 20
145.7470299754175
 30
0.0
 10
75.61415758622023
 20
145.7257457792718
 30
0.0
 10
75.55051424202556
 20
145.7044539488188
 30
0.0
 10
75.4930166582401
 20
145.6772244330379
 30
0.0
 10
75.44642020100332
 20
145.6464817149972
 30
0.0
 10
75.39980692425227
 20
145.6157279000274
 30
0.0
 10
75.36281705615836
 20
145.5806176621585
 30
0.0
 10
75.33851637629063
 20
145.5442028774709
 30
0.0
 10
75.31422055282269
 20
145.5077953701415
 30
0.0
 10
75.3019391112291
 20
145.4690841436397
 30
0.0
 10
75.30269168162468
 20
145.4313314045792
 30
0.0
 10
75.30344391456343
 20
145.3935955940598
 30
0.0
 10
75.3172388565225
 20
145.3557765549488
 30
0.0
 10
75.34293232322165
 20
145.3209452744412
 30
0.0
 10
75.36862585785211
 20
145.2861139018428
 30
0.0
 10
75.40692544431094
 20
145.2533046200234
 30
0.0
 10
75.45466117973059
 20
145.2250821737791
 30
0.0
 10
75.50241837500677
 20
145.1968470399823
 30
0.0
 10
75.56093729915098
 20
145.1724160201891
 30
0.0
 10
75.62537660621511
 20
145.1536394702898
 30
0.0
 10
75.68982850512882
 20
145.1348592513336
 30
0.0
 10
75.76198213120888
 20
145.1212104107483
 30
0.0
 10
75.83586051315076
 20
145.1137056956105
 30
0.0
 10
75.88233093796468
 20
145.1089851360721
 30
0.0
 10
75.9301261342843
 20
145.1065895922207
 30
0.0
 10
75.97765819302627
 20
145.1065895922207
 30
0.0
  0
ARC
  5
C3
330
64
100
AcDbEntity
  8
RING_SCALE_001_S
  6
CONTINUOUS
 62
     7
100
AcDbCircle
 10
85.427658193
 20
205.1404677298
 30
0.0
 40
20.53868363106998
100
AcDbArc
 50
267.5068246332
 51
272.4931753442
  0
ARC
  5
C4
330
64
100
AcDbEntity
  8
RING_SCALE_001_S
  6
CONTINUOUS
 62
     7
100
AcDbCircle
 10
75.977658193
 20
205.336049536
 30
0.0
 40
20.73013953732224
100
AcDbArc
 50
267.7974120126
 51
272.2025879743
  0
LINE
  5
C5
330
64
100
AcDbEntity
  8
RING_SCALE_001_S
  6
CONTINUOUS
 62
     7
100
AcDbLine
 10
91.0276581931
 20
142.6212258147
 30
0.0
 11
91.227658193
 21
142.8212258147
 31
0.0
  0
LINE
  5
C6
330
64
100
AcDbEntity
  8
RING_SCALE_001_S
  6
CONTINUOUS
 62
     7
100
AcDbLine
 10
91.227658193
 20
184.4212258145
 30
0.0
 11
91.0276581931
 21
184.6212258144
 31
0.0
  0
LINE
  5
C7
330
64
100
AcDbEntity
  8
RING_SCALE_001_S
  6
CONTINUOUS
 62
     7
100
AcDbLine
 10
60.8276581929
 20
142.6212258147
 30
0.0
 11
91.0276581931
 21
142.6212258147
 31
0.0
  0
LINE
  5
C8
330
64
100
AcDbEntity
  8
RING_SCALE_001_S
  6
CONTINUOUS
 62
     7
100
AcDbLine
 10
75.1809780483
 20
184.6212258144
 30
0.0
 11
60.8276581929
 21
184.6212258144
 31
0.0
  0
LINE
  5
C9
330
64
100
AcDbEntity
  8
RING_SCALE_001_S
  6
CONTINUOUS
 62
     7
100
AcDbLine
 10
84.5309568243
 20
184.6212258144
 30
0.0
 11
76.7743371948
 21
184.6212258144
 31
0.0
  0
LINE
  5
CA
330
64
100
AcDbEntity
  8
RING_SCALE_001_S
  6
CONTINUOUS
 62
     7
100
AcDbLine
 10
91.0276581931
 20
184.6212258144
 30
0.0
 11
86.3243595618
 21
184.6212258144
 31
0.0
  0
LINE
  5
CB
330
64
100
AcDbEntity
  8
RING_SCALE_001_S
  6
CONTINUOUS
 62
     7
100
AcDbLine
 10
60.8276581929
 20
184.6212258144
 30
0.0
 11
60.627658193
 21
184.4212258145
 31
0.0
  0
LINE
  5
CC
330
64
100
AcDbEntity
  8
RING_SCALE_001_S
  6
CONTINUOUS
 62
     7
100
AcDbLine
 10
60.627658193
 20
142.8212258146
 30
0.0
 11
60.8276581929
 21
142.6212258147
 31
0.0
  0
LINE
  5
CE
330
64
100
AcDbEntity
  8
MOUNT_001_SEP-00
  6
CONTINUOUS
 62
     7
100
AcDbLine
 10
144.4363119013
 20
151.6212258146
 30
0.0
 11
144.4363119013
 21
175.6212258146
 31
0.0
  0
LINE
  5
CF
330
64
100
AcDbEntity
  8
MOUNT_001_SEP-00
  6
CONTINUOUS
 62
     7
100
AcDbLine
 10
143.7363119013
 20
150.9212258146
 30
0.0
 11
143.7363119013
 21
176.3212258146
 31
0.0
  0
LINE
  5
D0
330
64
100
AcDbEntity
  8
MOUNT_001_SEP-00
  6
CONTINUOUS
 62
     7
100
AcDbLine
 10
142.1863119013
 20
150.9212258146
 30
0.0
 11
142.1863119013
 21
176.3212258146
 31
0.0
  0
LINE
  5
D1
330
64
100
AcDbEntity
  8
MOUNT_001_SEP-00
  6
CONTINUOUS
 62
     7
100
AcDbLine
 10
141.4863119013
 20
151.6212258146
 30
0.0
 11
141.4863119013
 21
175.6212258146
 31
0.0
  0
LINE
  5
D2
330
64
100
AcDbEntity
  8
MOUNT_001_SEP-00
  6
CONTINUOUS
 62
     7
100
AcDbLine
 10
140.4363119013
 20
148.6212258146
 30
0.0
 11
140.4363119013
 21
178.6212258146
 31
0.0
  0
LINE
  5
D3
330
64
100
AcDbEntity
  8
MOUNT_001_SEP-00
  6
CONTINUOUS
 62
     7
100
AcDbLine
 10
140.2363119013
 20
143.3712258146
 30
0.0
 11
140.2363119013
 21
183.8712258146
 31
0.0
  0
LINE
  5
D4
330
64
100
AcDbEntity
  8
MOUNT_001_SEP-00
  6
CONTINUOUS
 62
     7
100
AcDbLine
 10
139.7363119013
 20
142.8712258146
 30
0.0
 11
139.7363119013
 21
184.3712258146
 31
0.0
  0
LINE
  5
D5
330
64
100
AcDbEntity
  8
MOUNT_001_SEP-00
  6
CONTINUOUS
 62
     7
100
AcDbLine
 10
128.0363119013
 20
142.8712258146
 30
0.0
 11
128.0363119013
 21
184.3712258146
 31
0.0
  0
LINE
  5
D6
330
64
100
AcDbEntity
  8
MOUNT_001_SEP-00
  6
CONTINUOUS
 62
     7
100
AcDbLine
 10
127.8363119013
 20
143.0712258146
 30
0.0
 11
127.8363119013
 21
184.1712258146
 31
0.0
  0
CIRCLE
  5
D7
330
64
100
AcDbEntity
  8
MOUNT_001_SEP-00
  6
CONTINUOUS
 62
     7
100
AcDbCircle
 10
129.6363119013
 20
163.6212258146
 30
0.0
 40
0.675
  0
ARC
  5
D8
330
64
100
AcDbEntity
  8
MOUNT_001_SEP-00
  6
CONTINUOUS
 62
     7
100
AcDbCircle
 10
129.6363363139
 20
205.1105357772
 30
0.0
 40
20.75029242406593
100
AcDbArc
 50
269.5568171414
 51
270.4476716267
  0
ARC
  5
D9
330
64
100
AcDbEntity
  8
MOUNT_001_SEP-00
  6
CONTINUOUS
 62
     7
100
AcDbCircle
 10
129.6362874888
 20
122.1319158519
 30
0.0
 40
20.75029242407215
100
AcDbArc
 50
89.5568171414
 51
90.4476716267
  0
LINE
  5
DA
330
64
100
AcDbEntity
  8
MOUNT_001_SEP-00
  6
CONTINUOUS
 62
     7
100
AcDbLine
 10
143.7363119013
 20
150.9212258146
 30
0.0
 11
144.4363119013
 21
151.6212258146
 31
0.0
  0
LINE
  5
DB
330
64
100
AcDbEntity
  8
MOUNT_001_SEP-00
  6
CONTINUOUS
 62
     7
100
AcDbLine
 10
144.4363119013
 20
175.6212258146
 30
0.0
 11
143.7363119013
 21
176.3212258146
 31
0.0
  0
LINE
  5
DC
330
64
100
AcDbEntity
  8
MOUNT_001_SEP-00
  6
CONTINUOUS
 62
     7
100
AcDbLine
 10
142.1863119013
 20
150.9212258146
 30
0.0
 11
143.7363119013
 21
150.9212258146
 31
0.0
  0
LINE
  5
DD
330
64
100
AcDbEntity
  8
MOUNT_001_SEP-00
  6
CONTINUOUS
 62
     7
100
AcDbLine
 10
143.7363119013
 20
176.3212258146
 30
0.0
 11
142.1863119013
 21
176.3212258146
 31
0.0
  0
LINE
  5
DE
330
64
100
AcDbEntity
  8
MOUNT_001_SEP-00
  6
CONTINUOUS
 62
     7
100
AcDbLine
 10
142.1863119013
 20
176.3212258146
 30
0.0
 11
141.4863119013
 21
175.6212258146
 31
0.0
  0
LINE
  5
DF
330
64
100
AcDbEntity
  8
MOUNT_001_SEP-00
  6
CONTINUOUS
 62
     7
100
AcDbLine
 10
141.4863119013
 20
151.6212258146
 30
0.0
 11
142.1863119013
 21
150.9212258146
 31
0.0
  0
LINE
  5
E0
330
64
100
AcDbEntity
  8
MOUNT_001_SEP-00
  6
CONTINUOUS
 62
     7
100
AcDbLine
 10
140.4363119013
 20
151.6212258146
 30
0.0
 11
141.4863119013
 21
151.6212258146
 31
0.0
  0
LINE
  5
E1
330
64
100
AcDbEntity
  8
MOUNT_001_SEP-00
  6
CONTINUOUS
 62
     7
100
AcDbLine
 10
141.4863119013
 20
175.6212258146
 30
0.0
 11
140.4363119013
 21
175.6212258146
 31
0.0
  0
LINE
  5
E2
330
64
100
AcDbEntity
  8
MOUNT_001_SEP-00
  6
CONTINUOUS
 62
     7
100
AcDbLine
 10
140.2363119013
 20
148.4212258146
 30
0.0
 11
140.4363119013
 21
148.6212258146
 31
0.0
  0
LINE
  5
E3
330
64
100
AcDbEntity
  8
MOUNT_001_SEP-00
  6
CONTINUOUS
 62
     7
100
AcDbLine
 10
140.4363119013
 20
178.6212258146
 30
0.0
 11
140.2363119013
 21
178.8212258146
 31
0.0
  0
LINE
  5
E4
330
64
100
AcDbEntity
  8
MOUNT_001_SEP-00
  6
CONTINUOUS
 62
     7
100
AcDbLine
 10
139.7363119013
 20
142.8712258146
 30
0.0
 11
140.2363119013
 21
143.3712258146
 31
0.0
  0
LINE
  5
E5
330
64
100
AcDbEntity
  8
MOUNT_001_SEP-00
  6
CONTINUOUS
 62
     7
100
AcDbLine
 10
140.2363119013
 20
183.8712258146
 30
0.0
 11
139.7363119013
 21
184.3712258146
 31
0.0
  0
LINE
  5
E6
330
64
100
AcDbEntity
  8
MOUNT_001_SEP-00
  6
CONTINUOUS
 62
     7
100
AcDbLine
 10
130.3113119013
 20
142.8712258146
 30
0.0
 11
139.7363119013
 21
142.8712258146
 31
0.0
  0
LINE
  5
E7
330
64
100
AcDbEntity
  8
MOUNT_001_SEP-00
  6
CONTINUOUS
 62
     7
100
AcDbLine
 10
128.0363119013
 20
142.8712258146
 30
0.0
 11
128.9695705602
 21
142.8712258146
 31
0.0
  0
LINE
  5
E8
330
64
100
AcDbEntity
  8
MOUNT_001_SEP-00
  6
CONTINUOUS
 62
     7
100
AcDbLine
 10
128.9613119013
 20
184.3712258146
 30
0.0
 11
128.0363119013
 21
184.3712258146
 31
0.0
  0
LINE
  5
E9
330
64
100
AcDbEntity
  8
MOUNT_001_SEP-00
  6
CONTINUOUS
 62
     7
100
AcDbLine
 10
139.7363119013
 20
184.3712258146
 30
0.0
 11
130.3030532425
 21
184.3712258146
 31
0.0
  0
LINE
  5
EA
330
64
100
AcDbEntity
  8
MOUNT_001_SEP-00
  6
CONTINUOUS
 62
     7
100
AcDbLine
 10
128.0363119013
 20
184.3712258146
 30
0.0
 11
127.8363119013
 21
184.1712258146
 31
0.0
  0
LINE
  5
EB
330
64
100
AcDbEntity
  8
MOUNT_001_SEP-00
  6
CONTINUOUS
 62
     7
100
AcDbLine
 10
127.8363119013
 20
143.0712258146
 30
0.0
 11
128.0363119013
 21
142.8712258146
 31
0.0
  0
LINE
  5
EC
330
64
100
AcDbEntity
  8
MOUNT_001_SEP-00
  6
CONTINUOUS
 62
     7
100
AcDbLine
 10
127.3363119013
 20
143.5712258146
 30
0.0
 11
127.8363119013
 21
143.5712258146
 31
0.0
  0
LINE
  5
ED
330
64
100
AcDbEntity
  8
MOUNT_001_SEP-00
  6
CONTINUOUS
 62
     7
100
AcDbLine
 10
127.8363119013
 20
183.6712258146
 30
0.0
 11
127.3363119013
 21
183.6712258146
 31
0.0
  0
ARC
  5
EE
330
64
100
AcDbEntity
  8
MOUNT_001_SEP-00
  6
CONTINUOUS
 62
     7
100
AcDbCircle
 10
129.6363119013
 20
163.6212258146
 30
0.0
 40
0.85
100
AcDbArc
 50
75.0
 51
15.0
  0
LINE
  5
EF
330
64
100
AcDbEntity
  8
ST17_20_001_SEP-
  6
CONTINUOUS
 62
     7
100
AcDbLine
 10
128.8863119013
 20
184.3712258146
 30
0.0
 11
129.4763119013
 21
184.3712258146
 31
0.0
  0
LINE
  5
F0
330
64
100
AcDbEntity
  8
ST17_20_001_SEP-
  6
CONTINUOUS
 62
     7
100
AcDbLine
 10
129.7963119013
 20
184.3712258146
 30
0.0
 11
130.3863119013
 21
184.3712258146
 31
0.0
  0
ELLIPSE
  5
F1
330
64
100
AcDbEntity
  8
ST17_20_001_SEP-
  6
CONTINUOUS
 62
     7
100
AcDbEllipse
 10
75.977658193
 20
181.807759294
 30
0.0
 11
0.7500000000000007
 21
-1.377727649040773E-16
 31
0.0
210
0.0
220
0.0
230
1.0
 40
0.5
 41
3.35657822648056
 42
6.068199734288908
  0
ELLIPSE
  5
F2
330
64
100
AcDbEntity
  8
ST17_20_001_SEP-
  6
CONTINUOUS
 62
     7
100
AcDbEllipse
 10
75.977658193
 20
181.7211567537
 30
0.0
 11
-0.8500000000000035
 21
1.561424668912882E-16
 31
0.0
210
0.0
220
0.0
230
1.0
 40
0.5
 41
5.667705598509268
 42
6.093820297135124
  0
LINE
  5
F3
330
64
100
AcDbEntity
  8
ST17_20_001_SEP-
  6
CONTINUOUS
 62
     7
100
AcDbLine
 10
75.1428528265
 20
181.8011567537
 30
0.0
 11
75.1428528265
 21
181.6411567537
 31
0.0
  0
ELLIPSE
  5
F4
330
64
100
AcDbEntity
  8
ST17_20_001_SEP-
  6
CONTINUOUS
 62
     7
100
AcDbEllipse
 10
75.977658193
 20
181.807759294
 30
0.0
 11
-0.7500000000000007
 21
7.076666668811305E-15
 31
0.0
210
0.0
220
0.0
230
1.0
 40
0.5
 41
3.356578226480476
 42
6.068199734288823
  0
LINE
  5
F5
330
64
100
AcDbEntity
  8
ST17_20_001_SEP-
  6
CONTINUOUS
 62
     7
100
AcDbLine
 10
76.7103927971
 20
181.887759294
 30
0.0
 11
75.244923589
 21
181.887759294
 31
0.0
  0
LINE
  5
F6
330
64
100
AcDbEntity
  8
ST17_20_001_SEP-
  6
CONTINUOUS
 62
     7
100
AcDbLine
 10
76.7103927971
 20
181.727759294
 30
0.0
 11
75.244923589
 21
181.727759294
 31
0.0
  0
LINE
  5
F7
330
64
100
AcDbEntity
  8
ST17_20_001_SEP-
  6
CONTINUOUS
 62
     7
100
AcDbLine
 10
76.7103927971
 20
181.727759294
 30
0.0
 11
76.8124635596
 21
181.6411567537
 31
0.0
  0
LINE
  5
F8
330
64
100
AcDbEntity
  8
ST17_20_001_SEP-
  6
CONTINUOUS
 62
     7
100
AcDbLine
 10
75.244923589
 20
181.887759294
 30
0.0
 11
75.1428528265
 21
181.8011567537
 31
0.0
  0
ELLIPSE
  5
F9
330
64
100
AcDbEntity
  8
ST17_20_001_SEP-
  6
CONTINUOUS
 62
     7
100
AcDbEllipse
 10
75.977658193
 20
145.4346923351
 30
0.0
 11
-0.7500000000000145
 21
3.607219716857694E-15
 31
0.0
210
0.0
220
0.0
230
1.0
 40
0.5
 41
3.356578226480381
 42
6.068199734288915
  0
ELLIPSE
  5
FA
330
64
100
AcDbEntity
  8
ST17_20_001_SEP-
  6
CONTINUOUS
 62
     7
100
AcDbEllipse
 10
75.977658193
 20
145.5212948755
 30
0.0
 11
0.8499999999999897
 21
-1.561424668912856E-16
 31
0.0
210
0.0
220
0.0
230
1.0
 40
0.5
 41
5.667705598509233
 42
6.09382029713521
  0
LINE
  5
FB
330
64
100
AcDbEntity
  8
ST17_20_001_SEP-
  6
CONTINUOUS
 62
     7
100
AcDbLine
 10
76.8124635596
 20
145.4412948755
 30
0.0
 11
76.8124635596
 21
145.6012948755
 31
0.0
  0
ELLIPSE
  5
FC
330
64
100
AcDbEntity
  8
ST17_20_001_SEP-
  6
CONTINUOUS
 62
     7
100
AcDbEllipse
 10
75.977658193
 20
145.4346923351
 30
0.0
 11
0.7500000000000007
 21
-7.076666668811305E-15
 31
0.0
210
0.0
220
0.0
230
1.0
 40
0.5
 41
3.757072362260199
 42
6.068199734288823
  0
LINE
  5
FD
330
64
100
AcDbEntity
  8
ST17_20_001_SEP-
  6
CONTINUOUS
 62
     7
100
AcDbLine
 10
75.244923589
 20
145.3546923351
 30
0.0
 11
76.7103927971
 21
145.3546923351
 31
0.0
  0
LINE
  5
FE
330
64
100
AcDbEntity
  8
ST17_20_001_SEP-
  6
CONTINUOUS
 62
     7
100
AcDbLine
 10
75.244923589
 20
145.5146923351
 30
0.0
 11
76.7103927971
 21
145.5146923351
 31
0.0
  0
LINE
  5
FF
330
64
100
AcDbEntity
  8
ST17_20_001_SEP-
  6
CONTINUOUS
 62
     7
100
AcDbLine
 10
76.7103927971
 20
145.3546923351
 30
0.0
 11
76.8124635596
 21
145.4412948755
 31
0.0
  0
ELLIPSE
  5
101
330
64
100
AcDbEntity
  8
CNS14_30_001_SEP
  6
CONTINUOUS
 62
     7
100
AcDbEllipse
 10
94.9363119013
 20
145.4346923352
 30
0.0
 11
-1.000000002384288
 21
1.836970203100896E-16
 31
0.0
210
0.0
220
0.0
230
1.0
 40
0.5
 41
3.091059546049812
 42
6.283185307179586
  0
ELLIPSE
  5
102
330
64
100
AcDbEntity
  8
CNS14_30_001_SEP
  6
CONTINUOUS
 62
     7
100
AcDbEllipse
 10
94.9363119013
 20
145.4346923352
 30
0.0
 11
-1.000000002384288
 21
1.836970203100896E-16
 31
0.0
210
0.0
220
0.0
230
1.0
 40
0.5
 41
0.0
 42
0.0505331075402624
  0
ELLIPSE
  5
103
330
64
100
AcDbEntity
  8
CNS14_30_001_SEP
  6
CONTINUOUS
 62
     7
100
AcDbEllipse
 10
94.7948905523
 20
155.3232735939
 30
0.0
 11
5.365817750670595
 21
-10.73163525477012
 31
0.0
210
0.0
220
0.0
230
0.9999999999999999
 40
0.6123724374
 41
-0.654710542215506
 42
-0.6313531415450093
  0
ELLIPSE
  5
104
330
64
100
AcDbEntity
  8
CNS14_30_001_SEP
  6
CONTINUOUS
 62
     7
100
AcDbEllipse
 10
95.3888602621
 20
155.167710271
 30
0.0
 11
-5.35892526692969
 21
-10.71785050005847
 31
0.0
210
0.0
220
0.0
230
0.9999999999999999
 40
0.6123724359
 41
0.6680280083308517
 42
0.7014104005080405
  0
ELLIPSE
  5
105
330
64
100
AcDbEntity
  8
CNS14_30_001_SEP
  6
CONTINUOUS
 62
     7
100
AcDbEllipse
 10
95.0777332638
 20
155.4646949656
 30
0.0
 11
5.365817750037713
 21
-10.73163527137448
 31
0.0
210
0.0
220
0.0
230
1.0
 40
0.6123724372
 41
-0.6547105414323457
 42
-0.6313531407787663
  0
SPLINE
  5
106
330
64
100
AcDbEntity
  8
CNS14_30_001_SEP
  6
CONTINUOUS
 62
     7
100
AcDbSpline
210
0.0
220
0.0
230
1.0
 70
     8
 71
     3
 72
    20
 73
    16
 74
     0
 42
0.0000000641416445
 43
0.0000000001
 40
0.0
 40
0.0
 40
0.0
 40
0.0
 40
0.2137444315573367
 40
0.2137444315573367
 40
0.2137444315573367
 40
0.4286117530380567
 40
0.4286117530380567
 40
0.4286117530380567
 40
0.6433699458012424
 40
0.6433699458012424
 40
0.6433699458012424
 40
0.8580793715253078
 40
0.8580793715253078
 40
0.8580793715253078
 40
1.0
 40
1.0
 40
1.0
 40
1.0
 10
95.33229169879928
 20
145.0643698917034
 30
0.0
 10
95.31970269727616
 20
145.057612523887
 30
0.0
 10
95.30910009966514
 20
145.0497611404313
 30
0.0
 10
95.30135464553871
 20
145.0414584124652
 30
0.0
 10
95.29356861476154
 20
145.0331121884191
 30
0.0
 10
95.28845653219125
 20
145.0240800081917
 30
0.0
 10
95.28644349037091
 20
145.0151104117113
 30
0.0
 10
95.28443144967585
 20
145.0061452759876
 30
0.0
 10
95.28545985282219
 20
144.9969953557058
 30
0.0
 10
95.28944321243092
 20
144.988418648217
 30
0.0
 10
95.2934257219973
 20
144.9798437709835
 30
0.0
 10
95.30047153406262
 20
144.9716054636207
 30
0.0
 10
95.30999592278405
 20
144.9643850297315
 30
0.0
 10
95.31634136430807
 20
144.9595745539769
 30
0.0
 10
95.32386657044914
 20
144.9551356585791
 30
0.0
 10
95.33229169879928
 20
144.9512328067136
 30
0.0
  0
ELLIPSE
  5
107
330
64
100
AcDbEntity
  8
CNS14_30_001_SEP
  6
CONTINUOUS
 62
     7
100
AcDbEllipse
 10
95.077733255
 20
155.3232738733
 30
0.0
 11
-5.365817730820949
 21
-10.73163555468537
 31
0.0
210
0.0
220
0.0
230
1.0
 40
0.6123724354
 41
0.7147278703874371
 42
0.7380852707461663
  0
ELLIPSE
  5
108
330
64
100
AcDbEntity
  8
CNS14_30_001_SEP
  6
CONTINUOUS
 62
     7
100
AcDbEllipse
 10
95.3888602622
 20
155.6202586321
 30
0.0
 11
5.35892526691977
 21
-10.71785050027453
 31
0.0
210
0.0
220
0.0
230
1.0
 40
0.6123724359
 41
-0.7014104004976272
 42
-0.6680280083207979
  0
ELLIPSE
  5
109
330
64
100
AcDbEntity
  8
CNS14_30_001_SEP
  6
CONTINUOUS
 62
     7
100
AcDbEllipse
 10
94.7948905417
 20
155.4646952591
 30
0.0
 11
-5.365817727907981
 21
-10.73163558638893
 31
0.0
210
0.0
220
0.0
230
1.0
 40
0.6123724353
 41
0.7147278688244177
 42
0.7380852691494628
  0
ARC
  5
10A
330
64
100
AcDbEntity
  8
CNS14_30_001_SEP
  6
CONTINUOUS
 62
     7
100
AcDbCircle
 10
94.9363119013
 20
145.4453754158
 30
0.0
 40
0.264953908229087
100
AcDbArc
 50
244.7222549179
 51
295.2777450821
  0
ELLIPSE
  5
10B
330
64
100
AcDbEntity
  8
CNS14_30_001_SEP
  6
CONTINUOUS
 62
     7
100
AcDbEllipse
 10
95.0777332504
 20
155.4646949573
 30
0.0
 11
5.365817758651322
 21
-10.73163526187266
 31
0.0
210
0.0
220
0.0
230
1.0
 40
0.6123724364
 41
-0.7380852854696842
 42
-0.7147278847991574
  0
ELLIPSE
  5
10C
330
64
100
AcDbEntity
  8
CNS14_30_001_SEP
  6
CONTINUOUS
 62
     7
100
AcDbEllipse
 10
94.4837635405
 20
155.6202586319
 30
0.0
 11
-5.358925266953691
 21
-10.7178505000855
 31
0.0
210
0.0
220
0.0
230
1.0
 40
0.6123724359
 41
0.6680280083291366
 42
0.7014104005062701
  0
ELLIPSE
  5
10D
330
64
100
AcDbEntity
  8
CNS14_30_001_SEP
  6
CONTINUOUS
 62
     7
100
AcDbEllipse
 10
94.7948905485
 20
155.3232739027
 30
0.0
 11
5.365817727919572
 21
-10.7316355862337
 31
0.0
210
0.0
220
0.0
230
0.9999999999999999
 40
0.6123724353
 41
-0.7380852691572697
 42
-0.7147278688320444
  0
SPLINE
  5
10E
330
64
100
AcDbEntity
  8
CNS14_30_001_SEP
  6
CONTINUOUS
 62
     7
100
AcDbSpline
210
0.0
220
0.0
230
1.0
 70
     8
 71
     3
 72
    20
 73
    16
 74
     0
 42
0.0000000641393446
 43
0.0000000001
 40
0.0
 40
0.0
 40
0.0
 40
0.0
 40
0.213744431557404
 40
0.213744431557404
 40
0.213744431557404
 40
0.4286117530381285
 40
0.4286117530381285
 40
0.4286117530381285
 40
0.6433699458013189
 40
0.6433699458013189
 40
0.6433699458013189
 40
0.8580793715253859
 40
0.8580793715253859
 40
0.8580793715253859
 40
1.0
 40
1.0
 40
1.0
 40
1.0
 10
94.54033210387036
 20
144.9512328067136
 30
0.0
 10
94.55292110539351
 20
144.9570645289187
 30
0.0
 10
94.56352370300452
 20
144.9641363854901
 30
0.0
 10
94.57126915713093
 20
144.9718696671334
 30
0.0
 10
94.57905518790811
 20
144.9796434616586
 30
0.0
 10
94.58416727047842
 20
144.9882998223361
 30
0.0
 10
94.58618031229877
 20
144.997121427652
 30
0.0
 10
94.58819235299379
 20
145.00593864581
 30
0.0
 10
94.58716394984748
 20
145.0151641684348
 30
0.0
 10
94.58318059023874
 20
145.024033720453
 30
0.0
 10
94.57919808067236
 20
145.0329013797236
 30
0.0
 10
94.57215226860701
 20
145.0416576778609
 30
0.0
 10
94.5626278798856
 20
145.0495783668819
 30
0.0
 10
94.55628243836158
 20
145.0548553742032
 30
0.0
 10
94.54875723222052
 20
145.0598475559917
 30
0.0
 10
94.54033210387036
 20
145.0643698917034
 30
0.0
  0
ELLIPSE
  5
10F
330
64
100
AcDbEntity
  8
CNS14_30_001_SEP
  6
CONTINUOUS
 62
     7
100
AcDbEllipse
 10
94.7948905379
 20
155.4646949499
 30
0.0
 11
-5.365817750709685
 21
-10.73163525449282
 31
0.0
210
0.0
220
0.0
230
1.0
 40
0.6123724374
 41
0.6313531415582324
 42
0.6547105422290208
  0
ELLIPSE
  5
110
330
64
100
AcDbEntity
  8
CNS14_30_001_SEP
  6
CONTINUOUS
 62
     7
100
AcDbEllipse
 10
94.4837635405
 20
155.1677102712
 30
0.0
 11
5.3589252669326
 21
-10.71785050020533
 31
0.0
210
0.0
220
0.0
230
0.9999999999999999
 40
0.6123724359
 41
-0.7014104005006576
 42
-0.6680280083236605
  0
ELLIPSE
  5
111
330
64
100
AcDbEntity
  8
CNS14_30_001_SEP
  6
CONTINUOUS
 62
     7
100
AcDbEllipse
 10
95.0777332523
 20
155.3232736398
 30
0.0
 11
-5.36581774815418
 21
-10.73163530403257
 31
0.0
210
0.0
220
0.0
230
0.9999999999999998
 40
0.612372437
 41
0.6313531392742481
 42
0.6547105398940944
  0
ARC
  5
112
330
64
100
AcDbEntity
  8
CNS14_30_001_SEP
  6
CONTINUOUS
 62
     7
100
AcDbCircle
 10
94.9363119013
 20
144.5287600372
 30
0.0
 40
0.3029684751411838
100
AcDbArc
 50
68.0727777629
 51
111.9272222371
  0
LINE
  5
113
330
64
100
AcDbEntity
  8
CNS14_30_001_SEP
  6
CONTINUOUS
 62
     7
100
AcDbLine
 10
94.6251848967
 20
144.7209310019
 30
0.0
 11
94.6251848967
 21
144.8778998556
 31
0.0
  0
LINE
  5
114
330
64
100
AcDbEntity
  8
CNS14_30_001_SEP
  6
CONTINUOUS
 62
     7
100
AcDbLine
 10
95.2474389059
 20
144.7209310019
 30
0.0
 11
95.2474389059
 21
144.8778998556
 31
0.0
  0
ELLIPSE
  5
115
330
64
100
AcDbEntity
  8
CNS14_30_001_SEP
  6
CONTINUOUS
 62
     7
100
AcDbEllipse
 10
94.9363119013
 20
144.9203056656
 30
0.0
 11
0.1600291457890674
 21
-3.498843829127744E-15
 31
0.0
210
0.0
220
0.0
230
1.0
 40
0.5
 41
0.7855802748212259
 42
2.35601237876859
  0
LINE
  5
116
330
64
100
AcDbEntity
  8
CNS14_30_001_SEP
  6
CONTINUOUS
 62
     7
100
AcDbLine
 10
94.8231748163
 20
144.9768948154
 30
0.0
 11
94.6251848967
 21
144.8778998556
 31
0.0
  0
LINE
  5
117
330
64
100
AcDbEntity
  8
CNS14_30_001_SEP
  6
CONTINUOUS
 62
     7
100
AcDbLine
 10
94.6251848967
 20
144.8778998556
 30
0.0
 11
94.5081682996
 21
144.9364081542
 31
0.0
  0
ELLIPSE
  5
118
330
64
100
AcDbEntity
  8
CNS14_30_001_SEP
  6
CONTINUOUS
 62
     7
100
AcDbEllipse
 10
94.4271942235
 20
145.1748847141
 30
0.0
 11
-0.1600005623866932
 21
-3.440055325465318E-15
 31
0.0
210
0.0
220
0.0
230
1.0
 40
0.5
 41
3.14159265358975
 42
3.926987302088828
  0
LINE
  5
119
330
64
100
AcDbEntity
  8
CNS14_30_001_SEP
  6
CONTINUOUS
 62
     7
100
AcDbLine
 10
94.5403321039
 20
145.2314532566
 30
0.0
 11
94.5007357532
 21
145.251251432
 31
0.0
  0
LINE
  5
11A
330
64
100
AcDbEntity
  8
CNS14_30_001_SEP
  6
CONTINUOUS
 62
     7
100
AcDbLine
 10
95.3718880495
 20
145.251251432
 30
0.0
 11
95.3322916988
 21
145.2314532566
 31
0.0
  0
ELLIPSE
  5
11B
330
64
100
AcDbEntity
  8
CNS14_30_001_SEP
  6
CONTINUOUS
 62
     7
100
AcDbEllipse
 10
95.4454295791
 20
145.1748847141
 30
0.0
 11
0.1600005623866724
 21
-2.939162648829221E-17
 31
0.0
210
0.0
220
0.0
230
1.0
 40
0.5
 41
2.356198005090501
 42
3.141592653589793
  0
LINE
  5
11C
330
64
100
AcDbEntity
  8
CNS14_30_001_SEP
  6
CONTINUOUS
 62
     7
100
AcDbLine
 10
95.3644555031
 20
144.9364081542
 30
0.0
 11
95.2474389059
 21
144.8778998556
 31
0.0
  0
LINE
  5
11D
330
64
100
AcDbEntity
  8
CNS14_30_001_SEP
  6
CONTINUOUS
 62
     7
100
AcDbLine
 10
95.2474389059
 20
144.8778998556
 30
0.0
 11
95.0494489863
 21
144.9768948154
 31
0.0
  0
LINE
  5
11E
330
64
100
AcDbEntity
  8
CNS14_30_001_SEP
  6
CONTINUOUS
 62
     7
100
AcDbLine
 10
93.9375884248
 20
145.4094365334
 30
0.0
 11
93.9630971707
 21
145.1572550378
 31
0.0
  0
LINE
  5
11F
330
64
100
AcDbEntity
  8
CNS14_30_001_SEP
  6
CONTINUOUS
 62
     7
100
AcDbLine
 10
95.9095266319
 20
145.1572550378
 30
0.0
 11
95.9350353779
 21
145.4094365334
 31
0.0
  0
SPLINE
  5
120
330
64
100
AcDbEntity
  8
CNS14_30_001_SEP
  6
CONTINUOUS
 62
     7
100
AcDbSpline
210
0.0
220
0.0
230
1.0
 70
     8
 71
     3
 72
    24
 73
    20
 74
     0
 42
0.0000000041017422
 43
0.0000000001
 40
0.0
 40
0.0
 40
0.0
 40
0.0
 40
0.0340126701705576
 40
0.0868835757449714
 40
0.1412101609145096
 40
0.1995154333379084
 40
0.2622990778106765
 40
0.3274683879320785
 40
0.3923495276177535
 40
0.4565957484099761
 40
0.5204876868078779
 40
0.5844262168985996
 40
0.6487345735839839
 40
0.713883251230584
 40
0.7804273155218472
 40
0.8486998277853279
 40
0.9057238738209836
 40
0.958881706775327
 40
1.0
 40
1.0
 40
1.0
 40
1.0
 10
93.96691545836754
 20
145.1585966913054
 30
0.0
 10
93.96910562569391
 20
145.1319742091218
 30
0.0
 10
93.97451291294833
 20
145.0742201419523
 30
0.0
 10
94.01918676860285
 20
144.9797348811239
 30
0.0
 10
94.09128480185616
 20
144.8863111901796
 30
0.0
 10
94.19110458895992
 20
144.8025564995789
 30
0.0
 10
94.31761530606794
 20
144.7304180060453
 30
0.0
 10
94.46841881983426
 20
144.6727561237586
 30
0.0
 10
94.63635431743967
 20
144.6324195396309
 30
0.0
 10
94.81372385465586
 20
144.6105307319273
 30
0.0
 10
94.99455952412711
 20
144.6072287665622
 30
0.0
 10
95.17338944490969
 20
144.6224535991519
 30
0.0
 10
95.3450144671899
 20
144.6560961892818
 30
0.0
 10
95.50471201676467
 20
144.7082716410094
 30
0.0
 10
95.64793816588316
 20
144.7796459132316
 30
0.0
 10
95.76284251269612
 20
144.8668819637542
 30
0.0
 10
95.84467149487331
 20
144.9650646167231
 30
0.0
 10
95.89482150244355
 20
145.0646356641924
 30
0.0
 10
95.90334063226696
 20
145.1268637652363
 30
0.0
 10
95.90728789432515
 20
145.1589149480915
 30
0.0
  0
LINE
  5
121
330
64
100
AcDbEntity
  8
CNS14_30_001_SEP
  6
CONTINUOUS
 62
     7
100
AcDbLine
 10
94.5871947859
 20
145.0016796333
 30
0.0
 11
94.5871947859
 21
145.1748847141
 31
0.0
  0
LINE
  5
122
330
64
100
AcDbEntity
  8
CNS14_30_001_SEP
  6
CONTINUOUS
 62
     7
100
AcDbLine
 10
95.2854290167
 20
145.1748847141
 30
0.0
 11
95.2854290167
 21
145.0016796333
 31
0.0
  0
ELLIPSE
  5
123
330
64
100
AcDbEntity
  8
CNS14_30_001_SEP
  6
CONTINUOUS
 62
     7
100
AcDbEllipse
 10
94.9363119013
 20
181.8077592939
 30
0.0
 11
-1.000000002384288
 21
1.836970203100896E-16
 31
0.0
210
0.0
220
0.0
230
1.0
 40
0.5
 41
6.232652199639324
 42
6.283185307179586
  0
ELLIPSE
  5
124
330
64
100
AcDbEntity
  8
CNS14_30_001_SEP
  6
CONTINUOUS
 62
     7
100
AcDbEllipse
 10
94.9363119013
 20
181.8077592939
 30
0.0
 11
-1.000000002384288
 21
1.836970203100896E-16
 31
0.0
210
0.0
220
0.0
230
1.0
 40
0.5
 41
0.0
 42
3.192125761129774
  0
ELLIPSE
  5
125
330
64
100
AcDbEntity
  8
CNS14_30_001_SEP
  6
CONTINUOUS
 62
     7
100
AcDbEllipse
 10
95.0777332521
 20
171.9191779894
 30
0.0
 11
-5.365817748004721
 21
10.73163530389439
 31
0.0
210
0.0
220
0.0
230
1.0
 40
0.612372437
 41
-0.6547105399022906
 42
-0.6313531392824459
  0
ELLIPSE
  5
126
330
64
100
AcDbEntity
  8
CNS14_30_001_SEP
  6
CONTINUOUS
 62
     7
100
AcDbEllipse
 10
94.4837635405
 20
172.0747413581
 30
0.0
 11
5.358925266929912
 21
10.71785050007297
 31
0.0
210
0.0
220
0.0
230
0.9999999999999998
 40
0.6123724359
 41
0.6680280083301559
 42
0.701410400507309
  0
ELLIPSE
  5
127
330
64
100
AcDbEntity
  8
CNS14_30_001_SEP
  6
CONTINUOUS
 62
     7
100
AcDbEllipse
 10
94.7948905384
 20
171.777756679
 30
0.0
 11
-5.36581775102024
 21
10.73163525477667
 31
0.0
210
0.0
220
0.0
230
0.9999999999999999
 40
0.6123724374
 41
-0.6547105422147279
 42
-0.6313531415440083
  0
SPLINE
  5
128
330
64
100
AcDbEntity
  8
CNS14_30_001_SEP
  6
CONTINUOUS
 62
     7
100
AcDbSpline
210
0.0
220
0.0
230
1.0
 70
     8
 71
     3
 72
    20
 73
    16
 74
     0
 42
0.0000000641416445
 43
0.0000000001
 40
0.0
 40
0.0
 40
0.0
 40
0.0
 40
0.2137444315573367
 40
0.2137444315573367
 40
0.2137444315573367
 40
0.4286117530380567
 40
0.4286117530380567
 40
0.4286117530380567
 40
0.6433699458012424
 40
0.6433699458012424
 40
0.6433699458012424
 40
0.8580793715253078
 40
0.8580793715253078
 40
0.8580793715253078
 40
1.0
 40
1.0
 40
1.0
 40
1.0
 10
94.54033210387038
 20
182.178081737439
 30
0.0
 10
94.55292110539351
 20
182.1848391052554
 30
0.0
 10
94.56352370300452
 20
182.1926904887111
 30
0.0
 10
94.57126915713096
 20
182.2009932166771
 30
0.0
 10
94.57905518790812
 20
182.2093394407233
 30
0.0
 10
94.58416727047843
 20
182.2183716209506
 30
0.0
 10
94.58618031229877
 20
182.2273412174311
 30
0.0
 10
94.58819235299381
 20
182.2363063531547
 30
0.0
 10
94.58716394984748
 20
182.2454562734366
 30
0.0
 10
94.58318059023875
 20
182.2540329809254
 30
0.0
 10
94.57919808067237
 20
182.2626078581589
 30
0.0
 10
94.57215226860704
 20
182.2708461655217
 30
0.0
 10
94.56262787988562
 20
182.2780665994108
 30
0.0
 10
94.5562824383616
 20
182.2828770751654
 30
0.0
 10
94.54875723222054
 20
182.2873159705632
 30
0.0
 10
94.54033210387038
 20
182.2912188224288
 30
0.0
  0
ELLIPSE
  5
129
330
64
100
AcDbEntity
  8
CNS14_30_001_SEP
  6
CONTINUOUS
 62
     7
100
AcDbEllipse
 10
94.7948905482
 20
171.9191777408
 30
0.0
 11
5.365817729258067
 21
10.7316355708083
 31
0.0
210
0.0
220
0.0
230
0.9999999999999999
 40
0.6123724354
 41
0.7147278695937287
 42
0.738085269935301
  0
ELLIPSE
  5
12A
330
64
100
AcDbEntity
  8
CNS14_30_001_SEP
  6
CONTINUOUS
 62
     7
100
AcDbEllipse
 10
94.4837635405
 20
171.6221929971
 30
0.0
 11
-5.358925266912817
 21
10.71785050028737
 31
0.0
210
0.0
220
0.0
230
1.0
 40
0.6123724359
 41
-0.7014104004967914
 42
-0.6680280083199506
  0
ELLIPSE
  5
12B
330
64
100
AcDbEntity
  8
CNS14_30_001_SEP
  6
CONTINUOUS
 62
     7
100
AcDbEllipse
 10
95.077733261
 20
171.77775637
 30
0.0
 11
5.365817727876096
 21
10.73163558646679
 31
0.0
210
0.0
220
0.0
230
1.0
 40
0.6123724353
 41
0.7147278688202268
 42
0.7380852691452059
  0
ARC
  5
12C
330
64
100
AcDbEntity
  8
CNS14_30_001_SEP
  6
CONTINUOUS
 62
     7
100
AcDbCircle
 10
94.9363119013
 20
181.7970762133
 30
0.0
 40
0.2649539082290867
100
AcDbArc
 50
64.7222549179
 51
115.2777450821
  0
ELLIPSE
  5
12D
330
64
100
AcDbEntity
  8
CNS14_30_001_SEP
  6
CONTINUOUS
 62
     7
100
AcDbEllipse
 10
94.7948905522
 20
171.7777566718
 30
0.0
 11
-5.365817758645612
 21
10.73163526194275
 31
0.0
210
0.0
220
0.0
230
0.9999999999999998
 40
0.6123724364
 41
-0.7380852854661786
 42
-0.7147278847957246
  0
ELLIPSE
  5
12E
330
64
100
AcDbEntity
  8
CNS14_30_001_SEP
  6
CONTINUOUS
 62
     7
100
AcDbEllipse
 10
95.3888602621
 20
171.6221929918
 30
0.0
 11
5.358925266492595
 21
10.71785050595625
 31
0.0
210
0.0
220
0.0
230
0.9999999999999998
 40
0.6123724358
 41
0.6680280080490886
 42
0.7014104002174772
  0
ELLIPSE
  5
12F
330
64
100
AcDbEntity
  8
CNS14_30_001_SEP
  6
CONTINUOUS
 62
     7
100
AcDbEllipse
 10
95.0777332541
 20
171.9191777257
 30
0.0
 11
-5.365817727816953
 21
10.73163558707668
 31
0.0
210
0.0
220
0.0
230
0.9999999999999999
 40
0.6123724353
 41
-0.7380852691145501
 42
-0.7147278687902094
  0
SPLINE
  5
130
330
64
100
AcDbEntity
  8
CNS14_30_001_SEP
  6
CONTINUOUS
 62
     7
100
AcDbSpline
210
0.0
220
0.0
230
1.0
 70
     8
 71
     3
 72
    20
 73
    16
 74
     0
 42
0.0000000641393446
 43
0.0000000001
 40
0.0
 40
0.0
 40
0.0
 40
0.0
 40
0.213744431557404
 40
0.213744431557404
 40
0.213744431557404
 40
0.4286117530381285
 40
0.4286117530381285
 40
0.4286117530381285
 40
0.6433699458013189
 40
0.6433699458013189
 40
0.6433699458013189
 40
0.8580793715253859
 40
0.8580793715253859
 40
0.8580793715253859
 40
1.0
 40
1.0
 40
1.0
 40
1.0
 10
95.33229169879931
 20
182.2912188224288
 30
0.0
 10
95.31970269727616
 20
182.2853871002237
 30
0.0
 10
95.30910009966514
 20
182.2783152436522
 30
0.0
 10
95.30135464553874
 20
182.2705819620089
 30
0.0
 10
95.29356861476155
 20
182.2628081674837
 30
0.0
 10
95.28845653219126
 20
182.2541518068062
 30
0.0
 10
95.28644349037091
 20
182.2453302014904
 30
0.0
 10
95.28443144967588
 20
182.2365129833323
 30
0.0
 10
95.28545985282219
 20
182.2272874607077
 30
0.0
 10
95.28944321243094
 20
182.2184179086893
 30
0.0
 10
95.29342572199731
 20
182.2095502494188
 30
0.0
 10
95.30047153406265
 20
182.2007939512816
 30
0.0
 10
95.30999592278408
 20
182.1928732622604
 30
0.0
 10
95.31634136430809
 20
182.1875962549392
 30
0.0
 10
95.32386657044916
 20
182.1826040731507
 30
0.0
 10
95.33229169879931
 20
182.1780817374389
 30
0.0
  0
ELLIPSE
  5
131
330
64
100
AcDbEntity
  8
CNS14_30_001_SEP
  6
CONTINUOUS
 62
     7
100
AcDbEllipse
 10
95.0777332642
 20
171.7777566638
 30
0.0
 11
5.365817749782663
 21
10.7316352710443
 31
0.0
210
0.0
220
0.0
230
1.0
 40
0.6123724373
 41
0.6313531407947517
 42
0.6547105414484561
  0
ELLIPSE
  5
132
330
64
100
AcDbEntity
  8
CNS14_30_001_SEP
  6
CONTINUOUS
 62
     7
100
AcDbEllipse
 10
95.3888602622
 20
172.0747413528
 30
0.0
 11
-5.358925266516668
 21
10.71785050571453
 31
0.0
210
0.0
220
0.0
230
1.0
 40
0.6123724358
 41
-0.7014104002295927
 42
-0.6680280080608716
  0
ELLIPSE
  5
133
330
64
100
AcDbEntity
  8
CNS14_30_001_SEP
  6
CONTINUOUS
 62
     7
100
AcDbEllipse
 10
94.7948905508
 20
171.9191780044
 30
0.0
 11
5.365817749101209
 21
10.73163528781484
 31
0.0
210
0.0
220
0.0
230
0.9999999999999998
 40
0.6123724371
 41
0.6313531400207923
 42
0.6547105406574172
  0
ARC
  5
134
330
64
100
AcDbEntity
  8
CNS14_30_001_SEP
  6
CONTINUOUS
 62
     7
100
AcDbCircle
 10
94.9363119013
 20
182.713691592
 30
0.0
 40
0.3029684751411123
100
AcDbArc
 50
248.0727777629
 51
291.9272222371
  0
LINE
  5
135
330
64
100
AcDbEntity
  8
CNS14_30_001_SEP
  6
CONTINUOUS
 62
     7
100
AcDbLine
 10
95.2474389059
 20
182.5215206272
 30
0.0
 11
95.2474389059
 21
182.3645517736
 31
0.0
  0
LINE
  5
136
330
64
100
AcDbEntity
  8
CNS14_30_001_SEP
  6
CONTINUOUS
 62
     7
100
AcDbLine
 10
94.6251848967
 20
182.5215206272
 30
0.0
 11
94.6251848967
 21
182.3645517736
 31
0.0
  0
ELLIPSE
  5
137
330
64
100
AcDbEntity
  8
CNS14_30_001_SEP
  6
CONTINUOUS
 62
     7
100
AcDbEllipse
 10
94.9363119013
 20
182.3221459636
 30
0.0
 11
-0.1600291457890604
 21
-1.037894397868671E-14
 31
0.0
210
0.0
220
0.0
230
1.0
 40
0.5
 41
0.7855802748211395
 42
2.356012378768589
  0
LINE
  5
138
330
64
100
AcDbEntity
  8
CNS14_30_001_SEP
  6
CONTINUOUS
 62
     7
100
AcDbLine
 10
95.0494489863
 20
182.2655568138
 30
0.0
 11
95.2474389059
 21
182.3645517736
 31
0.0
  0
LINE
  5
139
330
64
100
AcDbEntity
  8
CNS14_30_001_SEP
  6
CONTINUOUS
 62
     7
100
AcDbLine
 10
95.2474389059
 20
182.3645517736
 30
0.0
 11
95.3644555031
 21
182.306043475
 31
0.0
  0
ELLIPSE
  5
13A
330
64
100
AcDbEntity
  8
CNS14_30_001_SEP
  6
CONTINUOUS
 62
     7
100
AcDbEllipse
 10
95.4454295791
 20
182.067566915
 30
0.0
 11
0.1600005623866932
 21
-2.939162648829603E-17
 31
0.0
210
0.0
220
0.0
230
1.0
 40
0.5
 41
3.141592653589794
 42
3.926987302088964
  0
LINE
  5
13B
330
64
100
AcDbEntity
  8
CNS14_30_001_SEP
  6
CONTINUOUS
 62
     7
100
AcDbLine
 10
95.3322916988
 20
182.0109983725
 30
0.0
 11
95.3718880495
 21
181.9912001972
 31
0.0
  0
LINE
  5
13C
330
64
100
AcDbEntity
  8
CNS14_30_001_SEP
  6
CONTINUOUS
 62
     7
100
AcDbLine
 10
94.5007357532
 20
181.9912001972
 30
0.0
 11
94.5403321039
 21
182.0109983725
 31
0.0
  0
ELLIPSE
  5
13D
330
64
100
AcDbEntity
  8
CNS14_30_001_SEP
  6
CONTINUOUS
 62
     7
100
AcDbEllipse
 10
94.4271942235
 20
182.067566915
 30
0.0
 11
-0.1600005623866793
 21
2.939162648829349E-17
 31
0.0
210
0.0
220
0.0
230
1.0
 40
0.5
 41
2.356198005090584
 42
3.141592653589793
  0
LINE
  5
13E
330
64
100
AcDbEntity
  8
CNS14_30_001_SEP
  6
CONTINUOUS
 62
     7
100
AcDbLine
 10
94.5081682996
 20
182.306043475
 30
0.0
 11
94.6251848967
 21
182.3645517736
 31
0.0
  0
LINE
  5
13F
330
64
100
AcDbEntity
  8
CNS14_30_001_SEP
  6
CONTINUOUS
 62
     7
100
AcDbLine
 10
94.6251848967
 20
182.3645517736
 30
0.0
 11
94.8231748163
 21
182.2655568138
 31
0.0
  0
LINE
  5
140
330
64
100
AcDbEntity
  8
CNS14_30_001_SEP
  6
CONTINUOUS
 62
     7
100
AcDbLine
 10
95.9350353779
 20
181.8330150957
 30
0.0
 11
95.9095266319
 21
182.0851965913
 31
0.0
  0
LINE
  5
141
330
64
100
AcDbEntity
  8
CNS14_30_001_SEP
  6
CONTINUOUS
 62
     7
100
AcDbLine
 10
93.9630971707
 20
182.0851965913
 30
0.0
 11
93.9375884248
 21
181.8330150957
 31
0.0
  0
SPLINE
  5
142
330
64
100
AcDbEntity
  8
CNS14_30_001_SEP
  6
CONTINUOUS
 62
     7
100
AcDbSpline
210
0.0
220
0.0
230
1.0
 70
     8
 71
     3
 72
    25
 73
    21
 74
     0
 42
0.0000000041154793
 43
0.0000000001
 40
0.0
 40
0.0
 40
0.0
 40
0.0
 40
0.01600474760756
 40
0.0668112620825819
 40
0.1180014249147388
 40
0.1721202328634967
 40
0.2304513370923889
 40
0.2920564051326674
 40
0.3544067428056711
 40
0.4161973198137809
 40
0.4774655237601709
 40
0.5385194047027803
 40
0.5997049598197163
 40
0.6613028482275521
 40
0.7237532793891548
 40
0.7875297632347656
 40
0.8528326080624479
 40
0.9074373517960862
 40
0.9584435176479065
 40
1.0
 40
1.0
 40
1.0
 40
1.0
 10
95.90622072063078
 20
182.0845287829758
 30
0.0
 10
95.90607243147164
 20
182.0970402011845
 30
0.0
 10
95.9053024433052
 20
182.1416994183607
 30
0.0
 10
95.87363237788728
 20
182.223849658501
 30
0.0
 10
95.81545751587736
 20
182.3172129299713
 30
0.0
 10
95.7312345007446
 20
182.4017657782792
 30
0.0
 10
95.6228774806241
 20
182.4764350448107
 30
0.0
 10
95.4903972329225
 20
182.5393743594029
 30
0.0
 10
95.3387484436968
 20
182.5876442344789
 30
0.0
 10
95.17467827384618
 20
182.6195417879296
 30
0.0
 10
95.00413708785838
 20
182.6345980343304
 30
0.0
 10
94.83197843442528
 20
182.6328031037605
 30
0.0
 10
94.6628637047408
 20
182.6142250772247
 30
0.0
 10
94.5012100128447
 20
182.5789429687891
 30
0.0
 10
94.35102365711484
 20
182.5267800779198
 30
0.0
 10
94.21624692636205
 20
182.4570486400956
 30
0.0
 10
94.10772707650477
 20
182.3729826993036
 30
0.0
 10
94.02961895138789
 20
182.2792405830235
 30
0.0
 10
93.98024989841477
 20
182.1833633981083
 30
0.0
 10
93.97030674743243
 20
182.1227896712135
 30
0.0
 10
93.96547468840213
 20
182.0906352243286
 30
0.0
  0
LINE
  5
143
330
64
100
AcDbEntity
  8
CNS14_30_001_SEP
  6
CONTINUOUS
 62
     7
100
AcDbLine
 10
95.2854290167
 20
182.2407719958
 30
0.0
 11
95.2854290167
 21
182.067566915
 31
0.0
  0
LINE
  5
144
330
64
100
AcDbEntity
  8
CNS14_30_001_SEP
  6
CONTINUOUS
 62
     7
100
AcDbLine
 10
94.5871947859
 20
182.067566915
 30
0.0
 11
94.5871947859
 21
182.2407719958
 31
0.0
  0
LINE
  5
146
330
64
100
AcDbEntity
  8
SDABO_001_SEP-00
  6
CONTINUOUS
 62
     7
100
AcDbLine
 10
86.3400291996
 20
184.6359544029
 30
0.0
 11
84.5152871865
 21
184.6359544029
 31
0.0
  0
LINE
  5
147
330
64
100
AcDbEntity
  8
SDABO_001_SEP-00
  6
CONTINUOUS
 62
     7
100
AcDbLine
 10
84.5152871865
 20
184.6359544029
 30
0.0
 11
84.5309568243
 21
184.6212258144
 31
0.0
  0
LINE
  5
148
330
64
100
AcDbEntity
  8
SDABO_001_SEP-00
  6
CONTINUOUS
 62
     7
100
AcDbLine
 10
86.3243595618
 20
184.6212258144
 30
0.0
 11
86.3400291996
 21
184.6359544029
 31
0.0
  0
LINE
  5
14A
330
64
100
AcDbEntity
  8
DV1_ﾃﾞﾌｫﾙﾄ
  6
CONTINUOUS
 62
     7
100
AcDbLine
 10
157.9623119013
 20
163.6212258146
 30
0.0
 11
161.1442924167
 21
166.8032063299
 31
0.0
  0
LINE
  5
14B
330
64
100
AcDbEntity
  8
DV1_ﾃﾞﾌｫﾙﾄ
  6
CONTINUOUS
 62
     7
100
AcDbLine
 10
157.9623119013
 20
163.6212258146
 30
0.0
 11
154.780331386
 21
166.8032063299
 31
0.0
  0
LINE
  5
14C
330
64
100
AcDbEntity
  8
DV1_ﾃﾞﾌｫﾙﾄ
  6
CONTINUOUS
 62
     7
100
AcDbLine
 10
157.9623119013
 20
163.6212258146
 30
0.0
 11
154.780331386
 21
160.4392452992
 31
0.0
  0
LINE
  5
14D
330
64
100
AcDbEntity
  8
DV1_ﾃﾞﾌｫﾙﾄ
  6
CONTINUOUS
 62
     7
100
AcDbLine
 10
157.9623119013
 20
163.6212258146
 30
0.0
 11
161.1442924167
 21
160.4392452992
 31
0.0
  0
ENDBLK
  5
14F
330
64
100
AcDbEntity
  8
0
100
AcDbBlockEnd
  0
BLOCK
  5
15B
330
150
100
AcDbEntity
  8
0
100
AcDbBlockBegin
  2
GDIMGGROUP
 70
     0
 10
0.0
 20
0.0
 30
0.0
  3
GDIMGGROUP
  1

  0
POLYLINE
  5
152
330
150
100
AcDbEntity
  8
DEFAULT
  6
CONTINUOUS
 62
   136
100
AcDb2dPolyline
 66
     1
 10
0.0
 20
0.0
 30
0.0
  0
VERTEX
  5
18C
330
152
100
AcDbEntity
  8
DEFAULT
  6
CONTINUOUS
 62
   136
100
AcDbVertex
100
AcDb2dVertex
 10
54.5614092066
 20
180.6712258954
 30
0.0
  0
VERTEX
  5
18D
330
152
100
AcDbEntity
  8
DEFAULT
  6
CONTINUOUS
 62
   136
100
AcDbVertex
100
AcDb2dVertex
 10
54.0280758868
 20
183.8712258146
 30
0.0
  0
VERTEX
  5
18E
330
152
100
AcDbEntity
  8
DEFAULT
  6
CONTINUOUS
 62
   136
100
AcDbVertex
100
AcDb2dVertex
 10
53.4947425669
 20
180.6712258954
 30
0.0
  0
SEQEND
  5
18F
330
152
100
AcDbEntity
  8
DEFAULT
  6
CONTINUOUS
 62
   136
  0
POLYLINE
  5
153
330
150
100
AcDbEntity
  8
DEFAULT
  6
CONTINUOUS
 62
   136
100
AcDb2dPolyline
 66
     1
 10
0.0
 20
0.0
 30
0.0
  0
VERTEX
  5
190
330
153
100
AcDbEntity
  8
DEFAULT
  6
CONTINUOUS
 62
   136
100
AcDbVertex
100
AcDb2dVertex
 10
54.5614092066
 20
146.5712256145
 30
0.0
  0
VERTEX
  5
191
330
153
100
AcDbEntity
  8
DEFAULT
  6
CONTINUOUS
 62
   136
100
AcDbVertex
100
AcDb2dVertex
 10
54.0280758868
 20
143.3712256954
 30
0.0
  0
VERTEX
  5
192
330
153
100
AcDbEntity
  8
DEFAULT
  6
CONTINUOUS
 62
   136
100
AcDbVertex
100
AcDb2dVertex
 10
53.4947425669
 20
146.5712256145
 30
0.0
  0
SEQEND
  5
193
330
153
100
AcDbEntity
  8
DEFAULT
  6
CONTINUOUS
 62
   136
  0
LINE
  5
154
330
150
100
AcDbEntity
  8
DEFAULT
  6
CONTINUOUS
 62
   136
100
AcDbLine
 10
57.9810717608
 20
183.8712258146
 30
0.0
 11
52.4280759272
 21
183.8712258146
 31
0.0
  0
LINE
  5
155
330
150
100
AcDbEntity
  8
DEFAULT
  6
CONTINUOUS
 62
   136
100
AcDbLine
 10
57.9810717608
 20
143.3712258146
 30
0.0
 11
52.4280759272
 21
143.3712258146
 31
0.0
  0
LINE
  5
156
330
150
100
AcDbEntity
  8
DEFAULT
  6
CONTINUOUS
 62
   136
100
AcDbLine
 10
54.0280758868
 20
183.8712258146
 30
0.0
 11
54.0280758868
 21
143.3712256954
 31
0.0
  0
TEXT
  5
158
330
150
100
AcDbEntity
  8
DEFAULT
  6
CONTINUOUS
 62
   136
100
AcDbText
 10
53.2280758868
 20
151.330322888
 30
0.0
 40
3.2
  1
O
 50
90.0
  7
SEACAD_SEMECA1_TTF
 11
50.0280758868
 21
151.330322888
 31
0.0
100
AcDbText
 73
     3
  0
TEXT
  5
159
330
150
100
AcDbEntity
  8
DEFAULT
  6
CONTINUOUS
 62
   136
100
AcDbText
 10
53.2280758868
 20
155.2994456951
 30
0.0
 40
3.2
  1
40.5
 50
90.0
  7
SEACAD_SEANSI_TTF
 11
50.0280758868
 21
155.2994456951
 31
0.0
100
AcDbText
 73
     3
  0
TEXT
  5
15A
330
150
100
AcDbEntity
  8
DEFAULT
  6
CONTINUOUS
 62
   136
100
AcDbText
 10
53.2280758868
 20
163.6194456951
 30
0.0
 40
3.2
  1
 P=0.5
 50
90.0
  7
SEACAD_SEANSI_TTF
 11
50.0280758868
 21
163.6194456951
 31
0.0
100
AcDbText
 73
     3
  0
ENDBLK
  5
15C
330
150
100
AcDbEntity
  8
0
100
AcDbBlockEnd
  0
BLOCK
  5
166
330
15D
100
AcDbEntity
  8
0
100
AcDbBlockBegin
  2
GDIMGGROUP1
 70
     0
 10
0.0
 20
0.0
 30
0.0
  3
GDIMGGROUP1
  1

  0
POLYLINE
  5
15F
330
15D
100
AcDbEntity
  8
DEFAULT
  6
CONTINUOUS
 62
   136
100
AcDb2dPolyline
 66
     1
 10
0.0
 20
0.0
 30
0.0
  0
VERTEX
  5
194
330
15F
100
AcDbEntity
  8
DEFAULT
  6
CONTINUOUS
 62
   136
100
AcDbVertex
100
AcDb2dVertex
 10
48.1614097482
 20
181.4212258953
 30
0.0
  0
VERTEX
  5
195
330
15F
100
AcDbEntity
  8
DEFAULT
  6
CONTINUOUS
 62
   136
100
AcDbVertex
100
AcDb2dVertex
 10
47.6280764283
 20
184.6212258144
 30
0.0
  0
VERTEX
  5
196
330
15F
100
AcDbEntity
  8
DEFAULT
  6
CONTINUOUS
 62
   136
100
AcDbVertex
100
AcDb2dVertex
 10
47.0947431084
 20
181.4212258953
 30
0.0
  0
SEQEND
  5
197
330
15F
100
AcDbEntity
  8
DEFAULT
  6
CONTINUOUS
 62
   136
  0
POLYLINE
  5
160
330
15D
100
AcDbEntity
  8
DEFAULT
  6
CONTINUOUS
 62
   136
100
AcDb2dPolyline
 66
     1
 10
0.0
 20
0.0
 30
0.0
  0
VERTEX
  5
198
330
160
100
AcDbEntity
  8
DEFAULT
  6
CONTINUOUS
 62
   136
100
AcDbVertex
100
AcDb2dVertex
 10
48.1614097482
 20
145.8212262998
 30
0.0
  0
VERTEX
  5
199
330
160
100
AcDbEntity
  8
DEFAULT
  6
CONTINUOUS
 62
   136
100
AcDbVertex
100
AcDb2dVertex
 10
47.6280764283
 20
142.6212263807
 30
0.0
  0
VERTEX
  5
19A
330
160
100
AcDbEntity
  8
DEFAULT
  6
CONTINUOUS
 62
   136
100
AcDbVertex
100
AcDb2dVertex
 10
47.0947431084
 20
145.8212262998
 30
0.0
  0
SEQEND
  5
19B
330
160
100
AcDbEntity
  8
DEFAULT
  6
CONTINUOUS
 62
   136
  0
LINE
  5
161
330
15D
100
AcDbEntity
  8
DEFAULT
  6
CONTINUOUS
 62
   136
100
AcDbLine
 10
59.5476582253
 20
184.6212258144
 30
0.0
 11
46.0280764687
 21
184.6212258144
 31
0.0
  0
LINE
  5
162
330
15D
100
AcDbEntity
  8
DEFAULT
  6
CONTINUOUS
 62
   136
100
AcDbLine
 10
59.5476582253
 20
142.6212258147
 30
0.0
 11
46.0280764687
 21
142.6212258147
 31
0.0
  0
LINE
  5
163
330
15D
100
AcDbEntity
  8
DEFAULT
  6
CONTINUOUS
 62
   136
100
AcDbLine
 10
47.6280764283
 20
184.6212258144
 30
0.0
 11
47.6280764283
 21
142.6212263807
 31
0.0
  0
TEXT
  5
164
330
15D
100
AcDbEntity
  8
DEFAULT
  6
CONTINUOUS
 62
   136
100
AcDbText
 10
46.8280764283
 20
159.2952012794
 30
0.0
 40
3.2
  1
O
 50
90.0
  7
SEACAD_SEMECA1_TTF
 11
43.6280764283
 21
159.2952012794
 31
0.0
100
AcDbText
 73
     3
  0
TEXT
  5
165
330
15D
100
AcDbEntity
  8
DEFAULT
  6
CONTINUOUS
 62
   136
100
AcDbText
 10
46.8280764283
 20
163.2643240864
 30
0.0
 40
3.2
  1
42
 50
90.0
  7
SEACAD_SEANSI_TTF
 11
43.6280764283
 21
163.2643240864
 31
0.0
100
AcDbText
 73
     3
  0
ENDBLK
  5
167
330
15D
100
AcDbEntity
  8
0
100
AcDbBlockEnd
  0
BLOCK
  5
170
330
168
100
AcDbEntity
  8
0
100
AcDbBlockBegin
  2
GDIMGGROUP2
 70
     0
 10
0.0
 20
0.0
 30
0.0
  3
GDIMGGROUP2
  1

  0
POLYLINE
  5
16A
330
168
100
AcDbEntity
  8
DEFAULT
  6
CONTINUOUS
 62
   136
100
AcDb2dPolyline
 66
     1
 10
0.0
 20
0.0
 30
0.0
  0
VERTEX
  5
19C
330
16A
100
AcDbEntity
  8
DEFAULT
  6
CONTINUOUS
 62
   136
100
AcDbVertex
100
AcDb2dVertex
 10
63.8276581122
 20
132.1707924863
 30
0.0
  0
VERTEX
  5
19D
330
16A
100
AcDbEntity
  8
DEFAULT
  6
CONTINUOUS
 62
   136
100
AcDbVertex
100
AcDb2dVertex
 10
60.627658193
 20
131.6374591664
 30
0.0
  0
VERTEX
  5
19E
330
16A
100
AcDbEntity
  8
DEFAULT
  6
CONTINUOUS
 62
   136
100
AcDbVertex
100
AcDb2dVertex
 10
63.8276581122
 20
131.1041258466
 30
0.0
  0
SEQEND
  5
19F
330
16A
100
AcDbEntity
  8
DEFAULT
  6
CONTINUOUS
 62
   136
  0
POLYLINE
  5
16B
330
168
100
AcDbEntity
  8
DEFAULT
  6
CONTINUOUS
 62
   136
100
AcDb2dPolyline
 66
     1
 10
0.0
 20
0.0
 30
0.0
  0
VERTEX
  5
1A0
330
16B
100
AcDbEntity
  8
DEFAULT
  6
CONTINUOUS
 62
   136
100
AcDbVertex
100
AcDb2dVertex
 10
137.2363106749
 20
132.1707924863
 30
0.0
  0
VERTEX
  5
1A1
330
16B
100
AcDbEntity
  8
DEFAULT
  6
CONTINUOUS
 62
   136
100
AcDbVertex
100
AcDb2dVertex
 10
140.436310594
 20
131.6374591664
 30
0.0
  0
VERTEX
  5
1A2
330
16B
100
AcDbEntity
  8
DEFAULT
  6
CONTINUOUS
 62
   136
100
AcDbVertex
100
AcDb2dVertex
 10
137.2363106749
 20
131.1041258466
 30
0.0
  0
SEQEND
  5
1A3
330
16B
100
AcDbEntity
  8
DEFAULT
  6
CONTINUOUS
 62
   136
  0
LINE
  5
16C
330
168
100
AcDbEntity
  8
DEFAULT
  6
CONTINUOUS
 62
   136
100
AcDbLine
 10
60.627658193
 20
141.5412258469
 30
0.0
 11
60.627658193
 21
130.0374592068
 31
0.0
  0
LINE
  5
16D
330
168
100
AcDbEntity
  8
DEFAULT
  6
CONTINUOUS
 62
   136
100
AcDbLine
 10
140.4363119013
 20
147.3412258469
 30
0.0
 11
140.4363119013
 21
130.0374592068
 31
0.0
  0
LINE
  5
16E
330
168
100
AcDbEntity
  8
DEFAULT
  6
CONTINUOUS
 62
   136
100
AcDbLine
 10
60.627658193
 20
131.6374591664
 30
0.0
 11
140.436310594
 21
131.6374591664
 31
0.0
  0
TEXT
  5
16F
330
168
100
AcDbEntity
  8
DEFAULT
  6
CONTINUOUS
 62
   136
100
AcDbText
 10
98.0305209789
 20
132.4374591664
 30
0.0
 40
3.2
  1
81
  7
SEACAD_SEANSI_TTF
 11
98.0305209789
 21
135.6374591664
 31
0.0
100
AcDbText
 73
     3
  0
ENDBLK
  5
171
330
168
100
AcDbEntity
  8
0
100
AcDbBlockEnd
  0
BLOCK
  5
17A
330
172
100
AcDbEntity
  8
0
100
AcDbBlockBegin
  2
GDIMGGROUP3
 70
     0
 10
0.0
 20
0.0
 30
0.0
  3
GDIMGGROUP3
  1

  0
POLYLINE
  5
174
330
172
100
AcDbEntity
  8
DEFAULT
  6
CONTINUOUS
 62
   136
100
AcDb2dPolyline
 66
     1
 10
0.0
 20
0.0
 30
0.0
  0
VERTEX
  5
1A4
330
174
100
AcDbEntity
  8
DEFAULT
  6
CONTINUOUS
 62
   136
100
AcDbVertex
100
AcDb2dVertex
 10
137.2363119822
 20
138.5681576868
 30
0.0
  0
VERTEX
  5
1A5
330
174
100
AcDbEntity
  8
DEFAULT
  6
CONTINUOUS
 62
   136
100
AcDbVertex
100
AcDb2dVertex
 10
140.4363119013
 20
138.0348243669
 30
0.0
  0
VERTEX
  5
1A6
330
174
100
AcDbEntity
  8
DEFAULT
  6
CONTINUOUS
 62
   136
100
AcDbVertex
100
AcDb2dVertex
 10
137.2363119822
 20
137.5014910471
 30
0.0
  0
SEQEND
  5
1A7
330
174
100
AcDbEntity
  8
DEFAULT
  6
CONTINUOUS
 62
   136
  0
POLYLINE
  5
175
330
172
100
AcDbEntity
  8
DEFAULT
  6
CONTINUOUS
 62
   136
100
AcDb2dPolyline
 66
     1
 10
0.0
 20
0.0
 30
0.0
  0
VERTEX
  5
1A8
330
175
100
AcDbEntity
  8
DEFAULT
  6
CONTINUOUS
 62
   136
100
AcDbVertex
100
AcDb2dVertex
 10
147.6363118205
 20
138.5681576868
 30
0.0
  0
VERTEX
  5
1A9
330
175
100
AcDbEntity
  8
DEFAULT
  6
CONTINUOUS
 62
   136
100
AcDbVertex
100
AcDb2dVertex
 10
144.4363119013
 20
138.0348243669
 30
0.0
  0
VERTEX
  5
1AA
330
175
100
AcDbEntity
  8
DEFAULT
  6
CONTINUOUS
 62
   136
100
AcDbVertex
100
AcDb2dVertex
 10
147.6363118205
 20
137.5014910471
 30
0.0
  0
SEQEND
  5
1AB
330
175
100
AcDbEntity
  8
DEFAULT
  6
CONTINUOUS
 62
   136
  0
LINE
  5
176
330
172
100
AcDbEntity
  8
DEFAULT
  6
CONTINUOUS
 62
   136
100
AcDbLine
 10
140.4363119013
 20
147.3412258469
 30
0.0
 11
140.4363119013
 21
136.4348244073
 31
0.0
  0
LINE
  5
177
330
172
100
AcDbEntity
  8
DEFAULT
  6
CONTINUOUS
 62
   136
100
AcDbLine
 10
144.4363119013
 20
150.3412258469
 30
0.0
 11
144.4363119013
 21
136.4348244073
 31
0.0
  0
LINE
  5
178
330
172
100
AcDbEntity
  8
DEFAULT
  6
CONTINUOUS
 62
   136
100
AcDbLine
 10
134.036312063
 20
138.0348243669
 30
0.0
 11
150.5832622729
 21
138.0348243669
 31
0.0
  0
TEXT
  5
179
330
172
100
AcDbEntity
  8
DEFAULT
  6
CONTINUOUS
 62
   136
100
AcDbText
 10
147.1217987497
 20
138.8348243669
 30
0.0
 40
3.2
  1
4
  7
SEACAD_SEANSI_TTF
 11
147.1217987497
 21
142.0348243669
 31
0.0
100
AcDbText
 73
     3
  0
ENDBLK
  5
17B
330
172
100
AcDbEntity
  8
0
100
AcDbBlockEnd
  0
BLOCK
  5
184
330
17C
100
AcDbEntity
  8
0
100
AcDbBlockBegin
  2
GDIMGGROUP4
 70
     0
 10
0.0
 20
0.0
 30
0.0
  3
GDIMGGROUP4
  1

  0
POLYLINE
  5
17E
330
17C
100
AcDbEntity
  8
DEFAULT
  6
CONTINUOUS
 62
   136
100
AcDb2dPolyline
 66
     1
 10
0.0
 20
0.0
 30
0.0
  0
VERTEX
  5
1AC
330
17E
100
AcDbEntity
  8
DEFAULT
  6
CONTINUOUS
 62
   136
100
AcDbVertex
100
AcDb2dVertex
 10
143.6363118205
 20
132.1681573828
 30
0.0
  0
VERTEX
  5
1AD
330
17E
100
AcDbEntity
  8
DEFAULT
  6
CONTINUOUS
 62
   136
100
AcDbVertex
100
AcDb2dVertex
 10
140.4363119013
 20
131.6348240629
 30
0.0
  0
VERTEX
  5
1AE
330
17E
100
AcDbEntity
  8
DEFAULT
  6
CONTINUOUS
 62
   136
100
AcDbVertex
100
AcDb2dVertex
 10
143.6363118205
 20
131.1014907431
 30
0.0
  0
SEQEND
  5
1AF
330
17E
100
AcDbEntity
  8
DEFAULT
  6
CONTINUOUS
 62
   136
  0
POLYLINE
  5
17F
330
17C
100
AcDbEntity
  8
DEFAULT
  6
CONTINUOUS
 62
   136
100
AcDb2dPolyline
 66
     1
 10
0.0
 20
0.0
 30
0.0
  0
VERTEX
  5
1B0
330
17F
100
AcDbEntity
  8
DEFAULT
  6
CONTINUOUS
 62
   136
100
AcDbVertex
100
AcDb2dVertex
 10
154.7623127203
 20
132.1681573828
 30
0.0
  0
VERTEX
  5
1B1
330
17F
100
AcDbEntity
  8
DEFAULT
  6
CONTINUOUS
 62
   136
100
AcDbVertex
100
AcDb2dVertex
 10
157.9623126395
 20
131.6348240629
 30
0.0
  0
VERTEX
  5
1B2
330
17F
100
AcDbEntity
  8
DEFAULT
  6
CONTINUOUS
 62
   136
100
AcDbVertex
100
AcDb2dVertex
 10
154.7623127203
 20
131.1014907431
 30
0.0
  0
SEQEND
  5
1B3
330
17F
100
AcDbEntity
  8
DEFAULT
  6
CONTINUOUS
 62
   136
  0
LINE
  5
180
330
17C
100
AcDbEntity
  8
DEFAULT
  6
CONTINUOUS
 62
   136
100
AcDbLine
 10
140.4363119013
 20
147.3412258469
 30
0.0
 11
140.4363119013
 21
130.0348241034
 31
0.0
  0
LINE
  5
181
330
17C
100
AcDbEntity
  8
DEFAULT
  6
CONTINUOUS
 62
   136
100
AcDbLine
 10
157.9623119013
 20
162.3412258469
 30
0.0
 11
157.9623119013
 21
130.0348241034
 31
0.0
  0
LINE
  5
182
330
17C
100
AcDbEntity
  8
DEFAULT
  6
CONTINUOUS
 62
   136
100
AcDbLine
 10
140.4363119013
 20
131.6348240629
 30
0.0
 11
157.9623126395
 21
131.6348240629
 31
0.0
  0
TEXT
  5
183
330
17C
100
AcDbEntity
  8
DEFAULT
  6
CONTINUOUS
 62
   136
100
AcDbText
 10
142.8578488558
 20
132.4348240629
 30
0.0
 40
3.2
  1
17.526
  7
SEACAD_SEANSI_TTF
 11
142.8578488558
 21
135.6348240629
 31
0.0
100
AcDbText
 73
     3
  0
ENDBLK
  5
185
330
17C
100
AcDbEntity
  8
0
100
AcDbBlockEnd
  0
ENDSEC
  0
SECTION
  2
ENTITIES
  0
LINE
  5
3D
330
1F
100
AcDbEntity
  8
DEFAULT
  6
DASHDOT2
 62
     7
100
AcDbLine
 10
56.2466645096
 20
163.6212258146
 30
0.0
 11
148.0668095786
 21
163.6212258146
 31
0.0
  0
LINE
  5
3E
330
1F
100
AcDbEntity
  8
DEFAULT
  6
DASHDOT2
 62
     7
100
AcDbLine
 10
59.2610717284
 20
183.8712258146
 30
0.0
 11
63.3091965307
 21
183.8712258146
 31
0.0
  0
LINE
  5
3F
330
1F
100
AcDbEntity
  8
DEFAULT
  6
DASHDOT2
 62
     7
100
AcDbLine
 10
59.2610717284
 20
143.3712258146
 30
0.0
 11
63.3091965307
 21
143.3712258146
 31
0.0
  0
TEXT
  5
63
330
1F
100
AcDbEntity
  8
DEFAULT
  6
CONTINUOUS
 62
     7
100
AcDbText
 10
18.5777038807
 20
213.8326735008
 30
0.0
 40
3.2
  1
FL-BC7528-9M
  7
SEACAD_SEANSI_TTF
 11
18.5777038807
 21
217.0326735008
 31
0.0
100
AcDbText
 73
     3
  0
INSERT
  5
65
330
1F
100
AcDbEntity
  8
DEFAULT
100
AcDbBlockReference
  2
SE
 10
0.0
 20
0.0
 30
0.0
  0
INSERT
  5
151
330
1F
100
AcDbEntity
  8
DEFAULT
100
AcDbBlockReference
  2
GDIMGGROUP
 10
0.0
 20
0.0
 30
0.0
  0
INSERT
  5
15E
330
1F
100
AcDbEntity
  8
DEFAULT
100
AcDbBlockReference
  2
GDIMGGROUP1
 10
0.0
 20
0.0
 30
0.0
  0
INSERT
  5
169
330
1F
100
AcDbEntity
  8
DEFAULT
100
AcDbBlockReference
  2
GDIMGGROUP2
 10
0.0
 20
0.0
 30
0.0
  0
INSERT
  5
173
330
1F
100
AcDbEntity
  8
DEFAULT
100
AcDbBlockReference
  2
GDIMGGROUP3
 10
0.0
 20
0.0
 30
0.0
  0
INSERT
  5
17D
330
1F
100
AcDbEntity
  8
DEFAULT
100
AcDbBlockReference
  2
GDIMGGROUP4
 10
0.0
 20
0.0
 30
0.0
  0
ENDSEC
  0
SECTION
  2
OBJECTS
  0
DICTIONARY
  5
C
330
0
100
AcDbDictionary
  3
ACAD_GROUP
350
D
  3
ACAD_LAYOUT
350
1A
  3
ACAD_MLEADERSTYLE
350
188
  3
ACAD_MLINESTYLE
350
17
  3
ACAD_PLOTSETTINGS
350
19
  3
ACAD_SCALELIST
350
40
  3
ACAD_VISUALSTYLE
350
2A
  3
ACDBVARIABLEDICTIONARY
350
186
1001
ACAD
1000
TREAT_AS_HARD
1070
     0
  0
DICTIONARY
  5
D
102
{ACAD_REACTORS
330
C
102
}
330
C
100
AcDbDictionary
1001
ACAD
1000
TREAT_AS_HARD
1070
     0
  0
DICTIONARY
  5
1A
102
{ACAD_REACTORS
330
C
102
}
330
C
100
AcDbDictionary
1001
ACAD
1000
TREAT_AS_HARD
1070
     0
  0
DICTIONARY
  5
188
102
{ACAD_REACTORS
330
C
102
}
330
C
100
AcDbDictionary
1001
ACAD
1000
TREAT_AS_HARD
1070
     0
  0
DICTIONARY
  5
17
102
{ACAD_REACTORS
330
C
102
}
330
C
100
AcDbDictionary
  3
STANDARD
350
18
1001
ACAD
1000
TREAT_AS_HARD
1070
     0
  0
DICTIONARY
  5
19
102
{ACAD_REACTORS
330
C
102
}
330
C
100
AcDbDictionary
1001
ACAD
1000
TREAT_AS_HARD
1070
     0
  0
DICTIONARY
  5
40
102
{ACAD_REACTORS
330
C
102
}
330
C
100
AcDbDictionary
  3
A0
350
41
  3
A1
350
42
  3
A2
350
43
  3
A3
350
44
  3
A4
350
45
  3
A5
350
46
  3
A6
350
47
  3
A7
350
48
  3
A8
350
49
  3
A9
350
4A
  3
B0
350
4B
  3
B1
350
4C
  3
B2
350
4D
  3
B3
350
4E
  3
B4
350
4F
  3
B5
350
50
  3
B6
350
51
  3
B7
350
52
  3
B8
350
53
  3
B9
350
54
  3
C0
350
55
  3
C1
350
56
  3
C2
350
57
  3
C3
350
58
  3
C4
350
59
  3
C5
350
5A
  3
C6
350
5B
  3
C7
350
5C
  3
C8
350
5D
  3
C9
350
5E
  3
D0
350
5F
  3
D1
350
60
  3
D2
350
61
1001
ACAD
1000
TREAT_AS_HARD
1070
     0
  0
DICTIONARY
  5
2A
102
{ACAD_REACTORS
330
C
102
}
330
C
100
AcDbDictionary
  3
2DWIREFRAME
350
2F
  3
3D_HIDDEN
350
31
  3
3DWIREFRAME
350
30
  3
BASIC
350
32
  3
BRIGHTEN
350
36
  3
COLORCHANGE
350
3A
  3
CONCEPTUAL
350
34
  3
DIM
350
35
  3
FACEPATTERN
350
39
  3
FLAT
350
2B
  3
FLATWITHEDGES
350
2C
  3
GOURAUD
350
2D
  3
GOURAUDWITHEDGES
350
2E
  3
LINEPATTERN
350
38
  3
REALISTIC
350
33
  3
THICKEN
350
37
1001
ACAD
1000
TREAT_AS_HARD
1070
     0
  0
DICTIONARY
  5
186
102
{ACAD_REACTORS
330
C
102
}
330
C
100
AcDbDictionary
  3
CANNOSCALE
350
18B
  3
PSOLHEIGHT
350
18A
  3
PSOLWIDTH
350
189
1001
ACAD
1000
TREAT_AS_HARD
1070
     0
  0
MLINESTYLE
  5
18
102
{ACAD_REACTORS
330
17
102
}
330
17
100
AcDbMlineStyle
  2
Standard
 70
     0
  3

 62
   256
 51
90.0
 52
90.0
 71
     2
 49
0.5
 62
   256
  6
BYLAYER
 49
-0.5
 62
   256
  6
BYLAYER
  0
ACAD_PROXY_OBJECT
  5
41
102
{ACAD_REACTORS
330
40
102
}
330
40
100
AcDbZombieObject
 90
      499
 91
      502
 93
       41
310
903313A31580
  0
ACAD_PROXY_OBJECT
  5
42
102
{ACAD_REACTORS
330
40
102
}
330
40
100
AcDbZombieObject
 90
      499
 91
      502
 93
      105
310
903313A324000000000000004000
  0
ACAD_PROXY_OBJECT
  5
43
102
{ACAD_REACTORS
330
40
102
}
330
40
100
AcDbZombieObject
 90
      499
 91
      502
 93
      105
310
903313A344000000000000104000
  0
ACAD_PROXY_OBJECT
  5
44
102
{ACAD_REACTORS
330
40
102
}
330
40
100
AcDbZombieObject
 90
      499
 91
      502
 93
      105
310
903313A354000000000000144000
  0
ACAD_PROXY_OBJECT
  5
45
102
{ACAD_REACTORS
330
40
102
}
330
40
100
AcDbZombieObject
 90
      499
 91
      502
 93
      105
310
903313A384000000000000204000
  0
ACAD_PROXY_OBJECT
  5
46
102
{ACAD_REACTORS
330
40
102
}
330
40
100
AcDbZombieObject
 90
      499
 91
      502
 93
      113
310
904313A31304000000000000244000
  0
ACAD_PROXY_OBJECT
  5
47
102
{ACAD_REACTORS
330
40
102
}
330
40
100
AcDbZombieObject
 90
      499
 91
      502
 93
      113
310
904313A31364000000000000304000
  0
ACAD_PROXY_OBJECT
  5
48
102
{ACAD_REACTORS
330
40
102
}
330
40
100
AcDbZombieObject
 90
      499
 91
      502
 93
      113
310
904313A32304000000000000344000
  0
ACAD_PROXY_OBJECT
  5
49
102
{ACAD_REACTORS
330
40
102
}
330
40
100
AcDbZombieObject
 90
      499
 91
      502
 93
      113
310
904313A333040000000000003E4000
  0
ACAD_PROXY_OBJECT
  5
4A
102
{ACAD_REACTORS
330
40
102
}
330
40
100
AcDbZombieObject
 90
      499
 91
      502
 93
      113
310
904313A34304000000000000444000
  0
ACAD_PROXY_OBJECT
  5
4B
102
{ACAD_REACTORS
330
40
102
}
330
40
100
AcDbZombieObject
 90
      499
 91
      502
 93
      113
310
904313A35304000000000000494000
  0
ACAD_PROXY_OBJECT
  5
4C
102
{ACAD_REACTORS
330
40
102
}
330
40
100
AcDbZombieObject
 90
      499
 91
      502
 93
      121
310
905313A3130304000000000000594000
  0
ACAD_PROXY_OBJECT
  5
4D
102
{ACAD_REACTORS
330
40
102
}
330
40
100
AcDbZombieObject
 90
      499
 91
      502
 93
      105
310
903323A310000000000000010100
  0
ACAD_PROXY_OBJECT
  5
4E
102
{ACAD_REACTORS
330
40
102
}
330
40
100
AcDbZombieObject
 90
      499
 91
      502
 93
      105
310
903343A310000000000000410100
  0
ACAD_PROXY_OBJECT
  5
4F
102
{ACAD_REACTORS
330
40
102
}
330
40
100
AcDbZombieObject
 90
      499
 91
      502
 93
      105
310
903383A310000000000000810100
  0
ACAD_PROXY_OBJECT
  5
50
102
{ACAD_REACTORS
330
40
102
}
330
40
100
AcDbZombieObject
 90
      499
 91
      502
 93
      113
310
90431303A310000000000000910100
  0
ACAD_PROXY_OBJECT
  5
51
102
{ACAD_REACTORS
330
40
102
}
330
40
100
AcDbZombieObject
 90
      499
 91
      502
 93
      121
310
9053130303A310000000000001650100
  0
ACAD_PROXY_OBJECT
  5
52
102
{ACAD_REACTORS
330
40
102
}
330
40
100
AcDbZombieObject
 90
      499
 91
      502
 93
      257
310
90E312F31323822203D2031272D3022000000000000200FC000000000000284000
  0
ACAD_PROXY_OBJECT
  5
53
102
{ACAD_REACTORS
330
40
102
}
330
40
100
AcDbZombieObject
 90
      499
 91
      502
 93
      249
310
90D312F363422203D2031272D3022000000000000240FC000000000000284000
  0
ACAD_PROXY_OBJECT
  5
54
102
{ACAD_REACTORS
330
40
102
}
330
40
100
AcDbZombieObject
 90
      499
 91
      502
 93
      249
310
90D312F333222203D2031272D3022000000000000280FC000000000000284000
  0
ACAD_PROXY_OBJECT
  5
55
102
{ACAD_REACTORS
330
40
102
}
330
40
100
AcDbZombieObject
 90
      499
 91
      502
 93
      249
310
90D312F313622203D2031272D30220000000000002C0FC000000000000284000
  0
ACAD_PROXY_OBJECT
  5
56
102
{ACAD_REACTORS
330
40
102
}
330
40
100
AcDbZombieObject
 90
      499
 91
      502
 93
      249
310
90D332F333222203D2031272D30220000000000002E0FC000000000000284000
  0
ACAD_PROXY_OBJECT
  5
57
102
{ACAD_REACTORS
330
40
102
}
330
40
100
AcDbZombieObject
 90
      499
 91
      502
 93
      241
310
90C312F3822203D2031272D3022000000000000300FC000000000000284000
  0
ACAD_PROXY_OBJECT
  5
58
102
{ACAD_REACTORS
330
40
102
}
330
40
100
AcDbZombieObject
 90
      499
 91
      502
 93
      249
310
90D332F313622203D2031272D3022000000000000320FC000000000000284000
  0
ACAD_PROXY_OBJECT
  5
59
102
{ACAD_REACTORS
330
40
102
}
330
40
100
AcDbZombieObject
 90
      499
 91
      502
 93
      241
310
90C312F3422203D2031272D3022000000000000340FC000000000000284000
  0
ACAD_PROXY_OBJECT
  5
5A
102
{ACAD_REACTORS
330
40
102
}
330
40
100
AcDbZombieObject
 90
      499
 91
      502
 93
      241
310
90C332F3822203D2031272D3022000000000000360FC000000000000284000
  0
ACAD_PROXY_OBJECT
  5
5B
102
{ACAD_REACTORS
330
40
102
}
330
40
100
AcDbZombieObject
 90
      499
 91
      502
 93
      241
310
90C312F3222203D2031272D3022000000000000380FC000000000000284000
  0
ACAD_PROXY_OBJECT
  5
5C
102
{ACAD_REACTORS
330
40
102
}
330
40
100
AcDbZombieObject
 90
      499
 91
      502
 93
      241
310
90C332F3422203D2031272D30220000000000003A0FC000000000000284000
  0
ACAD_PROXY_OBJECT
  5
5D
102
{ACAD_REACTORS
330
40
102
}
330
40
100
AcDbZombieObject
 90
      499
 91
      502
 93
      161
310
90A3122203D2031272D30224000000000000284000
  0
ACAD_PROXY_OBJECT
  5
5E
102
{ACAD_REACTORS
330
40
102
}
330
40
100
AcDbZombieObject
 90
      499
 91
      502
 93
      257
310
90E312D312F3222203D2031272D30220000000000003E0FC000000000000284000
  0
ACAD_PROXY_OBJECT
  5
5F
102
{ACAD_REACTORS
330
40
102
}
330
40
100
AcDbZombieObject
 90
      499
 91
      502
 93
      225
310
90A3322203D2031272D302200000000000002100000000000000284000
  0
ACAD_PROXY_OBJECT
  5
60
102
{ACAD_REACTORS
330
40
102
}
330
40
100
AcDbZombieObject
 90
      499
 91
      502
 93
      225
310
90A3622203D2031272D302200000000000006100000000000000284000
  0
ACAD_PROXY_OBJECT
  5
61
102
{ACAD_REACTORS
330
40
102
}
330
40
100
AcDbZombieObject
 90
      499
 91
      502
 93
      249
310
90D31272D3022203D2031272D30220000000000000A100000000000000284000
  0
ACAD_PROXY_OBJECT
  5
2F
102
{ACAD_REACTORS
330
2A
102
}
330
2A
100
AcDbZombieObject
 90
      499
 91
      501
 93
      436
310
42CC9915DA5C99599C985B595049028333333333333E3BF0000000000000FB0107901411070040501600405405064090741402480A0340
1001
ACAD
1000
AcDbSavedByObjectVersion
1070
     0
  0
ACAD_PROXY_OBJECT
  5
31
102
{ACAD_REACTORS
330
2A
102
}
330
2A
100
AcDbZombieObject
 90
      499
 91
      501
 93
      500
310
424CD108121A5919195B90640502408333333333333E3BF0000000000000FB01079024090700405020000000000001110200405405064090740C02480A0340
1001
ACAD
1000
AcDbSavedByObjectVersion
1070
     0
  0
ACAD_PROXY_OBJECT
  5
30
102
{ACAD_REACTORS
330
2A
102
}
330
2A
100
AcDbZombieObject
 90
      499
 91
      501
 93
      436
310
42CCD915DA5C99599C985B595059028333333333333E3BF0000000000000FB0107901411070040501600405405064090741402480A0340
1001
ACAD
1000
AcDbSavedByObjectVersion
1070
     0
  0
ACAD_PROXY_OBJECT
  5
32
102
{ACAD_REACTORS
330
2A
102
}
330
2A
100
AcDbZombieObject
 90
      499
 91
      501
 93
      388
310
4150985CDA58D07406404333333333333E3BF0000000000000FB0107A41107004050150841D405064090741402480A0350
1001
ACAD
1000
AcDbSavedByObjectVersion
1070
     0
  0
ACAD_PROXY_OBJECT
  5
36
102
{ACAD_REACTORS
330
2A
102
}
330
2A
100
AcDbZombieObject
 90
      499
 91
      501
 93
      428
310
42109C9A59DA1D195B90C409028333333333333E3BF0000000000000FB010790141107004050150841D405064090741402480A029950
1001
ACAD
1000
AcDbSavedByObjectVersion
1070
     0
  0
ACAD_PROXY_OBJECT
  5
3A
102
{ACAD_REACTORS
330
2A
102
}
330
2A
100
AcDbZombieObject
 90
      499
 91
      501
 93
      452
310
42D0DBDB1BDC90DA185B99D95104090240C333333333333E3BF0000000000000FB0108901411070040501508421405064090741402480A0350
1001
ACAD
1000
AcDbSavedByObjectVersion
1070
     0
  0
ACAD_PROXY_OBJECT
  5
34
102
{ACAD_REACTORS
330
2A
102
}
330
2A
100
AcDbZombieObject
 90
      499
 91
      501
 93
      500
310
4290DBDB98D95C1D1D585B10940D028333333333333E3BF0000000000000FB0107902409070040501000000000000111010841D405064090740C02480A0340
1001
ACAD
1000
AcDbSavedByObjectVersion
1070
     0
  0
ACAD_PROXY_OBJECT
  5
35
102
{ACAD_REACTORS
330
2A
102
}
330
2A
100
AcDbZombieObject
 90
      499
 91
      501
 93
      412
310
40D11A5B50B409028333333333333E3BF0000000000000FB010790141107004050150841D405064090741402480A02677FFFFFD0
1001
ACAD
1000
AcDbSavedByObjectVersion
1070
     0
  0
ACAD_PROXY_OBJECT
  5
39
102
{ACAD_REACTORS
330
2A
102
}
330
2A
100
AcDbZombieObject
 90
      499
 91
      501
 93
      444
310
42D19858D95C185D1D195C9B90F409028333333333333E3BF0000000000000FB010790141107004050150841D405064090741402480A0350
1001
ACAD
1000
AcDbSavedByObjectVersion
1070
     0
  0
ACAD_PROXY_OBJECT
  5
2B
102
{ACAD_REACTORS
330
2A
102
}
330
2A
100
AcDbZombieObject
 90
      499
 91
      501
 93
      388
310
41119B185D240901404333333333333E3BF0000000000000F9010740A41107004050150841D405064090741402480A1B50
1001
ACAD
1000
AcDbSavedByObjectVersion
1070
     0
  0
ACAD_PROXY_OBJECT
  5
2C
102
{ACAD_REACTORS
330
2A
102
}
330
2A
100
AcDbZombieObject
 90
      499
 91
      501
 93
      476
310
43519B185D15DA5D1A115919D95CD0140901404333333333333E3BF0000000000000F9010740901411070040501600405405064090741402480A1B50
1001
ACAD
1000
AcDbSavedByObjectVersion
1070
     0
  0
ACAD_PROXY_OBJECT
  5
2D
102
{ACAD_REACTORS
330
2A
102
}
330
2A
100
AcDbZombieObject
 90
      499
 91
      501
 93
      412
310
41D1DBDD5C985D5910240902404333333333333E3BF0000000000000F9010740A411070040501641D405064090741402480A1B50
1001
ACAD
1000
AcDbSavedByObjectVersion
1070
     0
  0
ACAD_PROXY_OBJECT
  5
2E
102
{ACAD_REACTORS
330
2A
102
}
330
2A
100
AcDbZombieObject
 90
      499
 91
      501
 93
      500
310
4411DBDD5C985D5915DA5D1A115919D95CD0340902404333333333333E3BF0000000000000F9010740901411070040501600405405064090741402480A1B50
1001
ACAD
1000
AcDbSavedByObjectVersion
1070
     0
  0
ACAD_PROXY_OBJECT
  5
38
102
{ACAD_REACTORS
330
2A
102
}
330
2A
100
AcDbZombieObject
 90
      499
 91
      501
 93
      444
310
42D31A5B995C185D1D195C9B90E409028333333333333E3BF0000000000000FB010790141107004050750841D405064090741402483A0350
1001
ACAD
1000
AcDbSavedByObjectVersion
1070
     0
  0
ACAD_PROXY_OBJECT
  5
33
102
{ACAD_REACTORS
330
2A
102
}
330
2A
100
AcDbZombieObject
 90
      499
 91
      501
 93
      420
310
425499585B1A5CDD1A58D08409028333333333333E3BF0000000000000FB01079019070040501508421405064090741402480A1B40
1001
ACAD
1000
AcDbSavedByObjectVersion
1070
     0
  0
ACAD_PROXY_OBJECT
  5
37
102
{ACAD_REACTORS
330
2A
102
}
330
2A
100
AcDbZombieObject
 90
      499
 91
      501
 93
      412
310
41D51A1A58DAD95B90D409028333333333333E3BF0000000000000FB010790141107004050150C41D405064090741402480A0350
1001
ACAD
1000
AcDbSavedByObjectVersion
1070
     0
  0
DICTIONARYVAR
  5
18B
102
{ACAD_REACTORS
330
186
102
}
330
186
100
DictionaryVariables
280
     0
  1
1:1
  0
DICTIONARYVAR
  5
18A
102
{ACAD_REACTORS
330
186
102
}
330
186
100
DictionaryVariables
280
     0
  1
80.000000
  0
DICTIONARYVAR
  5
189
102
{ACAD_REACTORS
330
186
102
}
330
186
100
DictionaryVariables
280
     0
  1
5.000000
  0
ENDSEC
  0
EOF
