  0
SECTION
  2
HEADER
  9
$ACADVER
  1
AC1012
  9
$DWGCODEPAGE
  3
ansi_932
  9
$INSBASE
 10
0.0
 20
0.0
 30
0.0
  9
$EXTMIN
 10
0.0
 20
0.0
 30
0.0
  9
$EXTMAX
 10
210.0
 20
297.0
 30
0.0
  9
$LIMMIN
 10
0.0
 20
0.0
  9
$LIMMAX
 10
210.0
 20
297.0
  9
$ORTHOMODE
 70
     0
  9
$REGENMODE
 70
     1
  9
$FILLMODE
 70
     1
  9
$QTEXTMODE
 70
     0
  9
$MIRRTEXT
 70
     1
  9
$DRAGMODE
 70
     2
  9
$LTSCALE
 40
1.0
  9
$OSMODE
 70
    37
  9
$ATTMODE
 70
     1
  9
$TEXTSIZE
 40
2.5
  9
$TRACEWID
 40
1.0
  9
$TEXTSTYLE
  7
STANDARD
  9
$CLAYER
  8
0
  9
$CELTYPE
  6
BYLAYER
  9
$CECOLOR
 62
   256
  9
$CELTSCALE
 40
1.0
  9
$DELOBJ
 70
     1
  9
$DISPSILH
 70
     0
  9
$DIMSCALE
 40
1.0
  9
$DIMASZ
 40
2.5
  9
$DIMEXO
 40
0.625
  9
$DIMDLI
 40
3.75
  9
$DIMRND
 40
0.0
  9
$DIMDLE
 40
0.0
  9
$DIMEXE
 40
1.25
  9
$DIMTP
 40
0.0
  9
$DIMTM
 40
0.0
  9
$DIMTXT
 40
2.5
  9
$DIMCEN
 40
2.5
  9
$DIMTSZ
 40
0.0
  9
$DIMTOL
 70
     0
  9
$DIMLIM
 70
     0
  9
$DIMTIH
 70
     0
  9
$DIMTOH
 70
     0
  9
$DIMSE1
 70
     0
  9
$DIMSE2
 70
     0
  9
$DIMTAD
 70
     1
  9
$DIMZIN
 70
     8
  9
$DIMBLK
  1

  9
$DIMASO
 70
     1
  9
$DIMSHO
 70
     1
  9
$DIMPOST
  1

  9
$DIMAPOST
  1

  9
$DIMALT
 70
     0
  9
$DIMALTD
 70
     3
  9
$DIMALTF
 40
0.0393700787
  9
$DIMLFAC
 40
1.0
  9
$DIMTOFL
 70
     1
  9
$DIMTVP
 40
0.0
  9
$DIMTIX
 70
     0
  9
$DIMSOXD
 70
     0
  9
$DIMSAH
 70
     0
  9
$DIMBLK1
  1

  9
$DIMBLK2
  1

  9
$DIMSTYLE
  2
ISO-25
  9
$DIMCLRD
 70
     0
  9
$DIMCLRE
 70
     0
  9
$DIMCLRT
 70
     0
  9
$DIMTFAC
 40
1.0
  9
$DIMGAP
 40
0.625
  9
$DIMJUST
 70
     0
  9
$DIMSD1
 70
     0
  9
$DIMSD2
 70
     0
  9
$DIMTOLJ
 70
     0
  9
$DIMTZIN
 70
     8
  9
$DIMALTZ
 70
     0
  9
$DIMALTTZ
 70
     0
  9
$DIMFIT
 70
     3
  9
$DIMUPT
 70
     0
  9
$DIMUNIT
 70
     2
  9
$DIMDEC
 70
     2
  9
$DIMTDEC
 70
     2
  9
$DIMALTU
 70
     2
  9
$DIMALTTD
 70
     3
  9
$DIMTXSTY
  7
STANDARD
  9
$DIMAUNIT
 70
     0
  9
$LUNITS
 70
     2
  9
$LUPREC
 70
     4
  9
$SKETCHINC
 40
1.0
  9
$FILLETRAD
 40
10.0
  9
$AUNITS
 70
     0
  9
$AUPREC
 70
     0
  9
$MENU
  1
.
  9
$ELEVATION
 40
0.0
  9
$PELEVATION
 40
0.0
  9
$THICKNESS
 40
0.0
  9
$LIMCHECK
 70
     0
  9
$CHAMFERA
 40
10.0
  9
$CHAMFERB
 40
10.0
  9
$CHAMFERC
 40
20.0
  9
$CHAMFERD
 40
0.0
  9
$SKPOLY
 70
     0
  9
$TDCREATE
 40
2457073.411044549
  9
$TDUPDATE
 40
2457073.41104456
  9
$TDINDWG
 40
0.0000000116
  9
$TDUSRTIMER
 40
0.0000000116
  9
$USRTIMER
 70
     1
  9
$ANGBASE
 50
0.0
  9
$ANGDIR
 70
     0
  9
$PDMODE
 70
     0
  9
$PDSIZE
 40
0.0
  9
$PLINEWID
 40
0.0
  9
$COORDS
 70
     1
  9
$SPLFRAME
 70
     0
  9
$SPLINETYPE
 70
     6
  9
$SPLINESEGS
 70
     8
  9
$ATTDIA
 70
     0
  9
$ATTREQ
 70
     1
  9
$HANDLING
 70
     1
  9
$HANDSEED
  5
1C8
  9
$SURFTAB1
 70
     6
  9
$SURFTAB2
 70
     6
  9
$SURFTYPE
 70
     6
  9
$SURFU
 70
     6
  9
$SURFV
 70
     6
  9
$UCSNAME
  2

  9
$UCSORG
 10
0.0
 20
0.0
 30
0.0
  9
$UCSXDIR
 10
1.0
 20
0.0
 30
0.0
  9
$UCSYDIR
 10
0.0
 20
1.0
 30
0.0
  9
$PUCSNAME
  2

  9
$PUCSORG
 10
0.0
 20
0.0
 30
0.0
  9
$PUCSXDIR
 10
1.0
 20
0.0
 30
0.0
  9
$PUCSYDIR
 10
0.0
 20
1.0
 30
0.0
  9
$USERI1
 70
     0
  9
$USERI2
 70
     0
  9
$USERI3
 70
     0
  9
$USERI4
 70
     0
  9
$USERI5
 70
     0
  9
$USERR1
 40
0.0
  9
$USERR2
 40
0.0
  9
$USERR3
 40
0.0
  9
$USERR4
 40
0.0
  9
$USERR5
 40
0.0
  9
$WORLDVIEW
 70
     1
  9
$SHADEDGE
 70
     3
  9
$SHADEDIF
 70
    70
  9
$TILEMODE
 70
     1
  9
$MAXACTVP
 70
    64
  9
$PINSBASE
 10
0.0
 20
0.0
 30
0.0
  9
$PLIMCHECK
 70
     0
  9
$PEXTMIN
 10
0.0
 20
0.0
 30
0.0
  9
$PEXTMAX
 10
210.0
 20
297.0
 30
0.0
  9
$PLIMMIN
 10
0.0
 20
0.0
  9
$PLIMMAX
 10
210.0
 20
297.0
  9
$UNITMODE
 70
     0
  9
$VISRETAIN
 70
     1
  9
$PLINEGEN
 70
     0
  9
$PSLTSCALE
 70
     1
  9
$TREEDEPTH
 70
  3020
  9
$PICKSTYLE
 70
     1
  9
$CMLSTYLE
  2
STANDARD
  9
$CMLJUST
 70
     0
  9
$CMLSCALE
 40
20.0
  9
$SAVEIMAGES
 70
     1
  0
ENDSEC
  0
SECTION
  2
CLASSES
  0
CLASS
  1
ACDBDICTIONARYWDFLT
  2
AcDbDictionaryWithDefault
  3
ObjectDBX Classes
 90
    32768
280
     0
281
     0
  0
CLASS
  1
VISUALSTYLE
  2
AcDbVisualStyle
  3
ObjectDBX Classes
 90
     4095
280
     0
281
     0
  0
CLASS
  1
SCALE
  2
AcDbScale
  3
ObjectDBX Classes
 90
     1153
280
     0
281
     0
  0
CLASS
  1
DICTIONARYVAR
  2
AcDbDictionaryVar
  3
ObjectDBX Classes
 90
        0
280
     0
281
     0
  0
CLASS
  1
XRECORD
  2
AcDbXrecord
  3
AutoCAD 2000
 90
    32768
280
     0
281
     0
  0
CLASS
  1
LWPOLYLINE
  2
AcDbPolyline
  3
AutoCAD 2000
 90
    32768
280
     0
281
     1
  0
CLASS
  1
HATCH
  2
AcDbHatch
  3
AutoCAD 2000
 90
    32768
280
     0
281
     1
  0
CLASS
  1
ACDBPLACEHOLDER
  2
AcDbPlaceHolder
  3
ObjectDBX Classes
 90
        0
280
     0
281
     0
  0
CLASS
  1
LAYOUT
  2
AcDbLayout
  3
ObjectDBX Classes
 90
        0
280
     0
281
     0
  0
ENDSEC
  0
SECTION
  2
TABLES
  0
TABLE
  2
VPORT
  5
8
330
0
100
AcDbSymbolTable
 70
     1
  0
VPORT
  5
29
330
8
100
AcDbSymbolTableRecord
100
AcDbViewportTableRecord
  2
*ACTIVE
 70
     0
 10
0.0
 20
0.0
 11
1.0
 21
1.0
 12
344.1869158879
 22
148.5
 13
0.0
 23
0.0
 14
10.0
 24
10.0
 15
10.0
 25
10.0
 16
0.0
 26
0.0
 36
1.0
 17
0.0
 27
0.0
 37
0.0
 40
297.0
 41
1.9729729729
 42
50.0
 43
0.0
 44
0.0
 50
0.0
 51
0.0
 71
     0
 72
   100
 73
     1
 74
     3
 75
     0
 76
     0
 77
     0
 78
     0
  0
ENDTAB
  0
TABLE
  2
LTYPE
  5
5
330
0
100
AcDbSymbolTable
 70
     2
  0
LTYPE
  5
14
330
5
100
AcDbSymbolTableRecord
100
AcDbLinetypeTableRecord
  2
BYBLOCK
 70
     0
  3

 72
    65
 73
     0
 40
0.0
  0
LTYPE
  5
15
330
5
100
AcDbSymbolTableRecord
100
AcDbLinetypeTableRecord
  2
BYLAYER
 70
     0
  3

 72
    65
 73
     0
 40
0.0
  0
LTYPE
  5
16
330
5
100
AcDbSymbolTableRecord
100
AcDbLinetypeTableRecord
  2
CONTINUOUS
 70
     0
  3
Solid line
 72
    65
 73
     0
 40
0.0
  0
LTYPE
  5
149
330
5
100
AcDbSymbolTableRecord
100
AcDbLinetypeTableRecord
  2
DASHDOT2
 70
     0
  3
Dash dot (.5x) _._._._._._._._._._._._._._._.
 72
    65
 73
     4
 40
12.7
 49
6.35
 74
     4
 75
     0
340
0
 46
0.0
 50
0.0
 44
0.0
 45
0.0
 49
-3.175
 74
     4
 75
     0
340
0
 46
0.0
 50
0.0
 44
0.0
 45
0.0
 49
0.0
 74
     4
 75
     0
340
0
 46
0.0
 50
0.0
 44
0.0
 45
0.0
 49
-3.175
 74
     4
 75
     0
340
0
 46
0.0
 50
0.0
 44
0.0
 45
0.0
  0
ENDTAB
  0
TABLE
  2
LAYER
  5
2
330
0
100
AcDbSymbolTable
 70
    11
  0
LAYER
  5
10
330
2
100
AcDbSymbolTableRecord
100
AcDbLayerTableRecord
  2
0
 70
     0
 62
     7
  6
CONTINUOUS
  0
LAYER
  5
5F
330
2
100
AcDbSymbolTableRecord
100
AcDbLayerTableRecord
  2
DEFAULT
 70
     0
 62
     7
  6
CONTINUOUS
  0
LAYER
  5
62
330
2
100
AcDbSymbolTableRecord
100
AcDbLayerTableRecord
  2
SHIBORI_RING_001
 70
     0
 62
     7
  6
CONTINUOUS
  0
LAYER
  5
6D
330
2
100
AcDbSymbolTableRecord
100
AcDbLayerTableRecord
  2
KOTEIWAKU_001_SE
 70
     0
 62
     7
  6
CONTINUOUS
  0
LAYER
  5
8A
330
2
100
AcDbSymbolTableRecord
100
AcDbLayerTableRecord
  2
MOUNT_001_SEP-00
 70
     0
 62
     7
  6
CONTINUOUS
  0
LAYER
  5
AC
330
2
100
AcDbSymbolTableRecord
100
AcDbLayerTableRecord
  2
ST17_20_001_SEP-
 70
     0
 62
     7
  6
CONTINUOUS
  0
LAYER
  5
AF
330
2
100
AcDbSymbolTableRecord
100
AcDbLayerTableRecord
  2
CNS14_22_001_SEP
 70
     0
 62
     7
  6
CONTINUOUS
  0
LAYER
  5
DF
330
2
100
AcDbSymbolTableRecord
100
AcDbLayerTableRecord
  2
CNS14_30_001_SEP
 70
     0
 62
     7
  6
CONTINUOUS
  0
LAYER
  5
132
330
2
100
AcDbSymbolTableRecord
100
AcDbLayerTableRecord
  2
SDABO_001_SEP-00
 70
     0
 62
     7
  6
CONTINUOUS
  0
LAYER
  5
136
330
2
100
AcDbSymbolTableRecord
100
AcDbLayerTableRecord
  2
FOCUS_RING_001_S
 70
     0
 62
     7
  6
CONTINUOUS
  0
LAYER
  5
147
330
2
100
AcDbSymbolTableRecord
100
AcDbLayerTableRecord
  2
DV1_デフォルト
 70
     0
 62
     7
  6
CONTINUOUS
  0
ENDTAB
  0
TABLE
  2
STYLE
  5
3
330
0
100
AcDbSymbolTable
 70
     3
  0
STYLE
  5
11
330
3
100
AcDbSymbolTableRecord
100
AcDbTextStyleTableRecord
  2
STANDARD
 70
     0
 40
0.0
 41
1.0
 50
0.0
 71
     0
 42
2.5
  3
txt
  4

  0
STYLE
  5
5D
330
3
100
AcDbSymbolTableRecord
100
AcDbTextStyleTableRecord
  2
SEACAD_SEANSI_TTF
 70
     0
 40
0.0
 41
1.0
 50
0.0
 71
     0
 42
0.2
  3
seansi.ttf
  4

  0
STYLE
  5
165
330
3
100
AcDbSymbolTableRecord
100
AcDbTextStyleTableRecord
  2
SEACAD_SEMECA1_TTF
 70
     0
 40
0.0
 41
1.0
 50
0.0
 71
     0
 42
0.2
  3
semeca1.ttf
  4

  0
ENDTAB
  0
TABLE
  2
VIEW
  5
6
330
0
100
AcDbSymbolTable
 70
     0
  0
ENDTAB
  0
TABLE
  2
UCS
  5
7
330
0
100
AcDbSymbolTable
 70
     0
  0
ENDTAB
  0
TABLE
  2
APPID
  5
9
330
0
100
AcDbSymbolTable
 70
     1
  0
APPID
  5
12
330
9
100
AcDbSymbolTableRecord
100
AcDbRegAppTableRecord
  2
ACAD
 70
     0
  0
ENDTAB
  0
TABLE
  2
DIMSTYLE
  5
A
330
0
100
AcDbSymbolTable
 70
     1
  0
DIMSTYLE
105
27
330
A
100
AcDbSymbolTableRecord
100
AcDbDimStyleTableRecord
  2
ISO-25
 70
     0
  3

  4

  5

  6

  7

 40
1.0
 41
2.5
 42
0.625
 43
3.75
 44
1.25
 45
0.0
 46
0.0
 47
0.0
 48
0.0
140
2.5
141
2.5
142
0.0
143
0.0393700787
144
1.0
145
0.0
146
1.0
147
0.625
 71
     0
 72
     0
 73
     0
 74
     0
 75
     0
 76
     0
 77
     1
 78
     8
170
     0
171
     3
172
     1
173
     0
174
     0
175
     0
176
     0
177
     0
178
     0
270
     2
271
     2
272
     2
273
     2
274
     3
340
11
275
     0
280
     0
281
     0
282
     0
283
     0
284
     8
285
     0
286
     0
287
     3
288
     0
  0
ENDTAB
  0
TABLE
  2
BLOCK_RECORD
  5
1
330
0
100
AcDbSymbolTable
 70
     8
  0
BLOCK_RECORD
  5
1F
330
1
100
AcDbSymbolTableRecord
100
AcDbBlockTableRecord
  2
*MODEL_SPACE
  0
BLOCK_RECORD
  5
1B
330
1
100
AcDbSymbolTableRecord
100
AcDbBlockTableRecord
  2
*PAPER_SPACE
  0
BLOCK_RECORD
  5
60
330
1
100
AcDbSymbolTableRecord
100
AcDbBlockTableRecord
  2
SE
  0
BLOCK_RECORD
  5
154
330
1
100
AcDbSymbolTableRecord
100
AcDbBlockTableRecord
  2
GDIMGGROUP
  0
BLOCK_RECORD
  5
15E
330
1
100
AcDbSymbolTableRecord
100
AcDbBlockTableRecord
  2
GDIMGGROUP1
  0
BLOCK_RECORD
  5
16A
330
1
100
AcDbSymbolTableRecord
100
AcDbBlockTableRecord
  2
GDIMGGROUP2
  0
BLOCK_RECORD
  5
174
330
1
100
AcDbSymbolTableRecord
100
AcDbBlockTableRecord
  2
GDIMGGROUP3
  0
BLOCK_RECORD
  5
17E
330
1
100
AcDbSymbolTableRecord
100
AcDbBlockTableRecord
  2
GDIMGGROUP4
  0
BLOCK_RECORD
  5
188
330
1
100
AcDbSymbolTableRecord
100
AcDbBlockTableRecord
  2
GDIMGGROUP5
  0
ENDTAB
  0
ENDSEC
  0
SECTION
  2
BLOCKS
  0
BLOCK
  5
20
330
1F
100
AcDbEntity
  8
0
100
AcDbBlockBegin
  2
*MODEL_SPACE
 70
     0
 10
0.0
 20
0.0
 30
0.0
  3
*MODEL_SPACE
  1

  0
ENDBLK
  5
21
330
1F
100
AcDbEntity
  8
0
100
AcDbBlockEnd
  0
BLOCK
  5
1C
330
1B
100
AcDbEntity
 67
     1
  8
0
100
AcDbBlockBegin
  2
*PAPER_SPACE
 70
     0
 10
0.0
 20
0.0
 30
0.0
  3
*PAPER_SPACE
  1

  0
ENDBLK
  5
1D
330
1B
100
AcDbEntity
 67
     1
  8
0
100
AcDbBlockEnd
  0
BLOCK
  5
152
330
60
100
AcDbEntity
  8
0
100
AcDbBlockBegin
  2
SE
 70
     0
 10
0.0
 20
0.0
 30
0.0
  3
SE
  1

  0
LINE
  5
63
330
60
100
AcDbEntity
  8
SHIBORI_RING_001
  6
CONTINUOUS
 62
     7
100
AcDbLine
 10
103.4703458655
 20
178.5031202352
 30
0.0
 11
103.4703458655
 21
136.9031202352
 31
0.0
  0
LINE
  5
64
330
60
100
AcDbEntity
  8
SHIBORI_RING_001
  6
CONTINUOUS
 62
     7
100
AcDbLine
 10
103.6703458655
 20
178.7031202352
 30
0.0
 11
103.6703458655
 21
136.7031202352
 31
0.0
  0
LINE
  5
65
330
60
100
AcDbEntity
  8
SHIBORI_RING_001
  6
CONTINUOUS
 62
     7
100
AcDbLine
 10
123.8703458655
 20
178.7031202352
 30
0.0
 11
123.8703458655
 21
136.7031202352
 31
0.0
  0
LINE
  5
66
330
60
100
AcDbEntity
  8
SHIBORI_RING_001
  6
CONTINUOUS
 62
     7
100
AcDbLine
 10
124.0703458655
 20
178.5031202352
 30
0.0
 11
124.0703458655
 21
136.9031202352
 31
0.0
  0
LINE
  5
67
330
60
100
AcDbEntity
  8
SHIBORI_RING_001
  6
CONTINUOUS
 62
     7
100
AcDbLine
 10
103.6703458655
 20
178.7031202352
 30
0.0
 11
103.4703458655
 21
178.5031202352
 31
0.0
  0
LINE
  5
68
330
60
100
AcDbEntity
  8
SHIBORI_RING_001
  6
CONTINUOUS
 62
     7
100
AcDbLine
 10
103.4703458655
 20
136.9031202352
 30
0.0
 11
103.6703458655
 21
136.7031202352
 31
0.0
  0
LINE
  5
69
330
60
100
AcDbEntity
  8
SHIBORI_RING_001
  6
CONTINUOUS
 62
     7
100
AcDbLine
 10
103.6703458655
 20
136.7031202352
 30
0.0
 11
123.8703458655
 21
136.7031202352
 31
0.0
  0
LINE
  5
6A
330
60
100
AcDbEntity
  8
SHIBORI_RING_001
  6
CONTINUOUS
 62
     7
100
AcDbLine
 10
123.8703458655
 20
178.7031202352
 30
0.0
 11
103.6703458655
 21
178.7031202352
 31
0.0
  0
LINE
  5
6B
330
60
100
AcDbEntity
  8
SHIBORI_RING_001
  6
CONTINUOUS
 62
     7
100
AcDbLine
 10
123.8703458655
 20
136.7031202352
 30
0.0
 11
124.0703458655
 21
136.9031202352
 31
0.0
  0
LINE
  5
6C
330
60
100
AcDbEntity
  8
SHIBORI_RING_001
  6
CONTINUOUS
 62
     7
100
AcDbLine
 10
124.0703458655
 20
178.5031202352
 30
0.0
 11
123.8703458655
 21
178.7031202352
 31
0.0
  0
LINE
  5
6E
330
60
100
AcDbEntity
  8
KOTEIWAKU_001_SE
  6
CONTINUOUS
 62
     7
100
AcDbLine
 10
102.9703458655
 20
178.5031202352
 30
0.0
 11
102.9703458655
 21
136.9031202352
 31
0.0
  0
LINE
  5
6F
330
60
100
AcDbEntity
  8
KOTEIWAKU_001_SE
  6
CONTINUOUS
 62
     7
100
AcDbLine
 10
102.7703458655
 20
178.7031288954
 30
0.0
 11
102.7703458655
 21
157.9531202352
 31
0.0
  0
LINE
  5
70
330
60
100
AcDbEntity
  8
KOTEIWAKU_001_SE
  6
CONTINUOUS
 62
     7
100
AcDbLine
 10
102.7703458655
 20
157.4531202352
 30
0.0
 11
102.7703458655
 21
136.7031115749
 31
0.0
  0
LINE
  5
71
330
60
100
AcDbEntity
  8
KOTEIWAKU_001_SE
  6
CONTINUOUS
 62
     7
100
AcDbLine
 10
94.1703408655
 20
178.7031288954
 30
0.0
 11
94.1703408655
 21
157.9531202352
 31
0.0
  0
LINE
  5
72
330
60
100
AcDbEntity
  8
KOTEIWAKU_001_SE
  6
CONTINUOUS
 62
     7
100
AcDbLine
 10
94.1703408655
 20
157.4531202352
 30
0.0
 11
94.1703408655
 21
136.7031115749
 31
0.0
  0
LINE
  5
73
330
60
100
AcDbEntity
  8
KOTEIWAKU_001_SE
  6
CONTINUOUS
 62
     7
100
AcDbLine
 10
93.9703408655
 20
178.5031288954
 30
0.0
 11
93.9703408655
 21
136.9031115749
 31
0.0
  0
LINE
  5
74
330
60
100
AcDbEntity
  8
KOTEIWAKU_001_SE
  6
CONTINUOUS
 62
     7
100
AcDbLine
 10
102.7703458655
 20
157.9531202352
 30
0.0
 11
102.8822569791
 21
157.8422292041
 31
0.0
  0
ARC
  5
75
330
60
100
AcDbEntity
  8
KOTEIWAKU_001_SE
  6
CONTINUOUS
 62
     7
100
AcDbCircle
 10
102.7446570643
 20
157.7031202352
 30
0.0
 40
0.1956656377172424
100
AcDbArc
 50
314.687535955
 51
45.312464045
  0
LINE
  5
76
330
60
100
AcDbEntity
  8
KOTEIWAKU_001_SE
  6
CONTINUOUS
 62
     7
100
AcDbLine
 10
102.8822569791
 20
157.5640112662
 30
0.0
 11
102.7703458655
 21
157.4531202352
 31
0.0
  0
LINE
  5
77
330
60
100
AcDbEntity
  8
KOTEIWAKU_001_SE
  6
CONTINUOUS
 62
     7
100
AcDbLine
 10
102.7703458655
 20
157.4531202352
 30
0.0
 11
94.1703408655
 21
157.4531202352
 31
0.0
  0
LINE
  5
78
330
60
100
AcDbEntity
  8
KOTEIWAKU_001_SE
  6
CONTINUOUS
 62
     7
100
AcDbLine
 10
94.1703408655
 20
157.4531202352
 30
0.0
 11
94.058424906
 21
157.5640112662
 31
0.0
  0
ARC
  5
79
330
60
100
AcDbEntity
  8
KOTEIWAKU_001_SE
  6
CONTINUOUS
 62
     7
100
AcDbCircle
 10
94.196016537
 20
157.7031202352
 30
0.0
 40
0.1956598123628859
100
AcDbArc
 50
134.6858113607
 51
225.3141886392
  0
LINE
  5
7A
330
60
100
AcDbEntity
  8
KOTEIWAKU_001_SE
  6
CONTINUOUS
 62
     7
100
AcDbLine
 10
94.058424906
 20
157.8422292041
 30
0.0
 11
94.1703408655
 21
157.9531202352
 31
0.0
  0
LINE
  5
7B
330
60
100
AcDbEntity
  8
KOTEIWAKU_001_SE
  6
CONTINUOUS
 62
     7
100
AcDbLine
 10
102.7703458655
 20
157.9531202352
 30
0.0
 11
94.1703408655
 21
157.9531202352
 31
0.0
  0
SPLINE
  5
7C
330
60
100
AcDbEntity
  8
KOTEIWAKU_001_SE
  6
CONTINUOUS
 62
     7
100
AcDbSpline
210
0.0
220
0.0
230
1.0
 70
     8
 71
     3
 72
    32
 73
    28
 74
     0
 42
0.0000000051565529
 43
0.0000000001
 40
0.0575499461223694
 40
0.0575499461223694
 40
0.0575499461223694
 40
0.0575499461223694
 40
0.1440829533142601
 40
0.1440829533142601
 40
0.1440829533142601
 40
0.2514259379761115
 40
0.2514259379761115
 40
0.2514259379761115
 40
0.3588318216124363
 40
0.3588318216124363
 40
0.3588318216124363
 40
0.4662399495816936
 40
0.4662399495816936
 40
0.4662399495816936
 40
0.5735860490442599
 40
0.5735860490442599
 40
0.5735860490442599
 40
0.6809027022337616
 40
0.6809027022337616
 40
0.6809027022337616
 40
0.7882684155099712
 40
0.7882684155099712
 40
0.7882684155099712
 40
0.8956851383198238
 40
0.8956851383198238
 40
0.8956851383198238
 40
0.9393321419402434
 40
0.9393321419402434
 40
0.9393321419402434
 40
0.9393321419402434
 10
97.12401071066115
 20
139.5852078114236
 30
0.0
 10
97.13643654865578
 20
139.6193909986498
 30
0.0
 10
97.15815145892992
 20
139.6532415421106
 30
0.0
 10
97.18809146939635
 20
139.6848479082667
 30
0.0
 10
97.22523179963865
 20
139.7240553386753
 30
0.0
 10
97.27605192412086
 20
139.7608821547057
 30
0.0
 10
97.33634836461316
 20
139.7920780514691
 30
0.0
 10
97.39667912845546
 20
139.8232917062904
 30
0.0
 10
97.46816167070294
 20
139.8497184497476
 30
0.0
 10
97.54488122435276
 20
139.8689642106689
 30
0.0
 10
97.62160147033751
 20
139.8882101452684
 30
0.0
 10
97.70567687605285
 20
139.9007973823536
 30
0.0
 10
97.79013945881587
 20
139.9055663476105
 30
0.0
 10
97.87455423981898
 20
139.9103326138625
 30
0.0
 10
97.96168437560438
 20
139.9074186844304
 30
0.0
 10
98.04431123865021
 20
139.8970938886652
 30
0.0
 10
98.12691683415939
 20
139.8867717504252
 30
0.0
 10
98.2072987983735
 20
139.8687633824012
 30
0.0
 10
98.27881054895919
 20
139.8447168622629
 30
0.0
 10
98.35035469753498
 20
139.8206594479859
 30
0.0
 10
98.4149934902759
 20
139.789904908477
 30
0.0
 10
98.46738273542887
 20
139.7552138940285
 30
0.0
 10
98.51979588984494
 20
139.7205070473881
 30
0.0
 10
98.56139384420369
 20
139.6809123216558
 30
0.0
 10
98.58872811933138
 20
139.6398909990845
 30
0.0
 10
98.59983503489966
 20
139.6232225356198
 30
0.0
 10
98.6087132002572
 20
139.606135548824
 30
0.0
 10
98.61528319601484
 20
139.5888774210793
 30
0.0
  0
ELLIPSE
  5
7D
330
60
100
AcDbEntity
  8
KOTEIWAKU_001_SE
  6
CONTINUOUS
 62
     7
100
AcDbEllipse
 10
97.8703458655
 20
139.5165851707
 30
0.0
 11
-0.758742079217084
 21
-3.330068293149873E-15
 31
0.0
210
0.0
220
0.0
230
1.0
 40
0.5
 41
3.342424381533827
 42
6.082353579265499
  0
SPLINE
  5
7E
330
60
100
AcDbEntity
  8
KOTEIWAKU_001_SE
  6
CONTINUOUS
 62
     7
100
AcDbSpline
210
0.0
220
0.0
230
1.0
 70
     8
 71
     3
 72
    35
 73
    31
 74
     0
 42
0.0000000051650705
 43
0.0000000001
 40
0.0592395396451049
 40
0.0592395396451049
 40
0.0592395396451049
 40
0.0592395396451049
 40
0.110435690529419
 40
0.110435690529419
 40
0.110435690529419
 40
0.2177942998208905
 40
0.2177942998208905
 40
0.2177942998208905
 40
0.3252151330762459
 40
0.3252151330762459
 40
0.3252151330762459
 40
0.4326643614653879
 40
0.4326643614653879
 40
0.4326643614653879
 40
0.4997549042853107
 40
0.4997549042853107
 40
0.4997549042853107
 40
0.607132154576732
 40
0.607132154576732
 40
0.607132154576732
 40
0.7145064174197957
 40
0.7145064174197957
 40
0.7145064174197957
 40
0.8219254766480759
 40
0.8219254766480759
 40
0.8219254766480759
 40
0.9293750830558042
 40
0.9293750830558042
 40
0.9293750830558042
 40
0.9454481585356176
 40
0.9454481585356176
 40
0.9454481585356176
 40
0.9454481585356176
 10
98.61590374862712
 20
175.8190405712038
 30
0.0
 10
98.60836391159779
 20
175.7987802843424
 30
0.0
 10
98.5976437943227
 20
175.7787332677113
 30
0.0
 10
98.5838827288199
 20
175.7592978530847
 30
0.0
 10
98.55502536605469
 20
175.7185412118016
 30
0.0
 10
98.51200110656393
 20
175.6793572085102
 30
0.0
 10
98.45837039874631
 20
175.6451716518523
 30
0.0
 10
98.40470923934924
 20
175.6109666845948
 30
0.0
 10
98.33894969937383
 20
175.5808327444922
 30
0.0
 10
98.26653077396168
 20
175.5574795458535
 30
0.0
 10
98.194093920594
 20
175.5341205659208
 30
0.0
 10
98.11299454440315
 20
175.5169109349452
 30
0.0
 10
98.02995120575423
 20
175.5074298000111
 30
0.0
 10
97.97764748325089
 20
175.5014582355404
 30
0.0
 10
97.92384814567717
 20
175.4984157851123
 30
0.0
 10
97.87034586545276
 20
175.4984157851123
 30
0.0
 10
97.78545543756259
 20
175.4984157851123
 30
0.0
 10
97.6993944507283
 20
175.5062122000279
 30
0.0
 10
97.61929085828747
 20
175.5210855349202
 30
0.0
 10
97.53918853265588
 20
175.5359586345962
 30
0.0
 10
97.46283441654165
 20
175.5583112942408
 30
0.0
 10
97.39654154272597
 20
175.5861079451526
 30
0.0
 10
97.33022146378111
 20
175.6139160031952
 30
0.0
 10
97.27214161742145
 20
175.647929153649
 30
0.0
 10
97.2271069856021
 20
175.6851172255956
 30
0.0
 10
97.18206031600432
 20
175.7223152379314
 30
0.0
 10
97.14882365482744
 20
175.7637073625216
 30
0.0
 10
97.13015490942482
 20
175.805710845118
 30
0.0
 10
97.12735760735362
 20
175.8120045957869
 30
0.0
 10
97.12487270298121
 20
175.8183334125225
 30
0.0
 10
97.12270288743444
 20
175.8246849806421
 30
0.0
  0
ELLIPSE
  5
7F
330
60
100
AcDbEntity
  8
KOTEIWAKU_001_SE
  6
CONTINUOUS
 62
     7
100
AcDbEllipse
 10
97.8703458655
 20
175.8896552996
 30
0.0
 11
0.7587420792071649
 21
-3.608825610755534E-15
 31
0.0
210
0.0
220
0.0
230
1.0
 40
0.5
 41
3.341036073994658
 42
6.083741886710348
  0
LINE
  5
80
330
60
100
AcDbEntity
  8
KOTEIWAKU_001_SE
  6
CONTINUOUS
 62
     7
100
AcDbLine
 10
102.9703458655
 20
137.5531202352
 30
0.0
 11
103.4703458655
 21
137.5531202352
 31
0.0
  0
LINE
  5
81
330
60
100
AcDbEntity
  8
KOTEIWAKU_001_SE
  6
CONTINUOUS
 62
     7
100
AcDbLine
 10
103.4703458655
 20
177.8531202352
 30
0.0
 11
102.9703458655
 21
177.8531202352
 31
0.0
  0
LINE
  5
82
330
60
100
AcDbEntity
  8
KOTEIWAKU_001_SE
  6
CONTINUOUS
 62
     7
100
AcDbLine
 10
102.7703458655
 20
136.7031115749
 30
0.0
 11
102.9703458655
 21
136.9031202352
 31
0.0
  0
LINE
  5
83
330
60
100
AcDbEntity
  8
KOTEIWAKU_001_SE
  6
CONTINUOUS
 62
     7
100
AcDbLine
 10
102.9703458655
 20
178.5031202352
 30
0.0
 11
102.7703458655
 21
178.7031288954
 31
0.0
  0
LINE
  5
84
330
60
100
AcDbEntity
  8
KOTEIWAKU_001_SE
  6
CONTINUOUS
 62
     7
100
AcDbLine
 10
94.1703408655
 20
136.7031115749
 30
0.0
 11
102.7703458655
 21
136.7031115749
 31
0.0
  0
LINE
  5
85
330
60
100
AcDbEntity
  8
KOTEIWAKU_001_SE
  6
CONTINUOUS
 62
     7
100
AcDbLine
 10
102.7703458655
 20
178.7031288954
 30
0.0
 11
94.1703408655
 21
178.7031288954
 31
0.0
  0
LINE
  5
86
330
60
100
AcDbEntity
  8
KOTEIWAKU_001_SE
  6
CONTINUOUS
 62
     7
100
AcDbLine
 10
94.1703408655
 20
178.7031288954
 30
0.0
 11
93.9703408655
 21
178.5031288954
 31
0.0
  0
LINE
  5
87
330
60
100
AcDbEntity
  8
KOTEIWAKU_001_SE
  6
CONTINUOUS
 62
     7
100
AcDbLine
 10
93.9703408655
 20
136.9031115749
 30
0.0
 11
94.1703408655
 21
136.7031115749
 31
0.0
  0
LINE
  5
88
330
60
100
AcDbEntity
  8
KOTEIWAKU_001_SE
  6
CONTINUOUS
 62
     7
100
AcDbLine
 10
92.9703424504
 20
137.5531202352
 30
0.0
 11
93.9703408655
 21
137.5531202352
 31
0.0
  0
LINE
  5
89
330
60
100
AcDbEntity
  8
KOTEIWAKU_001_SE
  6
CONTINUOUS
 62
     7
100
AcDbLine
 10
93.9703408655
 20
177.8531202352
 30
0.0
 11
92.9703424504
 21
177.8531202352
 31
0.0
  0
LINE
  5
8B
330
60
100
AcDbEntity
  8
MOUNT_001_SEP-00
  6
CONTINUOUS
 62
     7
100
AcDbLine
 10
129.1703458655
 20
177.9531202352
 30
0.0
 11
129.1703458655
 21
137.4531202352
 31
0.0
  0
LINE
  5
8C
330
60
100
AcDbEntity
  8
MOUNT_001_SEP-00
  6
CONTINUOUS
 62
     7
100
AcDbLine
 10
129.3703458655
 20
172.5031202352
 30
0.0
 11
129.3703458655
 21
142.9031202352
 31
0.0
  0
LINE
  5
8D
330
60
100
AcDbEntity
  8
MOUNT_001_SEP-00
  6
CONTINUOUS
 62
     7
100
AcDbLine
 10
130.4203458655
 20
169.7031202352
 30
0.0
 11
130.4203458655
 21
145.7031202352
 31
0.0
  0
LINE
  5
8E
330
60
100
AcDbEntity
  8
MOUNT_001_SEP-00
  6
CONTINUOUS
 62
     7
100
AcDbLine
 10
131.1203458655
 20
170.4031202352
 30
0.0
 11
131.1203458655
 21
145.0031202352
 31
0.0
  0
LINE
  5
8F
330
60
100
AcDbEntity
  8
MOUNT_001_SEP-00
  6
CONTINUOUS
 62
     7
100
AcDbLine
 10
132.6703458655
 20
170.4031202352
 30
0.0
 11
132.6703458655
 21
145.0031202352
 31
0.0
  0
LINE
  5
90
330
60
100
AcDbEntity
  8
MOUNT_001_SEP-00
  6
CONTINUOUS
 62
     7
100
AcDbLine
 10
133.3703458655
 20
169.7031202352
 30
0.0
 11
133.3703458655
 21
145.7031202352
 31
0.0
  0
LINE
  5
91
330
60
100
AcDbEntity
  8
MOUNT_001_SEP-00
  6
CONTINUOUS
 62
     7
100
AcDbLine
 10
124.5703458655
 20
178.2531202352
 30
0.0
 11
124.5703458655
 21
137.1531202352
 31
0.0
  0
LINE
  5
92
330
60
100
AcDbEntity
  8
MOUNT_001_SEP-00
  6
CONTINUOUS
 62
     7
100
AcDbLine
 10
124.7703458655
 20
178.4531202352
 30
0.0
 11
124.7703458655
 21
136.9531202352
 31
0.0
  0
LINE
  5
93
330
60
100
AcDbEntity
  8
MOUNT_001_SEP-00
  6
CONTINUOUS
 62
     7
100
AcDbLine
 10
128.6703458655
 20
178.4531202352
 30
0.0
 11
128.6703458655
 21
136.9531202352
 31
0.0
  0
CIRCLE
  5
94
330
60
100
AcDbEntity
  8
MOUNT_001_SEP-00
  6
CONTINUOUS
 62
     7
100
AcDbCircle
 10
126.3703458655
 20
157.7031202352
 30
0.0
 40
0.6749999999999997
  0
ARC
  5
95
330
60
100
AcDbEntity
  8
MOUNT_001_SEP-00
  6
CONTINUOUS
 62
     7
100
AcDbCircle
 10
126.3703214529
 20
116.2138102782
 30
0.0
 40
20.75029241842491
100
AcDbArc
 50
88.1357913469
 51
91.8639348769
  0
ARC
  5
96
330
60
100
AcDbEntity
  8
MOUNT_001_SEP-00
  6
CONTINUOUS
 62
     7
100
AcDbCircle
 10
126.3703214529
 20
199.1924301809
 30
0.0
 40
20.75029240714152
100
AcDbArc
 50
268.1360651221
 51
271.8642086542
  0
LINE
  5
97
330
60
100
AcDbEntity
  8
MOUNT_001_SEP-00
  6
CONTINUOUS
 62
     7
100
AcDbLine
 10
129.1703458655
 20
142.7031202352
 30
0.0
 11
129.3703458655
 21
142.9031202352
 31
0.0
  0
LINE
  5
98
330
60
100
AcDbEntity
  8
MOUNT_001_SEP-00
  6
CONTINUOUS
 62
     7
100
AcDbLine
 10
129.3703458655
 20
172.5031202352
 30
0.0
 11
129.1703458655
 21
172.7031202352
 31
0.0
  0
LINE
  5
99
330
60
100
AcDbEntity
  8
MOUNT_001_SEP-00
  6
CONTINUOUS
 62
     7
100
AcDbLine
 10
129.3703458655
 20
145.7031202352
 30
0.0
 11
130.4203458655
 21
145.7031202352
 31
0.0
  0
LINE
  5
9A
330
60
100
AcDbEntity
  8
MOUNT_001_SEP-00
  6
CONTINUOUS
 62
     7
100
AcDbLine
 10
130.4203458655
 20
169.7031202352
 30
0.0
 11
129.3703458655
 21
169.7031202352
 31
0.0
  0
LINE
  5
9B
330
60
100
AcDbEntity
  8
MOUNT_001_SEP-00
  6
CONTINUOUS
 62
     7
100
AcDbLine
 10
131.1203458655
 20
170.4031202352
 30
0.0
 11
130.4203458655
 21
169.7031202352
 31
0.0
  0
LINE
  5
9C
330
60
100
AcDbEntity
  8
MOUNT_001_SEP-00
  6
CONTINUOUS
 62
     7
100
AcDbLine
 10
130.4203458655
 20
145.7031202352
 30
0.0
 11
131.1203458655
 21
145.0031202352
 31
0.0
  0
LINE
  5
9D
330
60
100
AcDbEntity
  8
MOUNT_001_SEP-00
  6
CONTINUOUS
 62
     7
100
AcDbLine
 10
131.1203458655
 20
145.0031202352
 30
0.0
 11
132.6703458655
 21
145.0031202352
 31
0.0
  0
LINE
  5
9E
330
60
100
AcDbEntity
  8
MOUNT_001_SEP-00
  6
CONTINUOUS
 62
     7
100
AcDbLine
 10
132.6703458655
 20
170.4031202352
 30
0.0
 11
131.1203458655
 21
170.4031202352
 31
0.0
  0
LINE
  5
9F
330
60
100
AcDbEntity
  8
MOUNT_001_SEP-00
  6
CONTINUOUS
 62
     7
100
AcDbLine
 10
132.6703458655
 20
145.0031202352
 30
0.0
 11
133.3703458655
 21
145.7031202352
 31
0.0
  0
LINE
  5
A0
330
60
100
AcDbEntity
  8
MOUNT_001_SEP-00
  6
CONTINUOUS
 62
     7
100
AcDbLine
 10
133.3703458655
 20
169.7031202352
 30
0.0
 11
132.6703458655
 21
170.4031202352
 31
0.0
  0
LINE
  5
A1
330
60
100
AcDbEntity
  8
MOUNT_001_SEP-00
  6
CONTINUOUS
 62
     7
100
AcDbLine
 10
124.0703458655
 20
137.6031202352
 30
0.0
 11
124.5703458655
 21
137.6031202352
 31
0.0
  0
LINE
  5
A2
330
60
100
AcDbEntity
  8
MOUNT_001_SEP-00
  6
CONTINUOUS
 62
     7
100
AcDbLine
 10
124.5703458655
 20
177.8031202352
 30
0.0
 11
124.0703458655
 21
177.8031202352
 31
0.0
  0
LINE
  5
A3
330
60
100
AcDbEntity
  8
MOUNT_001_SEP-00
  6
CONTINUOUS
 62
     7
100
AcDbLine
 10
124.7703458655
 20
178.4531202352
 30
0.0
 11
124.5703458655
 21
178.2531202352
 31
0.0
  0
LINE
  5
A4
330
60
100
AcDbEntity
  8
MOUNT_001_SEP-00
  6
CONTINUOUS
 62
     7
100
AcDbLine
 10
124.5703458655
 20
137.1531202352
 30
0.0
 11
124.7703458655
 21
136.9531202352
 31
0.0
  0
LINE
  5
A5
330
60
100
AcDbEntity
  8
MOUNT_001_SEP-00
  6
CONTINUOUS
 62
     7
100
AcDbLine
 10
127.0453458639
 20
136.9531202352
 30
0.0
 11
128.6703458655
 21
136.9531202352
 31
0.0
  0
LINE
  5
A6
330
60
100
AcDbEntity
  8
MOUNT_001_SEP-00
  6
CONTINUOUS
 62
     7
100
AcDbLine
 10
124.7703458655
 20
136.9531202352
 30
0.0
 11
125.7036045252
 21
136.9531202352
 31
0.0
  0
LINE
  5
A7
330
60
100
AcDbEntity
  8
MOUNT_001_SEP-00
  6
CONTINUOUS
 62
     7
100
AcDbLine
 10
125.703604527
 20
178.4531202352
 30
0.0
 11
124.7703458655
 21
178.4531202352
 31
0.0
  0
LINE
  5
A8
330
60
100
AcDbEntity
  8
MOUNT_001_SEP-00
  6
CONTINUOUS
 62
     7
100
AcDbLine
 10
128.6703458655
 20
178.4531202352
 30
0.0
 11
127.0453458609
 21
178.4531202352
 31
0.0
  0
LINE
  5
A9
330
60
100
AcDbEntity
  8
MOUNT_001_SEP-00
  6
CONTINUOUS
 62
     7
100
AcDbLine
 10
128.6703458655
 20
136.9531202352
 30
0.0
 11
129.1703458655
 21
137.4531202352
 31
0.0
  0
LINE
  5
AA
330
60
100
AcDbEntity
  8
MOUNT_001_SEP-00
  6
CONTINUOUS
 62
     7
100
AcDbLine
 10
129.1703458655
 20
177.9531202352
 30
0.0
 11
128.6703458655
 21
178.4531202352
 31
0.0
  0
ARC
  5
AB
330
60
100
AcDbEntity
  8
MOUNT_001_SEP-00
  6
CONTINUOUS
 62
     7
100
AcDbCircle
 10
126.3703458655
 20
157.7031202352
 30
0.0
 40
0.8499999999999995
100
AcDbArc
 50
75.0
 51
15.0
  0
LINE
  5
AD
330
60
100
AcDbEntity
  8
ST17_20_001_SEP-
  6
CONTINUOUS
 62
     7
100
AcDbLine
 10
127.0230088915
 20
157.8631202352
 30
0.0
 11
125.7155238919
 21
157.8631202352
 31
0.0
  0
LINE
  5
AE
330
60
100
AcDbEntity
  8
ST17_20_001_SEP-
  6
CONTINUOUS
 62
     7
100
AcDbLine
 10
127.0181060537
 20
157.5431202352
 30
0.0
 11
125.7241050124
 21
157.5431202352
 31
0.0
  0
ELLIPSE
  5
B0
330
60
100
AcDbEntity
  8
CNS14_22_001_SEP
  6
CONTINUOUS
 62
     7
100
AcDbEllipse
 10
109.4703458655
 20
165.0216778343
 30
0.0
 11
-1.000000002384288
 21
-3.285749931643525E-15
 31
0.0
210
0.0
220
0.0
230
1.0
 40
0.9396926208
 41
6.040435076602138
 42
6.283185307179586
  0
ELLIPSE
  5
B1
330
60
100
AcDbEntity
  8
CNS14_22_001_SEP
  6
CONTINUOUS
 62
     7
100
AcDbEllipse
 10
109.4703458655
 20
165.0216778343
 30
0.0
 11
-1.000000002384288
 21
-3.285749931643525E-15
 31
0.0
210
0.0
220
0.0
230
1.0
 40
0.9396926208
 41
0.0
 42
3.384342884167177
  0
ELLIPSE
  5
B2
330
60
100
AcDbEntity
  8
CNS14_22_001_SEP
  6
CONTINUOUS
 62
     7
100
AcDbEllipse
 10
109.4703458655
 20
165.1215268421
 30
0.0
 11
-0.9744586522172014
 21
-3.290441801552728E-15
 31
0.0
210
0.0
220
0.0
230
1.0
 40
0.9396926208
 41
2.880759827954184
 42
6.283185307179583
  0
ELLIPSE
  5
B3
330
60
100
AcDbEntity
  8
CNS14_22_001_SEP
  6
CONTINUOUS
 62
     7
100
AcDbEllipse
 10
109.4703458655
 20
165.1215268421
 30
0.0
 11
-0.9744586522172014
 21
-3.290441801552728E-15
 31
0.0
210
0.0
220
0.0
230
1.0
 40
0.9396926208
 41
0.0
 42
0.2086460509077468
  0
ELLIPSE
  5
B4
330
60
100
AcDbEntity
  8
CNS14_22_001_SEP
  6
CONTINUOUS
 62
     7
100
AcDbEllipse
 10
109.6117672149
 20
161.221338873
 30
0.0
 11
-8.216351476723631
 21
8.743658589234974
 31
0.0
210
0.0
220
0.0
230
1.0
 40
0.2418447608
 41
-1.288888562931556
 42
-1.265531162273643
  0
ELLIPSE
  5
B5
330
60
100
AcDbEntity
  8
CNS14_22_001_SEP
  6
CONTINUOUS
 62
     7
100
AcDbEllipse
 10
109.0177975047
 20
161.5137025499
 30
0.0
 11
8.20579751238582
 21
8.732427315816759
 31
0.0
210
0.0
220
0.0
230
1.0
 40
0.2418447624
 41
1.30220603536315
 42
1.335588427531617
  0
ELLIPSE
  5
B6
330
60
100
AcDbEntity
  8
CNS14_22_001_SEP
  6
CONTINUOUS
 62
     7
100
AcDbEllipse
 10
109.3289245025
 20
160.9555536677
 30
0.0
 11
-8.216351472593113
 21
8.74365858370289
 31
0.0
210
0.0
220
0.0
230
1.0
 40
0.2418447607
 41
-1.288888563053422
 42
-1.26553116238287
  0
ARC
  5
B7
330
60
100
AcDbEntity
  8
CNS14_22_001_SEP
  6
CONTINUOUS
 62
     7
100
AcDbCircle
 10
108.9769532724
 20
165.1902702515
 30
0.0
 40
0.1441940955372627
100
AcDbArc
 50
312.4982089429
 51
47.5017910571
  0
ELLIPSE
  5
B8
330
60
100
AcDbEntity
  8
CNS14_22_001_SEP
  6
CONTINUOUS
 62
     7
100
AcDbEllipse
 10
109.3289245126
 20
161.2213387559
 30
0.0
 11
8.216351583213068
 21
8.743658734217924
 31
0.0
210
0.0
220
0.0
230
1.0
 40
0.2418447637
 41
1.348905901387234
 42
1.372263301720378
  0
ELLIPSE
  5
B9
330
60
100
AcDbEntity
  8
CNS14_22_001_SEP
  6
CONTINUOUS
 62
     7
100
AcDbEllipse
 10
109.0177975046
 20
160.6631898415
 30
0.0
 11
-8.205797510476589
 21
8.732427313251724
 31
0.0
210
0.0
220
0.0
230
1.0
 40
0.2418447624
 41
-1.335588427600838
 42
-1.302206035423981
  0
ELLIPSE
  5
BA
330
60
100
AcDbEntity
  8
CNS14_22_001_SEP
  6
CONTINUOUS
 62
     7
100
AcDbEllipse
 10
109.6117672249
 20
160.955553546
 30
0.0
 11
8.216351583121053
 21
8.743658734174572
 31
0.0
210
0.0
220
0.0
230
1.0
 40
0.2418447637
 41
1.348905901368193
 42
1.372263301701666
  0
ARC
  5
BB
330
60
100
AcDbEntity
  8
CNS14_22_001_SEP
  6
CONTINUOUS
 62
     7
100
AcDbCircle
 10
109.4703458655
 20
164.6975303137
 30
0.0
 40
0.1653909459892496
100
AcDbArc
 50
46.8383903593
 51
133.1616096407
  0
ELLIPSE
  5
BC
330
60
100
AcDbEntity
  8
CNS14_22_001_SEP
  6
CONTINUOUS
 62
     7
100
AcDbEllipse
 10
109.328924506
 20
160.9555535475
 30
0.0
 11
-8.216351581769539
 21
8.743658732358236
 31
0.0
210
0.0
220
0.0
230
1.0
 40
0.2418447636
 41
-1.372263301763089
 42
-1.348905901425519
  0
ELLIPSE
  5
BD
330
60
100
AcDbEntity
  8
CNS14_22_001_SEP
  6
CONTINUOUS
 62
     7
100
AcDbEllipse
 10
109.9228942262
 20
160.6631898405
 30
0.0
 11
8.205797511384217
 21
8.73242731449127
 31
0.0
210
0.0
220
0.0
230
1.0
 40
0.2418447624
 41
1.302206035388234
 42
1.335588427561103
  0
ELLIPSE
  5
BE
330
60
100
AcDbEntity
  8
CNS14_22_001_SEP
  6
CONTINUOUS
 62
     7
100
AcDbEllipse
 10
109.6117672287
 20
161.2213388691
 30
0.0
 11
-8.21635146839853
 21
8.743658584421425
 31
0.0
210
0.0
220
0.0
230
1.0
 40
0.2418447604
 41
-1.372263305356761
 42
-1.348905904673314
  0
ARC
  5
BF
330
60
100
AcDbEntity
  8
CNS14_22_001_SEP
  6
CONTINUOUS
 62
     7
100
AcDbCircle
 10
109.9636409351
 20
165.1902702515
 30
0.0
 40
0.1441282298502155
100
AcDbArc
 50
132.4696247545
 51
227.5303752455
  0
ELLIPSE
  5
C0
330
60
100
AcDbEntity
  8
CNS14_22_001_SEP
  6
CONTINUOUS
 62
     7
100
AcDbEllipse
 10
109.6117672286
 20
160.9555536649
 30
0.0
 11
8.216351475332322
 21
8.743658587278142
 31
0.0
210
0.0
220
0.0
230
1.0
 40
0.2418447608
 41
1.265531162330776
 42
1.288888562992816
  0
ELLIPSE
  5
C1
330
60
100
AcDbEntity
  8
CNS14_22_001_SEP
  6
CONTINUOUS
 62
     7
100
AcDbEllipse
 10
109.9228942263
 20
161.5137025504
 30
0.0
 11
-8.205797511895165
 21
8.732427315179562
 31
0.0
210
0.0
220
0.0
230
1.0
 40
0.2418447624
 41
-1.3355884275414
 42
-1.302206035370711
  0
ELLIPSE
  5
C2
330
60
100
AcDbEntity
  8
CNS14_22_001_SEP
  6
CONTINUOUS
 62
     7
100
AcDbEllipse
 10
109.3289245151
 20
161.2213388662
 30
0.0
 11
8.21635148234949
 21
8.743658597215974
 31
0.0
210
0.0
220
0.0
230
1.0
 40
0.2418447609
 41
1.265531162009549
 42
1.288888562650311
  0
ARC
  5
C3
330
60
100
AcDbEntity
  8
CNS14_22_001_SEP
  6
CONTINUOUS
 62
     7
100
AcDbCircle
 10
109.4703458655
 20
165.6880746614
 30
0.0
 40
0.1691205967289892
100
AcDbArc
 50
228.0121628914
 51
311.9878371086
  0
LINE
  5
C4
330
60
100
AcDbEntity
  8
CNS14_22_001_SEP
  6
CONTINUOUS
 62
     7
100
AcDbLine
 10
109.78147287
 20
165.7444246792
 30
0.0
 11
109.78147287
 21
165.6824328373
 31
0.0
  0
LINE
  5
C5
330
60
100
AcDbEntity
  8
CNS14_22_001_SEP
  6
CONTINUOUS
 62
     7
100
AcDbLine
 10
109.1592188609
 20
165.7444246792
 30
0.0
 11
109.1592188609
 21
165.6824328373
 31
0.0
  0
ELLIPSE
  5
C6
330
60
100
AcDbEntity
  8
CNS14_22_001_SEP
  6
CONTINUOUS
 62
     7
100
AcDbEllipse
 10
109.4703458655
 20
165.6027359839
 30
0.0
 11
-0.1600291457890639
 21
3.498843829127743E-15
 31
0.0
210
0.0
220
0.0
230
1.0
 40
0.9396926208
 41
0.7855802748213394
 42
2.356012378768872
  0
LINE
  5
C7
330
60
100
AcDbEntity
  8
CNS14_22_001_SEP
  6
CONTINUOUS
 62
     7
100
AcDbLine
 10
109.5834829504
 20
165.4963831709
 30
0.0
 11
109.78147287
 21
165.6824328373
 31
0.0
  0
LINE
  5
C8
330
60
100
AcDbEntity
  8
CNS14_22_001_SEP
  6
CONTINUOUS
 62
     7
100
AcDbLine
 10
109.78147287
 20
165.6824328373
 30
0.0
 11
110.0308878773
 21
165.4480593955
 31
0.0
  0
ELLIPSE
  5
C9
330
60
100
AcDbEntity
  8
CNS14_22_001_SEP
  6
CONTINUOUS
 62
     7
100
AcDbEllipse
 10
109.9794635432
 20
165.1242838773
 30
0.0
 11
0.1600005623866932
 21
-2.939162648829603E-17
 31
0.0
210
0.0
220
0.0
230
1.0
 40
0.9396926208
 41
3.141592653589793
 42
3.926987302088838
  0
LINE
  5
CA
330
60
100
AcDbEntity
  8
CNS14_22_001_SEP
  6
CONTINUOUS
 62
     7
100
AcDbLine
 10
109.8663256629
 20
165.0179697934
 30
0.0
 11
110.0312048197
 21
164.8630340664
 31
0.0
  0
LINE
  5
CB
330
60
100
AcDbEntity
  8
CNS14_22_001_SEP
  6
CONTINUOUS
 62
     7
100
AcDbLine
 10
108.9094869112
 20
164.8630340664
 30
0.0
 11
109.074366068
 21
165.0179697934
 31
0.0
  0
ELLIPSE
  5
CC
330
60
100
AcDbEntity
  8
CNS14_22_001_SEP
  6
CONTINUOUS
 62
     7
100
AcDbEllipse
 10
108.9612281877
 20
165.1242838773
 30
0.0
 11
-0.1600005623866793
 21
1.043773248234914E-14
 31
0.0
210
0.0
220
0.0
230
1.0
 40
0.9396926208
 41
2.356198005090896
 42
3.141592653589793
  0
LINE
  5
CD
330
60
100
AcDbEntity
  8
CNS14_22_001_SEP
  6
CONTINUOUS
 62
     7
100
AcDbLine
 10
108.9098038536
 20
165.4480593955
 30
0.0
 11
109.1592188609
 21
165.6824328373
 31
0.0
  0
LINE
  5
CE
330
60
100
AcDbEntity
  8
CNS14_22_001_SEP
  6
CONTINUOUS
 62
     7
100
AcDbLine
 10
109.1592188609
 20
165.6824328373
 30
0.0
 11
109.3572087805
 21
165.4963831709
 31
0.0
  0
LINE
  5
CF
330
60
100
AcDbEntity
  8
CNS14_22_001_SEP
  6
CONTINUOUS
 62
     7
100
AcDbLine
 10
110.4410264329
 20
165.247554689
 30
0.0
 11
110.4162339407
 21
165.3416344969
 31
0.0
  0
LINE
  5
D0
330
60
100
AcDbEntity
  8
CNS14_22_001_SEP
  6
CONTINUOUS
 62
     7
100
AcDbLine
 10
108.5244577902
 20
165.3416344969
 30
0.0
 11
108.499665298
 21
165.247554689
 31
0.0
  0
LINE
  5
D1
330
60
100
AcDbEntity
  8
CNS14_22_001_SEP
  6
CONTINUOUS
 62
     7
100
AcDbLine
 10
109.8194629809
 20
165.1926879059
 30
0.0
 11
109.8194629809
 21
165.1242838773
 31
0.0
  0
LINE
  5
D2
330
60
100
AcDbEntity
  8
CNS14_22_001_SEP
  6
CONTINUOUS
 62
     7
100
AcDbLine
 10
109.1212287501
 20
165.1242838773
 30
0.0
 11
109.1212287501
 21
165.1926879059
 31
0.0
  0
ELLIPSE
  5
D3
330
60
100
AcDbEntity
  8
CNS14_22_001_SEP
  6
CONTINUOUS
 62
     7
100
AcDbEllipse
 10
109.4703458655
 20
136.6301734947
 30
0.0
 11
-0.7500000000000007
 21
1.377727649040773E-16
 31
0.0
210
0.0
220
0.0
230
1.0
 40
0.1736481777
 41
3.299593503122905
 42
3.451794027911748
  0
ELLIPSE
  5
D4
330
60
100
AcDbEntity
  8
CNS14_22_001_SEP
  6
CONTINUOUS
 62
     7
100
AcDbEllipse
 10
109.4703458655
 20
136.6301734947
 30
0.0
 11
-0.7500000000000007
 21
1.377727649040773E-16
 31
0.0
210
0.0
220
0.0
230
1.0
 40
0.1736481777
 41
-0.3437123784535201
 42
-0.1488218857227572
  0
ELLIPSE
  5
D5
330
60
100
AcDbEntity
  8
CNS14_22_001_SEP
  6
CONTINUOUS
 62
     7
100
AcDbEllipse
 10
109.4703458655
 20
136.6301734947
 30
0.0
 11
-1.000000002384288
 21
1.836970203100896E-16
 31
0.0
210
0.0
220
0.0
230
1.0
 40
0.1736481777
 41
0.0
 42
3.575130022443787
  0
ELLIPSE
  5
D6
330
60
100
AcDbEntity
  8
CNS14_22_001_SEP
  6
CONTINUOUS
 62
     7
100
AcDbEllipse
 10
109.4703458655
 20
136.6301734947
 30
0.0
 11
-1.000000002384288
 21
1.836970203100896E-16
 31
0.0
210
0.0
220
0.0
230
1.0
 40
0.1736481777
 41
5.849647938325559
 42
6.283185307179586
  0
LINE
  5
D7
330
60
100
AcDbEntity
  8
CNS14_22_001_SEP
  6
CONTINUOUS
 62
     7
100
AcDbLine
 10
108.7703458655
 20
136.7031202352
 30
0.0
 11
108.7703458655
 21
136.6794138824
 31
0.0
  0
LINE
  5
D8
330
60
100
AcDbEntity
  8
CNS14_22_001_SEP
  6
CONTINUOUS
 62
     7
100
AcDbLine
 10
110.1703458655
 20
136.6794138824
 30
0.0
 11
110.1703458655
 21
136.7031202352
 31
0.0
  0
SPLINE
  5
D9
330
60
100
AcDbEntity
  8
CNS14_22_001_SEP
  6
CONTINUOUS
 62
     7
100
AcDbSpline
210
0.0
220
0.0
230
1.0
 70
     8
 71
     3
 72
     8
 73
     4
 74
     0
 42
0.0000007175446293
 43
0.0000000001
 40
0.0
 40
0.0
 40
0.0
 40
0.0
 40
0.9870951708339312
 40
0.9870951708339312
 40
0.9870951708339312
 40
0.9870951708339312
 10
108.7683250534083
 20
136.6803291838046
 30
0.0
 10
108.7692955110149
 20
136.6717198990655
 30
0.0
 10
108.7694031765052
 20
136.6679688312534
 30
0.0
 10
108.768648049879
 20
136.6690759803682
 30
0.0
  0
LINE
  5
DA
330
60
100
AcDbEntity
  8
CNS14_22_001_SEP
  6
CONTINUOUS
 62
     7
100
AcDbLine
 10
108.4704648603
 20
136.6274946917
 30
0.0
 11
108.4960031711
 21
136.3400593525
 31
0.0
  0
LINE
  5
DB
330
60
100
AcDbEntity
  8
CNS14_22_001_SEP
  6
CONTINUOUS
 62
     7
100
AcDbLine
 10
110.4446885598
 20
136.3400593525
 30
0.0
 11
110.4702268706
 21
136.6274946917
 31
0.0
  0
ARC
  5
DC
330
60
100
AcDbEntity
  8
CNS14_22_001_SEP
  6
CONTINUOUS
 62
     7
100
AcDbCircle
 10
109.4405271968
 20
139.6010986167
 30
0.0
 40
3.576002365842732
100
AcDbArc
 50
262.4143358158
 51
270.4777691652
  0
SPLINE
  5
DD
330
60
100
AcDbEntity
  8
CNS14_22_001_SEP
  6
CONTINUOUS
 62
     7
100
AcDbSpline
210
0.0
220
0.0
230
1.0
 70
     8
 71
     3
 72
    15
 73
    11
 74
     0
 42
0.0000000166219319
 43
0.0000000001
 40
0.0
 40
0.0
 40
0.0
 40
0.0
 40
0.0325477564601501
 40
0.142448419984715
 40
0.2445053839237984
 40
0.353132918199997
 40
0.4853431889761592
 40
0.6755011563103122
 40
0.8802711724713252
 40
1.0
 40
1.0
 40
1.0
 40
1.0
 10
108.4990014218659
 20
136.3410894716419
 30
0.0
 10
108.4987248021332
 20
136.3324233707452
 30
0.0
 10
108.4978253124893
 20
136.2999510386155
 30
0.0
 10
108.5240403286373
 20
136.2436427030815
 30
0.0
 10
108.5667103108923
 20
136.1900222291022
 30
0.0
 10
108.6186673325129
 20
136.1511507387291
 30
0.0
 10
108.683016425814
 20
136.1191108026205
 30
0.0
 10
108.7680631440411
 20
136.0916974391163
 30
0.0
 10
108.8677270252993
 20
136.0695058328532
 30
0.0
 10
108.9379270027023
 20
136.0602959841056
 30
0.0
 10
108.968464928791
 20
136.0563912753502
 30
0.0
  0
SPLINE
  5
DE
330
60
100
AcDbEntity
  8
CNS14_22_001_SEP
  6
CONTINUOUS
 62
     7
100
AcDbSpline
210
0.0
220
0.0
230
1.0
 70
     8
 71
     3
 72
    18
 73
    14
 74
     0
 42
0.0000000090531829
 43
0.0000000001
 40
0.0
 40
0.0
 40
0.0
 40
0.0
 40
0.0631273538642951
 40
0.1837323045793636
 40
0.3049829257375707
 40
0.4276212661227611
 40
0.5533761842572819
 40
0.6869696391202603
 40
0.7791958199588834
 40
0.8508457368408409
 40
0.9187972968114198
 40
0.9870220737082785
 40
1.0
 40
1.0
 40
1.0
 40
1.0
 10
109.4703458654527
 20
136.0252205752006
 30
0.0
 10
109.502310665364
 20
136.0253698831716
 30
0.0
 10
109.5814190413688
 20
136.025875405694
 30
0.0
 10
109.7234816540263
 20
136.0311948648143
 30
0.0
 10
109.8780566136532
 20
136.0430984013091
 30
0.0
 10
110.0206903028727
 20
136.060851138795
 30
0.0
 10
110.1471663757697
 20
136.0849187253562
 30
0.0
 10
110.2434323319327
 20
136.1132371739234
 30
0.0
 10
110.316120947146
 20
136.147207462062
 30
0.0
 10
110.3738638141471
 20
136.1892138230055
 30
0.0
 10
110.4187318757655
 20
136.2468121335201
 30
0.0
 10
110.4442560498798
 20
136.3042464456327
 30
0.0
 10
110.4427077174454
 20
136.3345444512239
 30
0.0
 10
110.4424044762395
 20
136.3401854524205
 30
0.0
  0
ELLIPSE
  5
E0
330
60
100
AcDbEntity
  8
CNS14_30_001_SEP
  6
CONTINUOUS
 62
     7
100
AcDbEllipse
 10
97.8703458655
 20
139.2578914308
 30
0.0
 11
-1.000000002384288
 21
1.836970203100896E-16
 31
0.0
210
0.0
220
0.0
230
1.0
 40
0.5
 41
3.091059546049531
 42
6.283185307179586
  0
ELLIPSE
  5
E1
330
60
100
AcDbEntity
  8
CNS14_30_001_SEP
  6
CONTINUOUS
 62
     7
100
AcDbEllipse
 10
97.8703458655
 20
139.2578914308
 30
0.0
 11
-1.000000002384288
 21
1.836970203100896E-16
 31
0.0
210
0.0
220
0.0
230
1.0
 40
0.5
 41
0.0
 42
0.0505331075402624
  0
ELLIPSE
  5
E2
330
60
100
AcDbEntity
  8
CNS14_30_001_SEP
  6
CONTINUOUS
 62
     7
100
AcDbEllipse
 10
97.7289245155
 20
149.1464727125
 30
0.0
 11
5.365817749356785
 21
-10.73163527940969
 31
0.0
210
0.0
220
0.0
230
1.0
 40
0.6123724372
 41
-0.6547105410548584
 42
-0.6313531404097503
  0
ELLIPSE
  5
E3
330
60
100
AcDbEntity
  8
CNS14_30_001_SEP
  6
CONTINUOUS
 62
     7
100
AcDbEllipse
 10
98.3228942262
 20
148.9909093719
 30
0.0
 11
-5.358925266471536
 21
-10.71785050573325
 31
0.0
210
0.0
220
0.0
230
1.0
 40
0.6123724358
 41
0.6680280080603808
 42
0.7014104002290711
  0
ELLIPSE
  5
E4
330
60
100
AcDbEntity
  8
CNS14_30_001_SEP
  6
CONTINUOUS
 62
     7
100
AcDbEllipse
 10
98.0117672284
 20
149.287894046
 30
0.0
 11
5.365817751036022
 21
-10.73163525500402
 31
0.0
210
0.0
220
0.0
230
0.9999999999999999
 40
0.6123724374
 41
-0.6547105422049588
 42
-0.631353141534551
  0
SPLINE
  5
E5
330
60
100
AcDbEntity
  8
CNS14_30_001_SEP
  6
CONTINUOUS
 62
     7
100
AcDbSpline
210
0.0
220
0.0
230
1.0
 70
     8
 71
     3
 72
    20
 73
    16
 74
     0
 42
0.0000000641416445
 43
0.0000000001
 40
0.0
 40
0.0
 40
0.0
 40
0.0
 40
0.2137444315573367
 40
0.2137444315573367
 40
0.2137444315573367
 40
0.4286117530380567
 40
0.4286117530380567
 40
0.4286117530380567
 40
0.6433699458012424
 40
0.6433699458012424
 40
0.6433699458012424
 40
0.8580793715253078
 40
0.8580793715253078
 40
0.8580793715253078
 40
1.0
 40
1.0
 40
1.0
 40
1.0
 10
98.26632566291721
 20
138.8875689873297
 30
0.0
 10
98.25373666139409
 20
138.8808116195133
 30
0.0
 10
98.24313406378306
 20
138.8729602360576
 30
0.0
 10
98.23538860965664
 20
138.8646575080915
 30
0.0
 10
98.22760257887947
 20
138.8563112840454
 30
0.0
 10
98.22249049630915
 20
138.8472791038181
 30
0.0
 10
98.22047745448882
 20
138.8383095073376
 30
0.0
 10
98.21846541379378
 20
138.829344371614
 30
0.0
 10
98.2194938169401
 20
138.8201944513321
 30
0.0
 10
98.22347717654885
 20
138.8116177438434
 30
0.0
 10
98.22745968611522
 20
138.8030428666098
 30
0.0
 10
98.23450549818055
 20
138.7948045592471
 30
0.0
 10
98.24402988690198
 20
138.7875841253579
 30
0.0
 10
98.25037532842599
 20
138.7827736496033
 30
0.0
 10
98.25790053456707
 20
138.7783347542055
 30
0.0
 10
98.26632566291721
 20
138.7744319023399
 30
0.0
  0
ELLIPSE
  5
E6
330
60
100
AcDbEntity
  8
CNS14_30_001_SEP
  6
CONTINUOUS
 62
     7
100
AcDbEllipse
 10
98.0117672186
 20
149.1464729837
 30
0.0
 11
-5.365817729300629
 21
-10.73163557049958
 31
0.0
210
0.0
220
0.0
230
1.0
 40
0.6123724354
 41
0.7147278696084352
 42
0.738085269950354
  0
ELLIPSE
  5
E7
330
60
100
AcDbEntity
  8
CNS14_30_001_SEP
  6
CONTINUOUS
 62
     7
100
AcDbEllipse
 10
98.3228942263
 20
149.4434577276
 30
0.0
 11
5.358925266915069
 21
-10.71785050021182
 31
0.0
210
0.0
220
0.0
230
1.0
 40
0.6123724359
 41
-0.701410400500686
 42
-0.6680280083237271
  0
ELLIPSE
  5
E8
330
60
100
AcDbEntity
  8
CNS14_30_001_SEP
  6
CONTINUOUS
 62
     7
100
AcDbEllipse
 10
97.728924506
 20
149.2878943478
 30
0.0
 11
-5.365817728595507
 21
-10.73163557901146
 31
0.0
210
0.0
220
0.0
230
1.0
 40
0.6123724354
 41
0.7147278691881231
 42
0.7380852695210479
  0
ARC
  5
E9
330
60
100
AcDbEntity
  8
CNS14_30_001_SEP
  6
CONTINUOUS
 62
     7
100
AcDbCircle
 10
97.8703458655
 20
139.2685745114
 30
0.0
 40
0.2649539082290827
100
AcDbArc
 50
244.7222549179
 51
295.2777450821
  0
ELLIPSE
  5
EA
330
60
100
AcDbEntity
  8
CNS14_30_001_SEP
  6
CONTINUOUS
 62
     7
100
AcDbEllipse
 10
98.0117672254
 20
149.2878943552
 30
0.0
 11
5.365817727712399
 21
-10.73163558697851
 31
0.0
210
0.0
220
0.0
230
1.0
 40
0.6123724353
 41
-0.7380852691219575
 42
-0.7147278687976071
  0
ELLIPSE
  5
EB
330
60
100
AcDbEntity
  8
CNS14_30_001_SEP
  6
CONTINUOUS
 62
     7
100
AcDbEllipse
 10
97.4177975047
 20
149.4434577329
 30
0.0
 11
-5.358925266503516
 21
-10.71785050582284
 31
0.0
210
0.0
220
0.0
230
1.0
 40
0.6123724358
 41
0.6680280080554657
 42
0.7014104002240436
  0
ELLIPSE
  5
EC
330
60
100
AcDbEntity
  8
CNS14_30_001_SEP
  6
CONTINUOUS
 62
     7
100
AcDbEllipse
 10
97.7289245023
 20
149.1464726889
 30
0.0
 11
5.365817759212777
 21
-10.73163525351255
 31
0.0
210
0.0
220
0.0
230
0.9999999999999999
 40
0.6123724364
 41
-0.7380852858989826
 42
-0.714727885219892
  0
SPLINE
  5
ED
330
60
100
AcDbEntity
  8
CNS14_30_001_SEP
  6
CONTINUOUS
 62
     7
100
AcDbSpline
210
0.0
220
0.0
230
1.0
 70
     8
 71
     3
 72
    20
 73
    16
 74
     0
 42
0.0000000641393446
 43
0.0000000001
 40
0.0
 40
0.0
 40
0.0
 40
0.0
 40
0.213744431557404
 40
0.213744431557404
 40
0.213744431557404
 40
0.4286117530381285
 40
0.4286117530381285
 40
0.4286117530381285
 40
0.6433699458013189
 40
0.6433699458013189
 40
0.6433699458013189
 40
0.8580793715253859
 40
0.8580793715253859
 40
0.8580793715253859
 40
1.0
 40
1.0
 40
1.0
 40
1.0
 10
97.47436606798829
 20
138.7744319023399
 30
0.0
 10
97.48695506951142
 20
138.780263624545
 30
0.0
 10
97.49755766712244
 20
138.7873354811165
 30
0.0
 10
97.50530312124886
 20
138.7950687627598
 30
0.0
 10
97.51308915202603
 20
138.802842557285
 30
0.0
 10
97.51820123459635
 20
138.8114989179625
 30
0.0
 10
97.5202142764167
 20
138.8203205232783
 30
0.0
 10
97.52222631711172
 20
138.8291377414363
 30
0.0
 10
97.52119791396541
 20
138.8383632640611
 30
0.0
 10
97.51721455435666
 20
138.8472328160794
 30
0.0
 10
97.51323204479029
 20
138.8561004753499
 30
0.0
 10
97.50618623272494
 20
138.8648567734872
 30
0.0
 10
97.49666184400351
 20
138.8727774625083
 30
0.0
 10
97.49031640247952
 20
138.8780544698295
 30
0.0
 10
97.48279119633844
 20
138.883046651618
 30
0.0
 10
97.47436606798829
 20
138.8875689873298
 30
0.0
  0
ELLIPSE
  5
EE
330
60
100
AcDbEntity
  8
CNS14_30_001_SEP
  6
CONTINUOUS
 62
     7
100
AcDbEllipse
 10
97.728924502
 20
149.2878940454
 30
0.0
 11
-5.365817750696168
 21
-10.73163525434254
 31
0.0
210
0.0
220
0.0
230
1.0
 40
0.6123724374
 41
0.631353141564692
 42
0.6547105422356196
  0
ELLIPSE
  5
EF
330
60
100
AcDbEntity
  8
CNS14_30_001_SEP
  6
CONTINUOUS
 62
     7
100
AcDbEllipse
 10
97.4177975046
 20
148.9909093695
 30
0.0
 11
5.358925266733114
 21
-10.71785050310542
 31
0.0
210
0.0
220
0.0
230
0.9999999999999999
 40
0.6123724358
 41
-0.7014104003586157
 42
-0.6680280081859733
  0
ELLIPSE
  5
F0
330
60
100
AcDbEntity
  8
CNS14_30_001_SEP
  6
CONTINUOUS
 62
     7
100
AcDbEllipse
 10
98.011767216
 20
149.1464727206
 30
0.0
 11
-5.365817749070165
 21
-10.73163528807822
 31
0.0
210
0.0
220
0.0
230
1.0
 40
0.6123724371
 41
0.6313531400088241
 42
0.65471054064516
  0
ARC
  5
F1
330
60
100
AcDbEntity
  8
CNS14_30_001_SEP
  6
CONTINUOUS
 62
     7
100
AcDbCircle
 10
97.8703458655
 20
138.3519591328
 30
0.0
 40
0.3029684751411426
100
AcDbArc
 50
68.0727777629
 51
111.9272222371
  0
LINE
  5
F2
330
60
100
AcDbEntity
  8
CNS14_30_001_SEP
  6
CONTINUOUS
 62
     7
100
AcDbLine
 10
97.5592188609
 20
138.5441300975
 30
0.0
 11
97.5592188609
 21
138.7010989512
 31
0.0
  0
LINE
  5
F3
330
60
100
AcDbEntity
  8
CNS14_30_001_SEP
  6
CONTINUOUS
 62
     7
100
AcDbLine
 10
98.18147287
 20
138.5441300975
 30
0.0
 11
98.18147287
 21
138.7010989512
 31
0.0
  0
ELLIPSE
  5
F4
330
60
100
AcDbEntity
  8
CNS14_30_001_SEP
  6
CONTINUOUS
 62
     7
100
AcDbEllipse
 10
97.8703458655
 20
138.7435047612
 30
0.0
 11
0.1600291457890604
 21
-2.939687717412869E-17
 31
0.0
210
0.0
220
0.0
230
1.0
 40
0.5
 41
0.785580274821046
 42
2.356012378768622
  0
LINE
  5
F5
330
60
100
AcDbEntity
  8
CNS14_30_001_SEP
  6
CONTINUOUS
 62
     7
100
AcDbLine
 10
97.7572087805
 20
138.800093911
 30
0.0
 11
97.5592188609
 21
138.7010989512
 31
0.0
  0
LINE
  5
F6
330
60
100
AcDbEntity
  8
CNS14_30_001_SEP
  6
CONTINUOUS
 62
     7
100
AcDbLine
 10
97.5592188609
 20
138.7010989512
 30
0.0
 11
97.4422022637
 21
138.7596072498
 31
0.0
  0
ELLIPSE
  5
F7
330
60
100
AcDbEntity
  8
CNS14_30_001_SEP
  6
CONTINUOUS
 62
     7
100
AcDbEllipse
 10
97.3612281877
 20
138.9980838097
 30
0.0
 11
-0.1600005623867001
 21
2.939162648829731E-17
 31
0.0
210
0.0
220
0.0
230
1.0
 40
0.5
 41
3.141592653589793
 42
3.926987302088881
  0
LINE
  5
F8
330
60
100
AcDbEntity
  8
CNS14_30_001_SEP
  6
CONTINUOUS
 62
     7
100
AcDbLine
 10
97.474366068
 20
139.0546523522
 30
0.0
 11
97.4347697173
 21
139.0744505276
 31
0.0
  0
LINE
  5
F9
330
60
100
AcDbEntity
  8
CNS14_30_001_SEP
  6
CONTINUOUS
 62
     7
100
AcDbLine
 10
98.3059220136
 20
139.0744505276
 30
0.0
 11
98.2663256629
 21
139.0546523522
 31
0.0
  0
ELLIPSE
  5
FA
330
60
100
AcDbEntity
  8
CNS14_30_001_SEP
  6
CONTINUOUS
 62
     7
100
AcDbEllipse
 10
98.3794635432
 20
138.9980838097
 30
0.0
 11
0.1600005623866758
 21
-2.939162648829285E-17
 31
0.0
210
0.0
220
0.0
230
1.0
 40
0.5
 41
2.356198005090605
 42
3.141592653589793
  0
LINE
  5
FB
330
60
100
AcDbEntity
  8
CNS14_30_001_SEP
  6
CONTINUOUS
 62
     7
100
AcDbLine
 10
98.2984894672
 20
138.7596072498
 30
0.0
 11
98.18147287
 21
138.7010989512
 31
0.0
  0
LINE
  5
FC
330
60
100
AcDbEntity
  8
CNS14_30_001_SEP
  6
CONTINUOUS
 62
     7
100
AcDbLine
 10
98.18147287
 20
138.7010989512
 30
0.0
 11
97.9834829504
 21
138.800093911
 31
0.0
  0
LINE
  5
FD
330
60
100
AcDbEntity
  8
CNS14_30_001_SEP
  6
CONTINUOUS
 62
     7
100
AcDbLine
 10
96.8716223889
 20
139.2326356291
 30
0.0
 11
96.8971311348
 21
138.9804541334
 31
0.0
  0
LINE
  5
FE
330
60
100
AcDbEntity
  8
CNS14_30_001_SEP
  6
CONTINUOUS
 62
     7
100
AcDbLine
 10
98.8435605961
 20
138.9804541334
 30
0.0
 11
98.869069342
 21
139.2326356291
 31
0.0
  0
SPLINE
  5
FF
330
60
100
AcDbEntity
  8
CNS14_30_001_SEP
  6
CONTINUOUS
 62
     7
100
AcDbSpline
210
0.0
220
0.0
230
1.0
 70
     8
 71
     3
 72
    25
 73
    21
 74
     0
 42
0.0000000040893523
 43
0.0000000001
 40
0.0
 40
0.0
 40
0.0
 40
0.0
 40
0.0279487090153089
 40
0.0800628019191471
 40
0.1332680308733172
 40
0.1901324747276189
 40
0.2514515335711217
 40
0.3154685808221258
 40
0.3794684340105405
 40
0.4428342160287191
 40
0.5057879042769653
 40
0.5687059886754935
 40
0.6319182144908463
 40
0.6958349796020088
 40
0.7609818620917229
 40
0.8277883645366323
 40
0.8853880712023565
 40
0.9387665466404235
 40
0.9896680100268458
 40
1.0
 40
1.0
 40
1.0
 40
1.0
 10
96.9012065645905
 20
138.981425036319
 30
0.0
 10
96.90247675363089
 20
138.9594446505864
 30
0.0
 10
96.9060812783196
 20
138.9058629486286
 30
0.0
 10
96.94634279350991
 20
138.8151069542681
 30
0.0
 10
97.01418838307443
 20
138.7214002824127
 30
0.0
 10
97.10929961547376
 20
138.6371424586521
 30
0.0
 10
97.23047976671411
 20
138.5639553493926
 30
0.0
 10
97.37612742103593
 20
138.504438543849
 30
0.0
 10
97.53969960424125
 20
138.4615252478704
 30
0.0
 10
97.71367210450337
 20
138.436529367572
 30
0.0
 10
97.89205731687109
 20
138.4296732693614
 30
0.0
 10
98.06954321244237
 20
138.4409132130859
 30
0.0
 10
98.24106687254263
 20
138.4701504504044
 30
0.0
 10
98.40191823122122
 20
138.5173919611591
 30
0.0
 10
98.54790922422792
 20
138.5832153486754
 30
0.0
 10
98.66749385977667
 20
138.6645115069547
 30
0.0
 10
98.75810230951434
 20
138.7583229679606
 30
0.0
 10
98.81491884428836
 20
138.8577382018911
 30
0.0
 10
98.84334840929704
 20
138.9396830683755
 30
0.0
 10
98.84196797558475
 20
138.9809656392733
 30
0.0
 10
98.8416690308061
 20
138.9890855996896
 30
0.0
  0
LINE
  5
100
330
60
100
AcDbEntity
  8
CNS14_30_001_SEP
  6
CONTINUOUS
 62
     7
100
AcDbLine
 10
97.5212287501
 20
138.8248787289
 30
0.0
 11
97.5212287501
 21
138.9980838097
 31
0.0
  0
LINE
  5
101
330
60
100
AcDbEntity
  8
CNS14_30_001_SEP
  6
CONTINUOUS
 62
     7
100
AcDbLine
 10
98.2194629809
 20
138.9980838097
 30
0.0
 11
98.2194629809
 21
138.8248787289
 31
0.0
  0
ELLIPSE
  5
102
330
60
100
AcDbEntity
  8
CNS14_30_001_SEP
  6
CONTINUOUS
 62
     7
100
AcDbEllipse
 10
97.8703458655
 20
176.1487487631
 30
0.0
 11
-1.000000002384288
 21
1.836970203100896E-16
 31
0.0
210
0.0
220
0.0
230
1.0
 40
0.5
 41
6.232652199639324
 42
6.283185307179586
  0
ELLIPSE
  5
103
330
60
100
AcDbEntity
  8
CNS14_30_001_SEP
  6
CONTINUOUS
 62
     7
100
AcDbEllipse
 10
97.8703458655
 20
176.1487487631
 30
0.0
 11
-1.000000002384288
 21
1.836970203100896E-16
 31
0.0
210
0.0
220
0.0
230
1.0
 40
0.5
 41
0.0
 42
3.192125761130055
  0
ELLIPSE
  5
104
330
60
100
AcDbEntity
  8
CNS14_30_001_SEP
  6
CONTINUOUS
 62
     7
100
AcDbEllipse
 10
98.0117672157
 20
166.2601674735
 30
0.0
 11
-5.365817748891768
 21
10.73163528791082
 31
0.0
210
0.0
220
0.0
230
1.0
 40
0.6123724371
 41
-0.6547105406549969
 42
-0.6313531400186738
  0
ELLIPSE
  5
105
330
60
100
AcDbEntity
  8
CNS14_30_001_SEP
  6
CONTINUOUS
 62
     7
100
AcDbEllipse
 10
97.4177975046
 20
166.4157308297
 30
0.0
 11
5.358925267134213
 21
10.71785049739375
 31
0.0
210
0.0
220
0.0
230
1.0
 40
0.6123724359
 41
0.6680280084573198
 42
0.7014104006384836
  0
ELLIPSE
  5
106
330
60
100
AcDbEntity
  8
CNS14_30_001_SEP
  6
CONTINUOUS
 62
     7
100
AcDbEllipse
 10
97.7289245025
 20
166.1187461481
 30
0.0
 11
-5.36581775101287
 21
10.7316352547915
 31
0.0
210
0.0
220
0.0
230
1.0
 40
0.6123724374
 41
-0.6547105422134862
 42
-0.6313531415427693
  0
SPLINE
  5
107
330
60
100
AcDbEntity
  8
CNS14_30_001_SEP
  6
CONTINUOUS
 62
     7
100
AcDbSpline
210
0.0
220
0.0
230
1.0
 70
     8
 71
     3
 72
    20
 73
    16
 74
     0
 42
0.0000000641416445
 43
0.0000000001
 40
0.0
 40
0.0
 40
0.0
 40
0.0
 40
0.2137444315573367
 40
0.2137444315573367
 40
0.2137444315573367
 40
0.4286117530380567
 40
0.4286117530380567
 40
0.4286117530380567
 40
0.6433699458012424
 40
0.6433699458012424
 40
0.6433699458012424
 40
0.8580793715253078
 40
0.8580793715253078
 40
0.8580793715253078
 40
1.0
 40
1.0
 40
1.0
 40
1.0
 10
97.47436606798831
 20
176.519071206562
 30
0.0
 10
97.48695506951144
 20
176.5258285743784
 30
0.0
 10
97.49755766712245
 20
176.5336799578341
 30
0.0
 10
97.50530312124889
 20
176.5419826858001
 30
0.0
 10
97.51308915202605
 20
176.5503289098463
 30
0.0
 10
97.51820123459636
 20
176.5593610900737
 30
0.0
 10
97.5202142764167
 20
176.5683306865541
 30
0.0
 10
97.52222631711174
 20
176.5772958222777
 30
0.0
 10
97.52119791396541
 20
176.5864457425596
 30
0.0
 10
97.51721455435668
 20
176.5950224500484
 30
0.0
 10
97.51323204479031
 20
176.6035973272819
 30
0.0
 10
97.50618623272497
 20
176.6118356346447
 30
0.0
 10
97.49666184400354
 20
176.6190560685338
 30
0.0
 10
97.49031640247955
 20
176.6238665442884
 30
0.0
 10
97.48279119633847
 20
176.6283054396862
 30
0.0
 10
97.47436606798831
 20
176.6322082915518
 30
0.0
  0
ELLIPSE
  5
108
330
60
100
AcDbEntity
  8
CNS14_30_001_SEP
  6
CONTINUOUS
 62
     7
100
AcDbEllipse
 10
97.7289245126
 20
166.2601672027
 30
0.0
 11
5.36581772852684
 21
10.73163557855348
 31
0.0
210
0.0
220
0.0
230
1.0
 40
0.6123724354
 41
0.7147278692127754
 42
0.7380852695461192
  0
ELLIPSE
  5
109
330
60
100
AcDbEntity
  8
CNS14_30_001_SEP
  6
CONTINUOUS
 62
     7
100
AcDbEllipse
 10
97.4177975046
 20
165.9631824663
 30
0.0
 11
-5.358925266923704
 21
10.71785050020625
 31
0.0
210
0.0
220
0.0
230
1.0
 40
0.6123724359
 41
-0.7014104005009845
 42
-0.6680280083240495
  0
ELLIPSE
  5
10A
330
60
100
AcDbEntity
  8
CNS14_30_001_SEP
  6
CONTINUOUS
 62
     7
100
AcDbEllipse
 10
98.0117672249
 20
166.1187458463
 30
0.0
 11
5.365817728551263
 21
10.73163557880278
 31
0.0
210
0.0
220
0.0
230
1.0
 40
0.6123724354
 41
0.7147278691970229
 42
0.7380852695302081
  0
ARC
  5
10B
330
60
100
AcDbEntity
  8
CNS14_30_001_SEP
  6
CONTINUOUS
 62
     7
100
AcDbCircle
 10
97.8703458655
 20
176.1380656825
 30
0.0
 40
0.2649539082290827
100
AcDbArc
 50
64.7222549179
 51
115.2777450821
  0
ELLIPSE
  5
10C
330
60
100
AcDbEntity
  8
CNS14_30_001_SEP
  6
CONTINUOUS
 62
     7
100
AcDbEllipse
 10
97.7289245058
 20
166.1187458463
 30
0.0
 11
-5.365817728501363
 21
10.73163557871588
 31
0.0
210
0.0
220
0.0
230
0.9999999999999999
 40
0.6123724354
 41
-0.7380852695377431
 42
-0.7147278692046353
  0
ELLIPSE
  5
10D
330
60
100
AcDbEntity
  8
CNS14_30_001_SEP
  6
CONTINUOUS
 62
     7
100
AcDbEllipse
 10
98.3228942262
 20
165.963182461
 30
0.0
 11
5.358925266528399
 21
10.71785050580643
 31
0.0
210
0.0
220
0.0
230
0.9999999999999999
 40
0.6123724358
 41
0.6680280080571107
 42
0.7014104002256956
  0
ELLIPSE
  5
10E
330
60
100
AcDbEntity
  8
CNS14_30_001_SEP
  6
CONTINUOUS
 62
     7
100
AcDbEllipse
 10
98.0117672182
 20
166.2601671954
 30
0.0
 11
-5.365817727876093
 21
10.73163558646679
 31
0.0
210
0.0
220
0.0
230
0.9999999999999999
 40
0.6123724353
 41
-0.7380852691452056
 42
-0.7147278688202272
  0
SPLINE
  5
10F
330
60
100
AcDbEntity
  8
CNS14_30_001_SEP
  6
CONTINUOUS
 62
     7
100
AcDbSpline
210
0.0
220
0.0
230
1.0
 70
     8
 71
     3
 72
    20
 73
    16
 74
     0
 42
0.0000000641393446
 43
0.0000000001
 40
0.0
 40
0.0
 40
0.0
 40
0.0
 40
0.213744431557404
 40
0.213744431557404
 40
0.213744431557404
 40
0.4286117530381285
 40
0.4286117530381285
 40
0.4286117530381285
 40
0.6433699458013189
 40
0.6433699458013189
 40
0.6433699458013189
 40
0.8580793715253859
 40
0.8580793715253859
 40
0.8580793715253859
 40
1.0
 40
1.0
 40
1.0
 40
1.0
 10
98.26632566291724
 20
176.6322082915518
 30
0.0
 10
98.2537366613941
 20
176.6263765693467
 30
0.0
 10
98.24313406378309
 20
176.6193047127752
 30
0.0
 10
98.23538860965667
 20
176.6115714311319
 30
0.0
 10
98.22760257887948
 20
176.6037976366067
 30
0.0
 10
98.22249049630918
 20
176.5951412759292
 30
0.0
 10
98.22047745448884
 20
176.5863196706134
 30
0.0
 10
98.21846541379381
 20
176.5775024524553
 30
0.0
 10
98.21949381694013
 20
176.5682769298306
 30
0.0
 10
98.22347717654887
 20
176.5594073778123
 30
0.0
 10
98.22745968611525
 20
176.5505397185418
 30
0.0
 10
98.23450549818058
 20
176.5417834204046
 30
0.0
 10
98.24402988690201
 20
176.5338627313834
 30
0.0
 10
98.25037532842602
 20
176.5285857240622
 30
0.0
 10
98.25790053456709
 20
176.5235935422737
 30
0.0
 10
98.26632566291724
 20
176.5190712065619
 30
0.0
  0
ELLIPSE
  5
110
330
60
100
AcDbEntity
  8
CNS14_30_001_SEP
  6
CONTINUOUS
 62
     7
100
AcDbEllipse
 10
98.0117672291
 20
166.1187461562
 30
0.0
 11
5.365817751182717
 21
10.73163524607846
 31
0.0
210
0.0
220
0.0
230
1.0
 40
0.6123724375
 41
0.6313531419466096
 42
0.6547105426260776
  0
ELLIPSE
  5
111
330
60
100
AcDbEntity
  8
CNS14_30_001_SEP
  6
CONTINUOUS
 62
     7
100
AcDbEllipse
 10
98.3228942263
 20
166.4157308219
 30
0.0
 11
-5.358925266524405
 21
10.71785050575975
 31
0.0
210
0.0
220
0.0
230
1.0
 40
0.6123724358
 41
-0.7014104002274255
 42
-0.6680280080587426
  0
ELLIPSE
  5
112
330
60
100
AcDbEntity
  8
CNS14_30_001_SEP
  6
CONTINUOUS
 62
     7
100
AcDbEllipse
 10
97.7289245149
 20
166.2601674733
 30
0.0
 11
5.365817749078897
 21
10.73163528806507
 31
0.0
210
0.0
220
0.0
230
0.9999999999999999
 40
0.6123724371
 41
0.6313531400101169
 42
0.6547105406464492
  0
ARC
  5
113
330
60
100
AcDbEntity
  8
CNS14_30_001_SEP
  6
CONTINUOUS
 62
     7
100
AcDbCircle
 10
97.8703458655
 20
177.0546810611
 30
0.0
 40
0.3029684751411426
100
AcDbArc
 50
248.0727777629
 51
291.9272222371
  0
LINE
  5
114
330
60
100
AcDbEntity
  8
CNS14_30_001_SEP
  6
CONTINUOUS
 62
     7
100
AcDbLine
 10
98.18147287
 20
176.8625100964
 30
0.0
 11
98.18147287
 21
176.7055412427
 31
0.0
  0
LINE
  5
115
330
60
100
AcDbEntity
  8
CNS14_30_001_SEP
  6
CONTINUOUS
 62
     7
100
AcDbLine
 10
97.5592188609
 20
176.8625100964
 30
0.0
 11
97.5592188609
 21
176.7055412427
 31
0.0
  0
ELLIPSE
  5
116
330
60
100
AcDbEntity
  8
CNS14_30_001_SEP
  6
CONTINUOUS
 62
     7
100
AcDbEllipse
 10
97.8703458655
 20
176.6631354327
 30
0.0
 11
-0.1600291457890604
 21
2.939687717412869E-17
 31
0.0
210
0.0
220
0.0
230
1.0
 40
0.5
 41
0.7855802748212972
 42
2.356012378768747
  0
LINE
  5
117
330
60
100
AcDbEntity
  8
CNS14_30_001_SEP
  6
CONTINUOUS
 62
     7
100
AcDbLine
 10
97.9834829504
 20
176.6065462829
 30
0.0
 11
98.18147287
 21
176.7055412427
 31
0.0
  0
LINE
  5
118
330
60
100
AcDbEntity
  8
CNS14_30_001_SEP
  6
CONTINUOUS
 62
     7
100
AcDbLine
 10
98.18147287
 20
176.7055412427
 30
0.0
 11
98.2984894672
 21
176.6470329441
 31
0.0
  0
ELLIPSE
  5
119
330
60
100
AcDbEntity
  8
CNS14_30_001_SEP
  6
CONTINUOUS
 62
     7
100
AcDbEllipse
 10
98.3794635432
 20
176.4085563841
 30
0.0
 11
0.1600005623866932
 21
-2.939162648829603E-17
 31
0.0
210
0.0
220
0.0
230
1.0
 40
0.5
 41
3.141592653589794
 42
3.926987302088964
  0
LINE
  5
11A
330
60
100
AcDbEntity
  8
CNS14_30_001_SEP
  6
CONTINUOUS
 62
     7
100
AcDbLine
 10
98.2663256629
 20
176.3519878416
 30
0.0
 11
98.3059220136
 21
176.3321896663
 31
0.0
  0
LINE
  5
11B
330
60
100
AcDbEntity
  8
CNS14_30_001_SEP
  6
CONTINUOUS
 62
     7
100
AcDbLine
 10
97.4347697173
 20
176.3321896663
 30
0.0
 11
97.474366068
 21
176.3519878416
 31
0.0
  0
ELLIPSE
  5
11C
330
60
100
AcDbEntity
  8
CNS14_30_001_SEP
  6
CONTINUOUS
 62
     7
100
AcDbEllipse
 10
97.3612281877
 20
176.4085563841
 30
0.0
 11
-0.1600005623866793
 21
2.939162648829349E-17
 31
0.0
210
0.0
220
0.0
230
1.0
 40
0.5
 41
2.356198005090584
 42
3.141592653589793
  0
LINE
  5
11D
330
60
100
AcDbEntity
  8
CNS14_30_001_SEP
  6
CONTINUOUS
 62
     7
100
AcDbLine
 10
97.4422022637
 20
176.6470329441
 30
0.0
 11
97.5592188609
 21
176.7055412427
 31
0.0
  0
LINE
  5
11E
330
60
100
AcDbEntity
  8
CNS14_30_001_SEP
  6
CONTINUOUS
 62
     7
100
AcDbLine
 10
97.5592188609
 20
176.7055412427
 30
0.0
 11
97.7572087805
 21
176.6065462829
 31
0.0
  0
LINE
  5
11F
330
60
100
AcDbEntity
  8
CNS14_30_001_SEP
  6
CONTINUOUS
 62
     7
100
AcDbLine
 10
98.869069342
 20
176.1740045648
 30
0.0
 11
98.8435605961
 21
176.4261860605
 31
0.0
  0
LINE
  5
120
330
60
100
AcDbEntity
  8
CNS14_30_001_SEP
  6
CONTINUOUS
 62
     7
100
AcDbLine
 10
96.8971311348
 20
176.4261860605
 30
0.0
 11
96.8716223889
 21
176.1740045648
 31
0.0
  0
SPLINE
  5
121
330
60
100
AcDbEntity
  8
CNS14_30_001_SEP
  6
CONTINUOUS
 62
     7
100
AcDbSpline
210
0.0
220
0.0
230
1.0
 70
     8
 71
     3
 72
    25
 73
    21
 74
     0
 42
0.0000000040893523
 43
0.0000000001
 40
0.0
 40
0.0
 40
0.0
 40
0.0
 40
0.0279487090153089
 40
0.0800628019191467
 40
0.1332680308733173
 40
0.1901324747276198
 40
0.2514515335711217
 40
0.3154685808221247
 40
0.3794684340105416
 40
0.442834216028719
 40
0.5057879042769652
 40
0.5687059886754934
 40
0.631918214490845
 40
0.6958349796020074
 40
0.7609818620917224
 40
0.8277883645366317
 40
0.885388071202356
 40
0.9387665466404234
 40
0.9896680100268457
 40
1.0
 40
1.0
 40
1.0
 40
1.0
 10
98.83948516631503
 20
176.4252151575727
 30
0.0
 10
98.83821497727463
 20
176.4471955433054
 30
0.0
 10
98.83461045258595
 20
176.5007772452631
 30
0.0
 10
98.79434893739563
 20
176.5915332396237
 30
0.0
 10
98.72650334783108
 20
176.685239911479
 30
0.0
 10
98.63139211543172
 20
176.7694977352396
 30
0.0
 10
98.51021196419138
 20
176.8426848444991
 30
0.0
 10
98.36456430986965
 20
176.9022016500427
 30
0.0
 10
98.20099212666425
 20
176.9451149460213
 30
0.0
 10
98.02701962640215
 20
176.9701108263197
 30
0.0
 10
97.84863441403449
 20
176.9769669245303
 30
0.0
 10
97.67114851846311
 20
176.9657269808058
 30
0.0
 10
97.49962485836295
 20
176.9364897434873
 30
0.0
 10
97.33877349968425
 20
176.8892482327325
 30
0.0
 10
97.19278250667764
 20
176.8234248452163
 30
0.0
 10
97.07319787112887
 20
176.742128686937
 30
0.0
 10
96.98258942139118
 20
176.6483172259312
 30
0.0
 10
96.9257728866172
 20
176.5489019920006
 30
0.0
 10
96.89734332160846
 20
176.4669571255162
 30
0.0
 10
96.89872375532077
 20
176.4256745546184
 30
0.0
 10
96.89902270009942
 20
176.4175545942021
 30
0.0
  0
LINE
  5
122
330
60
100
AcDbEntity
  8
CNS14_30_001_SEP
  6
CONTINUOUS
 62
     7
100
AcDbLine
 10
98.2194629809
 20
176.5817614649
 30
0.0
 11
98.2194629809
 21
176.4085563841
 31
0.0
  0
LINE
  5
123
330
60
100
AcDbEntity
  8
CNS14_30_001_SEP
  6
CONTINUOUS
 62
     7
100
AcDbLine
 10
97.5212287501
 20
176.4085563841
 30
0.0
 11
97.5212287501
 21
176.5817614649
 31
0.0
  0
ELLIPSE
  5
124
330
60
100
AcDbEntity
  8
ST17_20_001_SEP-
  6
CONTINUOUS
 62
     7
100
AcDbEllipse
 10
86.1203458655
 20
139.6073531107
 30
0.0
 11
0.8499999999999965
 21
-3.625589418844901E-15
 31
0.0
210
0.0
220
0.0
230
1.0
 40
0.5
 41
5.667705598509224
 42
6.093820297135347
  0
ELLIPSE
  5
125
330
60
100
AcDbEntity
  8
ST17_20_001_SEP-
  6
CONTINUOUS
 62
     7
100
AcDbEllipse
 10
86.1203458655
 20
139.5207505703
 30
0.0
 11
0.7499999999999938
 21
-3.607219716857690E-15
 31
0.0
210
0.0
220
0.0
230
1.0
 40
0.5
 41
3.356578226480432
 42
6.068199734288953
  0
LINE
  5
126
330
60
100
AcDbEntity
  8
ST17_20_001_SEP-
  6
CONTINUOUS
 62
     7
100
AcDbLine
 10
86.955151232
 20
139.5273531107
 30
0.0
 11
86.955151232
 21
139.6873531107
 31
0.0
  0
ELLIPSE
  5
127
330
60
100
AcDbEntity
  8
ST17_20_001_SEP-
  6
CONTINUOUS
 62
     7
100
AcDbEllipse
 10
86.1203458655
 20
139.5207505703
 30
0.0
 11
-0.7500000000000075
 21
3.607219716857693E-15
 31
0.0
210
0.0
220
0.0
230
1.0
 40
0.5
 41
3.356578226480516
 42
5.667530049642675
  0
LINE
  5
128
330
60
100
AcDbEntity
  8
ST17_20_001_SEP-
  6
CONTINUOUS
 62
     7
100
AcDbLine
 10
86.8530804695
 20
139.6007505703
 30
0.0
 11
85.3876112614
 21
139.6007505703
 31
0.0
  0
LINE
  5
129
330
60
100
AcDbEntity
  8
ST17_20_001_SEP-
  6
CONTINUOUS
 62
     7
100
AcDbLine
 10
86.8530804695
 20
139.4407505703
 30
0.0
 11
85.3876112614
 21
139.4407505703
 31
0.0
  0
LINE
  5
12A
330
60
100
AcDbEntity
  8
ST17_20_001_SEP-
  6
CONTINUOUS
 62
     7
100
AcDbLine
 10
86.8530804695
 20
139.4407505703
 30
0.0
 11
86.955151232
 21
139.5273531107
 31
0.0
  0
ELLIPSE
  5
12B
330
60
100
AcDbEntity
  8
ST17_20_001_SEP-
  6
CONTINUOUS
 62
     7
100
AcDbEllipse
 10
86.1203458655
 20
175.8854899
 30
0.0
 11
0.7500000000000075
 21
3.331674187049536E-15
 31
0.0
210
0.0
220
0.0
230
1.0
 40
0.5
 41
3.356578226480511
 42
6.068199734288954
  0
ELLIPSE
  5
12C
330
60
100
AcDbEntity
  8
ST17_20_001_SEP-
  6
CONTINUOUS
 62
     7
100
AcDbEllipse
 10
86.1203458655
 20
175.7988873596
 30
0.0
 11
-0.8499999999999965
 21
-1.025219838896956E-14
 31
0.0
210
0.0
220
0.0
230
1.0
 40
0.5
 41
5.667705598509215
 42
6.093820297135072
  0
LINE
  5
12D
330
60
100
AcDbEntity
  8
ST17_20_001_SEP-
  6
CONTINUOUS
 62
     7
100
AcDbLine
 10
85.2855404989
 20
175.8788873596
 30
0.0
 11
85.2855404989
 21
175.7188873596
 31
0.0
  0
ELLIPSE
  5
12E
330
60
100
AcDbEntity
  8
ST17_20_001_SEP-
  6
CONTINUOUS
 62
     7
100
AcDbEllipse
 10
86.1203458655
 20
175.8854899
 30
0.0
 11
-0.7500000000000145
 21
-3.331674187049534E-15
 31
0.0
210
0.0
220
0.0
230
1.0
 40
0.5
 41
3.356578226480377
 42
6.068199734288822
  0
LINE
  5
12F
330
60
100
AcDbEntity
  8
ST17_20_001_SEP-
  6
CONTINUOUS
 62
     7
100
AcDbLine
 10
86.8530804695
 20
175.9654899
 30
0.0
 11
85.3876112614
 21
175.9654899
 31
0.0
  0
LINE
  5
130
330
60
100
AcDbEntity
  8
ST17_20_001_SEP-
  6
CONTINUOUS
 62
     7
100
AcDbLine
 10
86.8530804695
 20
175.8054899
 30
0.0
 11
85.3876112614
 21
175.8054899
 31
0.0
  0
LINE
  5
131
330
60
100
AcDbEntity
  8
ST17_20_001_SEP-
  6
CONTINUOUS
 62
     7
100
AcDbLine
 10
85.3876112614
 20
175.9654899
 30
0.0
 11
85.2855404989
 21
175.8788873596
 31
0.0
  0
LINE
  5
133
330
60
100
AcDbEntity
  8
SDABO_001_SEP-00
  6
CONTINUOUS
 62
     7
100
AcDbLine
 10
91.682716872
 20
178.7178591912
 30
0.0
 11
89.8579748589
 21
178.7178591912
 31
0.0
  0
LINE
  5
134
330
60
100
AcDbEntity
  8
SDABO_001_SEP-00
  6
CONTINUOUS
 62
     7
100
AcDbLine
 10
89.8579748589
 20
178.7178591912
 30
0.0
 11
89.8736535796
 21
178.7031220654
 31
0.0
  0
LINE
  5
135
330
60
100
AcDbEntity
  8
SDABO_001_SEP-00
  6
CONTINUOUS
 62
     7
100
AcDbLine
 10
91.6670381513
 20
178.7031220654
 30
0.0
 11
91.682716872
 21
178.7178591912
 31
0.0
  0
LINE
  5
137
330
60
100
AcDbEntity
  8
FOCUS_RING_001_S
  6
CONTINUOUS
 62
     7
100
AcDbLine
 10
70.5703476957
 20
178.7031220654
 30
0.0
 11
70.5703476957
 21
136.703118405
 31
0.0
  0
LINE
  5
138
330
60
100
AcDbEntity
  8
FOCUS_RING_001_S
  6
CONTINUOUS
 62
     7
100
AcDbLine
 10
92.7703372051
 20
178.7031220654
 30
0.0
 11
92.7703372051
 21
136.703118405
 31
0.0
  0
LINE
  5
139
330
60
100
AcDbEntity
  8
FOCUS_RING_001_S
  6
CONTINUOUS
 62
     7
100
AcDbLine
 10
92.9703424504
 20
178.5031168201
 30
0.0
 11
92.9703424504
 21
136.9031236503
 31
0.0
  0
LINE
  5
13A
330
60
100
AcDbEntity
  8
FOCUS_RING_001_S
  6
CONTINUOUS
 62
     7
100
AcDbLine
 10
70.3703458655
 20
178.5031202352
 30
0.0
 11
70.3703458655
 21
136.9031202352
 31
0.0
  0
SPLINE
  5
13B
330
60
100
AcDbEntity
  8
FOCUS_RING_001_S
  6
CONTINUOUS
 62
     7
100
AcDbSpline
210
0.0
220
0.0
230
1.0
 70
    11
 71
     3
 72
    15
 73
    11
 74
     0
 42
0.0000000024815383
 43
0.0000000001
 40
0.0
 40
0.0
 40
0.0
 40
0.0
 40
0.1248116620621752
 40
0.249998995474392
 40
0.3751989477111621
 40
0.500114223857434
 40
0.6249256927433289
 40
0.7500673438556167
 40
0.8752440251460145
 40
1.0
 40
1.0
 40
1.0
 40
1.0
 10
86.1203458654516
 20
139.1412815532974
 30
0.0
 10
85.92156623727925
 20
139.1412956472429
 30
0.0
 10
85.52348790032585
 20
139.2236567114829
 30
0.0
 10
85.26084503530348
 20
139.5136791510442
 30
0.0
 10
85.52373034856267
 20
139.8216571642437
 30
0.0
 10
86.12100783880055
 20
139.9642102622417
 30
0.0
 10
86.7181514231958
 20
139.8214240907796
 30
0.0
 10
86.97957352131408
 20
139.5133623134521
 30
0.0
 10
86.71716788498478
 20
139.2235135043529
 30
0.0
 10
86.31903680413487
 20
139.1412674656401
 30
0.0
 10
86.1203458654516
 20
139.1412815532974
 30
0.0
  0
SPLINE
  5
13C
330
60
100
AcDbEntity
  8
FOCUS_RING_001_S
  6
CONTINUOUS
 62
     7
100
AcDbSpline
210
0.0
220
0.0
230
1.0
 70
    11
 71
     3
 72
    15
 73
    11
 74
     0
 42
0.0000000024832771
 43
0.0000000001
 40
0.0
 40
0.0
 40
0.0
 40
0.0
 40
0.124811662062177
 40
0.2499989954743926
 40
0.3751989477111622
 40
0.5001142238574341
 40
0.6249256927433292
 40
0.7500673438556148
 40
0.8752440251460136
 40
1.0
 40
1.0
 40
1.0
 40
1.0
 10
86.1203458654516
 20
175.4895475687448
 30
0.0
 10
85.92156623727925
 20
175.489563680766
 30
0.0
 10
85.52348790032586
 20
175.5848418436457
 30
0.0
 10
85.26084503530348
 20
175.8927055782887
 30
0.0
 10
85.52373034856272
 20
176.1828185054234
 30
0.0
 10
86.12100783880055
 20
176.3060302499098
 30
0.0
 10
86.71815142319579
 20
176.1826107693781
 30
0.0
 10
86.97957352131408
 20
175.8923888064817
 30
0.0
 10
86.71716788498479
 20
175.5846773314102
 30
0.0
 10
86.31903680413487
 20
175.4895314639124
 30
0.0
 10
86.1203458654516
 20
175.4895475687448
 30
0.0
  0
ARC
  5
13D
330
60
100
AcDbEntity
  8
FOCUS_RING_001_S
  6
CONTINUOUS
 62
     7
100
AcDbCircle
 10
86.1203458653
 20
199.417602837
 30
0.0
 40
20.72979684069551
100
AcDbArc
 50
267.7973753091
 51
272.2026245256
  0
ARC
  5
13E
330
60
100
AcDbEntity
  8
FOCUS_RING_001_S
  6
CONTINUOUS
 62
     7
100
AcDbCircle
 10
90.7703458653
 20
199.2220248556
 30
0.0
 40
20.53834482703641
100
AcDbArc
 50
267.5067831736
 51
272.4932166328
  0
LINE
  5
13F
330
60
100
AcDbEntity
  8
FOCUS_RING_001_S
  6
CONTINUOUS
 62
     7
100
AcDbLine
 10
70.5703476957
 20
136.703118405
 30
0.0
 11
92.7703372051
 21
136.703118405
 31
0.0
  0
LINE
  5
140
330
60
100
AcDbEntity
  8
FOCUS_RING_001_S
  6
CONTINUOUS
 62
     7
100
AcDbLine
 10
85.3236384501
 20
178.7031220654
 30
0.0
 11
70.5703476957
 21
178.7031220654
 31
0.0
  0
LINE
  5
141
330
60
100
AcDbEntity
  8
FOCUS_RING_001_S
  6
CONTINUOUS
 62
     7
100
AcDbLine
 10
89.8736535796
 20
178.7031220654
 30
0.0
 11
86.9170338458
 21
178.7031220654
 31
0.0
  0
LINE
  5
142
330
60
100
AcDbEntity
  8
FOCUS_RING_001_S
  6
CONTINUOUS
 62
     7
100
AcDbLine
 10
92.7703372051
 20
178.7031220654
 30
0.0
 11
91.6670381513
 21
178.7031220654
 31
0.0
  0
LINE
  5
143
330
60
100
AcDbEntity
  8
FOCUS_RING_001_S
  6
CONTINUOUS
 62
     7
100
AcDbLine
 10
92.7703372051
 20
136.703118405
 30
0.0
 11
92.9703424504
 21
136.9031236503
 31
0.0
  0
LINE
  5
144
330
60
100
AcDbEntity
  8
FOCUS_RING_001_S
  6
CONTINUOUS
 62
     7
100
AcDbLine
 10
92.9703424504
 20
178.5031168201
 30
0.0
 11
92.7703372051
 21
178.7031220654
 31
0.0
  0
LINE
  5
145
330
60
100
AcDbEntity
  8
FOCUS_RING_001_S
  6
CONTINUOUS
 62
     7
100
AcDbLine
 10
70.5703476957
 20
178.7031220654
 30
0.0
 11
70.3703458655
 21
178.5031202352
 31
0.0
  0
LINE
  5
146
330
60
100
AcDbEntity
  8
FOCUS_RING_001_S
  6
CONTINUOUS
 62
     7
100
AcDbLine
 10
70.3703458655
 20
136.9031202352
 30
0.0
 11
70.5703476957
 21
136.703118405
 31
0.0
  0
LINE
  5
148
330
60
100
AcDbEntity
  8
DV1_デフォルト
  6
CONTINUOUS
 62
     7
100
AcDbLine
 10
68.8764915935
 20
157.7031202352
 30
0.0
 11
146.8963458655
 21
157.7031202352
 31
0.0
  0
LINE
  5
14A
330
60
100
AcDbEntity
  8
DV1_デフォルト
  6
DASHDOT2
 62
     7
100
AcDbLine
 10
68.8764915935
 20
177.9531202352
 30
0.0
 11
73.2017696246
 21
177.9531202352
 31
0.0
  0
LINE
  5
14B
330
60
100
AcDbEntity
  8
DV1_デフォルト
  6
DASHDOT2
 62
     7
100
AcDbLine
 10
68.8764915935
 20
137.4531202352
 30
0.0
 11
73.2017696246
 21
137.4531202352
 31
0.0
  0
LINE
  5
14C
330
60
100
AcDbEntity
  8
DV1_デフォルト
  6
CONTINUOUS
 62
     7
100
AcDbLine
 10
145.4821323031
 20
159.1173337975
 30
0.0
 11
146.8963458655
 21
157.7031202352
 31
0.0
  0
LINE
  5
14D
330
60
100
AcDbEntity
  8
DV1_デフォルト
  6
CONTINUOUS
 62
     7
100
AcDbLine
 10
145.4821323031
 20
156.2889066728
 30
0.0
 11
146.8963458655
 21
157.7031202352
 31
0.0
  0
LINE
  5
14E
330
60
100
AcDbEntity
  8
DV1_デフォルト
  6
CONTINUOUS
 62
     7
100
AcDbLine
 10
148.3105594278
 20
156.2889066728
 30
0.0
 11
146.8963458655
 21
157.7031202352
 31
0.0
  0
LINE
  5
14F
330
60
100
AcDbEntity
  8
DV1_デフォルト
  6
CONTINUOUS
 62
     7
100
AcDbLine
 10
148.3105594278
 20
159.1173337975
 30
0.0
 11
146.8963458655
 21
157.7031202352
 31
0.0
  0
LINE
  5
150
330
60
100
AcDbEntity
  8
DV1_デフォルト
  6
DASHDOT2
 62
     7
100
AcDbLine
 10
130.7203458655
 20
170.0031202352
 30
0.0
 11
133.0703458655
 21
170.0031202352
 31
0.0
  0
LINE
  5
151
330
60
100
AcDbEntity
  8
DV1_デフォルト
  6
DASHDOT2
 62
     7
100
AcDbLine
 10
130.7203458655
 20
145.4031202352
 30
0.0
 11
133.0703458655
 21
145.4031202352
 31
0.0
  0
ENDBLK
  5
153
330
60
100
AcDbEntity
  8
0
100
AcDbBlockEnd
  0
BLOCK
  5
15C
330
154
100
AcDbEntity
  8
0
100
AcDbBlockBegin
  2
GDIMGGROUP
 70
     0
 10
0.0
 20
0.0
 30
0.0
  3
GDIMGGROUP
  1

  0
POLYLINE
  5
156
330
154
100
AcDbEntity
  8
DEFAULT
  6
CONTINUOUS
 62
   136
100
AcDb2dPolyline
 66
     1
 10
0.0
 20
0.0
 30
0.0
  0
VERTEX
  5
198
330
156
100
AcDbEntity
  8
DEFAULT
  6
CONTINUOUS
 62
   136
100
AcDbVertex
100
AcDb2dVertex
 10
62.9127007033
 20
174.753120316
 30
0.0
  0
VERTEX
  5
199
330
156
100
AcDbEntity
  8
DEFAULT
  6
CONTINUOUS
 62
   136
100
AcDbVertex
100
AcDb2dVertex
 10
62.3793673835
 20
177.9531202352
 30
0.0
  0
VERTEX
  5
19A
330
156
100
AcDbEntity
  8
DEFAULT
  6
CONTINUOUS
 62
   136
100
AcDbVertex
100
AcDb2dVertex
 10
61.8460340636
 20
174.753120316
 30
0.0
  0
SEQEND
  5
19B
330
156
100
AcDbEntity
  8
DEFAULT
  6
CONTINUOUS
 62
   136
  0
POLYLINE
  5
157
330
154
100
AcDbEntity
  8
DEFAULT
  6
CONTINUOUS
 62
   136
100
AcDb2dPolyline
 66
     1
 10
0.0
 20
0.0
 30
0.0
  0
VERTEX
  5
19C
330
157
100
AcDbEntity
  8
DEFAULT
  6
CONTINUOUS
 62
   136
100
AcDbVertex
100
AcDb2dVertex
 10
62.9127007033
 20
140.6531200351
 30
0.0
  0
VERTEX
  5
19D
330
157
100
AcDbEntity
  8
DEFAULT
  6
CONTINUOUS
 62
   136
100
AcDbVertex
100
AcDb2dVertex
 10
62.3793673835
 20
137.453120116
 30
0.0
  0
VERTEX
  5
19E
330
157
100
AcDbEntity
  8
DEFAULT
  6
CONTINUOUS
 62
   136
100
AcDbVertex
100
AcDb2dVertex
 10
61.8460340636
 20
140.6531200351
 30
0.0
  0
SEQEND
  5
19F
330
157
100
AcDbEntity
  8
DEFAULT
  6
CONTINUOUS
 62
   136
  0
LINE
  5
158
330
154
100
AcDbEntity
  8
DEFAULT
  6
CONTINUOUS
 62
   136
100
AcDbLine
 10
67.5964916258
 20
177.9531202352
 30
0.0
 11
60.7793674239
 21
177.9531202352
 31
0.0
  0
LINE
  5
159
330
154
100
AcDbEntity
  8
DEFAULT
  6
CONTINUOUS
 62
   136
100
AcDbLine
 10
67.5964916258
 20
137.4531202352
 30
0.0
 11
60.7793674239
 21
137.4531202352
 31
0.0
  0
LINE
  5
15A
330
154
100
AcDbEntity
  8
DEFAULT
  6
CONTINUOUS
 62
   136
100
AcDbLine
 10
62.3793673835
 20
177.9531202352
 30
0.0
 11
62.3793673835
 21
137.453120116
 31
0.0
  0
TEXT
  5
15B
330
154
100
AcDbEntity
  8
DEFAULT
  6
CONTINUOUS
 62
   136
100
AcDbText
 10
61.5793673835
 20
145.6732014764
 30
0.0
 40
3.2
  1
M40.5 P=0.5
 50
90.0
  7
SEACAD_SEANSI_TTF
 11
58.3793673835
 21
145.6732014764
 31
0.0
100
AcDbText
 73
     3
  0
ENDBLK
  5
15D
330
154
100
AcDbEntity
  8
0
100
AcDbBlockEnd
  0
BLOCK
  5
168
330
15E
100
AcDbEntity
  8
0
100
AcDbBlockBegin
  2
GDIMGGROUP1
 70
     0
 10
0.0
 20
0.0
 30
0.0
  3
GDIMGGROUP1
  1

  0
POLYLINE
  5
160
330
15E
100
AcDbEntity
  8
DEFAULT
  6
CONTINUOUS
 62
   136
100
AcDb2dPolyline
 66
     1
 10
0.0
 20
0.0
 30
0.0
  0
VERTEX
  5
1A0
330
160
100
AcDbEntity
  8
DEFAULT
  6
CONTINUOUS
 62
   136
100
AcDbVertex
100
AcDb2dVertex
 10
55.4928268741
 20
175.5031221462
 30
0.0
  0
VERTEX
  5
1A1
330
160
100
AcDbEntity
  8
DEFAULT
  6
CONTINUOUS
 62
   136
100
AcDbVertex
100
AcDb2dVertex
 10
54.9594935543
 20
178.7031220654
 30
0.0
  0
VERTEX
  5
1A2
330
160
100
AcDbEntity
  8
DEFAULT
  6
CONTINUOUS
 62
   136
100
AcDbVertex
100
AcDb2dVertex
 10
54.4261602344
 20
175.5031221462
 30
0.0
  0
SEQEND
  5
1A3
330
160
100
AcDbEntity
  8
DEFAULT
  6
CONTINUOUS
 62
   136
  0
POLYLINE
  5
161
330
15E
100
AcDbEntity
  8
DEFAULT
  6
CONTINUOUS
 62
   136
100
AcDb2dPolyline
 66
     1
 10
0.0
 20
0.0
 30
0.0
  0
VERTEX
  5
1A4
330
161
100
AcDbEntity
  8
DEFAULT
  6
CONTINUOUS
 62
   136
100
AcDbVertex
100
AcDb2dVertex
 10
55.4928268741
 20
139.9031188255
 30
0.0
  0
VERTEX
  5
1A5
330
161
100
AcDbEntity
  8
DEFAULT
  6
CONTINUOUS
 62
   136
100
AcDbVertex
100
AcDb2dVertex
 10
54.9594935543
 20
136.7031189063
 30
0.0
  0
VERTEX
  5
1A6
330
161
100
AcDbEntity
  8
DEFAULT
  6
CONTINUOUS
 62
   136
100
AcDbVertex
100
AcDb2dVertex
 10
54.4261602344
 20
139.9031188255
 30
0.0
  0
SEQEND
  5
1A7
330
161
100
AcDbEntity
  8
DEFAULT
  6
CONTINUOUS
 62
   136
  0
LINE
  5
162
330
15E
100
AcDbEntity
  8
DEFAULT
  6
CONTINUOUS
 62
   136
100
AcDbLine
 10
69.290347728
 20
178.7031220654
 30
0.0
 11
53.3594935947
 21
178.7031220654
 31
0.0
  0
LINE
  5
163
330
15E
100
AcDbEntity
  8
DEFAULT
  6
CONTINUOUS
 62
   136
100
AcDbLine
 10
69.290347728
 20
136.703118405
 30
0.0
 11
53.3594935947
 21
136.703118405
 31
0.0
  0
LINE
  5
164
330
15E
100
AcDbEntity
  8
DEFAULT
  6
CONTINUOUS
 62
   136
100
AcDbLine
 10
54.9594935543
 20
178.7031220654
 30
0.0
 11
54.9594935543
 21
136.7031189063
 31
0.0
  0
TEXT
  5
166
330
15E
100
AcDbEntity
  8
DEFAULT
  6
CONTINUOUS
 62
   136
100
AcDbText
 10
54.1594935543
 20
153.3770956677
 30
0.0
 40
3.2
  1
O
 50
90.0
  7
SEACAD_SEMECA1_TTF
 11
50.9594935543
 21
153.3770956677
 31
0.0
100
AcDbText
 73
     3
  0
TEXT
  5
167
330
15E
100
AcDbEntity
  8
DEFAULT
  6
CONTINUOUS
 62
   136
100
AcDbText
 10
54.1594935543
 20
157.3462184747
 30
0.0
 40
3.2
  1
42
 50
90.0
  7
SEACAD_SEANSI_TTF
 11
50.9594935543
 21
157.3462184747
 31
0.0
100
AcDbText
 73
     3
  0
ENDBLK
  5
169
330
15E
100
AcDbEntity
  8
0
100
AcDbBlockEnd
  0
BLOCK
  5
172
330
16A
100
AcDbEntity
  8
0
100
AcDbBlockBegin
  2
GDIMGGROUP2
 70
     0
 10
0.0
 20
0.0
 30
0.0
  3
GDIMGGROUP2
  1

  0
POLYLINE
  5
16C
330
16A
100
AcDbEntity
  8
DEFAULT
  6
CONTINUOUS
 62
   136
100
AcDb2dPolyline
 66
     1
 10
0.0
 20
0.0
 30
0.0
  0
VERTEX
  5
1A8
330
16C
100
AcDbEntity
  8
DEFAULT
  6
CONTINUOUS
 62
   136
100
AcDbVertex
100
AcDb2dVertex
 10
73.5703457846
 20
120.4065478633
 30
0.0
  0
VERTEX
  5
1A9
330
16C
100
AcDbEntity
  8
DEFAULT
  6
CONTINUOUS
 62
   136
100
AcDbVertex
100
AcDb2dVertex
 10
70.3703458655
 20
119.8732145434
 30
0.0
  0
VERTEX
  5
1AA
330
16C
100
AcDbEntity
  8
DEFAULT
  6
CONTINUOUS
 62
   136
100
AcDbVertex
100
AcDb2dVertex
 10
73.5703457846
 20
119.3398812236
 30
0.0
  0
SEQEND
  5
1AB
330
16C
100
AcDbEntity
  8
DEFAULT
  6
CONTINUOUS
 62
   136
  0
POLYLINE
  5
16D
330
16A
100
AcDbEntity
  8
DEFAULT
  6
CONTINUOUS
 62
   136
100
AcDb2dPolyline
 66
     1
 10
0.0
 20
0.0
 30
0.0
  0
VERTEX
  5
1AC
330
16D
100
AcDbEntity
  8
DEFAULT
  6
CONTINUOUS
 62
   136
100
AcDbVertex
100
AcDb2dVertex
 10
126.1703463039
 20
120.4065478633
 30
0.0
  0
VERTEX
  5
1AD
330
16D
100
AcDbEntity
  8
DEFAULT
  6
CONTINUOUS
 62
   136
100
AcDbVertex
100
AcDb2dVertex
 10
129.3703462231
 20
119.8732145434
 30
0.0
  0
VERTEX
  5
1AE
330
16D
100
AcDbEntity
  8
DEFAULT
  6
CONTINUOUS
 62
   136
100
AcDbVertex
100
AcDb2dVertex
 10
126.1703463039
 20
119.3398812236
 30
0.0
  0
SEQEND
  5
1AF
330
16D
100
AcDbEntity
  8
DEFAULT
  6
CONTINUOUS
 62
   136
  0
LINE
  5
16E
330
16A
100
AcDbEntity
  8
DEFAULT
  6
CONTINUOUS
 62
   136
100
AcDbLine
 10
70.3703458655
 20
135.6231202675
 30
0.0
 11
70.3703458655
 21
118.2732145839
 31
0.0
  0
LINE
  5
16F
330
16A
100
AcDbEntity
  8
DEFAULT
  6
CONTINUOUS
 62
   136
100
AcDbLine
 10
129.3703458655
 20
141.6231202675
 30
0.0
 11
129.3703458655
 21
118.2732145839
 31
0.0
  0
LINE
  5
170
330
16A
100
AcDbEntity
  8
DEFAULT
  6
CONTINUOUS
 62
   136
100
AcDbLine
 10
70.3703458655
 20
119.8732145434
 30
0.0
 11
129.3703462231
 21
119.8732145434
 31
0.0
  0
TEXT
  5
171
330
16A
100
AcDbEntity
  8
DEFAULT
  6
CONTINUOUS
 62
   136
100
AcDbText
 10
95.7103460443
 20
120.6732145434
 30
0.0
 40
3.2
  1
60.5
  7
SEACAD_SEANSI_TTF
 11
95.7103460443
 21
123.8732145434
 31
0.0
100
AcDbText
 73
     3
  0
ENDBLK
  5
173
330
16A
100
AcDbEntity
  8
0
100
AcDbBlockEnd
  0
BLOCK
  5
17C
330
174
100
AcDbEntity
  8
0
100
AcDbBlockBegin
  2
GDIMGGROUP3
 70
     0
 10
0.0
 20
0.0
 30
0.0
  3
GDIMGGROUP3
  1

  0
POLYLINE
  5
176
330
174
100
AcDbEntity
  8
DEFAULT
  6
CONTINUOUS
 62
   136
100
AcDb2dPolyline
 66
     1
 10
0.0
 20
0.0
 30
0.0
  0
VERTEX
  5
1B0
330
176
100
AcDbEntity
  8
DEFAULT
  6
CONTINUOUS
 62
   136
100
AcDbVertex
100
AcDb2dVertex
 10
132.5703457846
 20
120.4065487425
 30
0.0
  0
VERTEX
  5
1B1
330
176
100
AcDbEntity
  8
DEFAULT
  6
CONTINUOUS
 62
   136
100
AcDbVertex
100
AcDb2dVertex
 10
129.3703458655
 20
119.8732154226
 30
0.0
  0
VERTEX
  5
1B2
330
176
100
AcDbEntity
  8
DEFAULT
  6
CONTINUOUS
 62
   136
100
AcDbVertex
100
AcDb2dVertex
 10
132.5703457846
 20
119.3398821027
 30
0.0
  0
SEQEND
  5
1B3
330
176
100
AcDbEntity
  8
DEFAULT
  6
CONTINUOUS
 62
   136
  0
POLYLINE
  5
177
330
174
100
AcDbEntity
  8
DEFAULT
  6
CONTINUOUS
 62
   136
100
AcDb2dPolyline
 66
     1
 10
0.0
 20
0.0
 30
0.0
  0
VERTEX
  5
1B4
330
177
100
AcDbEntity
  8
DEFAULT
  6
CONTINUOUS
 62
   136
100
AcDbVertex
100
AcDb2dVertex
 10
143.6963466844
 20
120.4065487425
 30
0.0
  0
VERTEX
  5
1B5
330
177
100
AcDbEntity
  8
DEFAULT
  6
CONTINUOUS
 62
   136
100
AcDbVertex
100
AcDb2dVertex
 10
146.8963466036
 20
119.8732154226
 30
0.0
  0
VERTEX
  5
1B6
330
177
100
AcDbEntity
  8
DEFAULT
  6
CONTINUOUS
 62
   136
100
AcDbVertex
100
AcDb2dVertex
 10
143.6963466844
 20
119.3398821027
 30
0.0
  0
SEQEND
  5
1B7
330
177
100
AcDbEntity
  8
DEFAULT
  6
CONTINUOUS
 62
   136
  0
LINE
  5
178
330
174
100
AcDbEntity
  8
DEFAULT
  6
CONTINUOUS
 62
   136
100
AcDbLine
 10
129.3703458655
 20
141.6231202675
 30
0.0
 11
129.3703458655
 21
118.273215463
 31
0.0
  0
LINE
  5
179
330
174
100
AcDbEntity
  8
DEFAULT
  6
CONTINUOUS
 62
   136
100
AcDbLine
 10
146.8963458655
 20
156.4231202675
 30
0.0
 11
146.8963458655
 21
118.273215463
 31
0.0
  0
LINE
  5
17A
330
174
100
AcDbEntity
  8
DEFAULT
  6
CONTINUOUS
 62
   136
100
AcDbLine
 10
129.3703458655
 20
119.8732154226
 30
0.0
 11
146.8963466036
 21
119.8732154226
 31
0.0
  0
TEXT
  5
17B
330
174
100
AcDbEntity
  8
DEFAULT
  6
CONTINUOUS
 62
   136
100
AcDbText
 10
131.7918828199
 20
120.6732154226
 30
0.0
 40
3.2
  1
17.526
  7
SEACAD_SEANSI_TTF
 11
131.7918828199
 21
123.8732154226
 31
0.0
100
AcDbText
 73
     3
  0
ENDBLK
  5
17D
330
174
100
AcDbEntity
  8
0
100
AcDbBlockEnd
  0
BLOCK
  5
186
330
17E
100
AcDbEntity
  8
0
100
AcDbBlockBegin
  2
GDIMGGROUP4
 70
     0
 10
0.0
 20
0.0
 30
0.0
  3
GDIMGGROUP4
  1

  0
POLYLINE
  5
180
330
17E
100
AcDbEntity
  8
DEFAULT
  6
CONTINUOUS
 62
   136
100
AcDb2dPolyline
 66
     1
 10
0.0
 20
0.0
 30
0.0
  0
VERTEX
  5
1B8
330
180
100
AcDbEntity
  8
DEFAULT
  6
CONTINUOUS
 62
   136
100
AcDbVertex
100
AcDb2dVertex
 10
126.1703459463
 20
128.2451509203
 30
0.0
  0
VERTEX
  5
1B9
330
180
100
AcDbEntity
  8
DEFAULT
  6
CONTINUOUS
 62
   136
100
AcDbVertex
100
AcDb2dVertex
 10
129.3703458655
 20
127.7118176004
 30
0.0
  0
VERTEX
  5
1BA
330
180
100
AcDbEntity
  8
DEFAULT
  6
CONTINUOUS
 62
   136
100
AcDbVertex
100
AcDb2dVertex
 10
126.1703459463
 20
127.1784842805
 30
0.0
  0
SEQEND
  5
1BB
330
180
100
AcDbEntity
  8
DEFAULT
  6
CONTINUOUS
 62
   136
  0
POLYLINE
  5
181
330
17E
100
AcDbEntity
  8
DEFAULT
  6
CONTINUOUS
 62
   136
100
AcDb2dPolyline
 66
     1
 10
0.0
 20
0.0
 30
0.0
  0
VERTEX
  5
1BC
330
181
100
AcDbEntity
  8
DEFAULT
  6
CONTINUOUS
 62
   136
100
AcDbVertex
100
AcDb2dVertex
 10
136.5703457846
 20
128.2451509203
 30
0.0
  0
VERTEX
  5
1BD
330
181
100
AcDbEntity
  8
DEFAULT
  6
CONTINUOUS
 62
   136
100
AcDbVertex
100
AcDb2dVertex
 10
133.3703458655
 20
127.7118176004
 30
0.0
  0
VERTEX
  5
1BE
330
181
100
AcDbEntity
  8
DEFAULT
  6
CONTINUOUS
 62
   136
100
AcDbVertex
100
AcDb2dVertex
 10
136.5703457846
 20
127.1784842805
 30
0.0
  0
SEQEND
  5
1BF
330
181
100
AcDbEntity
  8
DEFAULT
  6
CONTINUOUS
 62
   136
  0
LINE
  5
182
330
17E
100
AcDbEntity
  8
DEFAULT
  6
CONTINUOUS
 62
   136
100
AcDbLine
 10
129.3703458655
 20
141.6231202675
 30
0.0
 11
129.3703458655
 21
126.1118176408
 31
0.0
  0
LINE
  5
183
330
17E
100
AcDbEntity
  8
DEFAULT
  6
CONTINUOUS
 62
   136
100
AcDbLine
 10
133.3703458655
 20
144.4231202675
 30
0.0
 11
133.3703458655
 21
126.1118176408
 31
0.0
  0
LINE
  5
184
330
17E
100
AcDbEntity
  8
DEFAULT
  6
CONTINUOUS
 62
   136
100
AcDbLine
 10
122.9703460271
 20
127.7118176004
 30
0.0
 11
139.7703458938
 21
127.7118176004
 31
0.0
  0
TEXT
  5
185
330
17E
100
AcDbEntity
  8
DEFAULT
  6
CONTINUOUS
 62
   136
100
AcDbText
 10
130.1996142531
 20
128.5118176004
 30
0.0
 40
3.2
  1
4
  7
SEACAD_SEANSI_TTF
 11
130.1996142531
 21
131.7118176004
 31
0.0
100
AcDbText
 73
     3
  0
ENDBLK
  5
187
330
17E
100
AcDbEntity
  8
0
100
AcDbBlockEnd
  0
BLOCK
  5
190
330
188
100
AcDbEntity
  8
0
100
AcDbBlockBegin
  2
GDIMGGROUP5
 70
     0
 10
0.0
 20
0.0
 30
0.0
  3
GDIMGGROUP5
  1

  0
POLYLINE
  5
18A
330
188
100
AcDbEntity
  8
DEFAULT
  6
CONTINUOUS
 62
   136
100
AcDb2dPolyline
 66
     1
 10
0.0
 20
0.0
 30
0.0
  0
VERTEX
  5
1C0
330
18A
100
AcDbEntity
  8
DEFAULT
  6
CONTINUOUS
 62
   136
100
AcDbVertex
100
AcDb2dVertex
 10
157.4427307291
 20
167.203120316
 30
0.0
  0
VERTEX
  5
1C1
330
18A
100
AcDbEntity
  8
DEFAULT
  6
CONTINUOUS
 62
   136
100
AcDbVertex
100
AcDb2dVertex
 10
157.976064049
 20
170.4031202352
 30
0.0
  0
VERTEX
  5
1C2
330
18A
100
AcDbEntity
  8
DEFAULT
  6
CONTINUOUS
 62
   136
100
AcDbVertex
100
AcDb2dVertex
 10
158.5093973688
 20
167.203120316
 30
0.0
  0
SEQEND
  5
1C3
330
18A
100
AcDbEntity
  8
DEFAULT
  6
CONTINUOUS
 62
   136
  0
POLYLINE
  5
18B
330
188
100
AcDbEntity
  8
DEFAULT
  6
CONTINUOUS
 62
   136
100
AcDb2dPolyline
 66
     1
 10
0.0
 20
0.0
 30
0.0
  0
VERTEX
  5
1C4
330
18B
100
AcDbEntity
  8
DEFAULT
  6
CONTINUOUS
 62
   136
100
AcDbVertex
100
AcDb2dVertex
 10
157.4427307291
 20
148.2031204613
 30
0.0
  0
VERTEX
  5
1C5
330
18B
100
AcDbEntity
  8
DEFAULT
  6
CONTINUOUS
 62
   136
100
AcDbVertex
100
AcDb2dVertex
 10
157.976064049
 20
145.0031205421
 30
0.0
  0
VERTEX
  5
1C6
330
18B
100
AcDbEntity
  8
DEFAULT
  6
CONTINUOUS
 62
   136
100
AcDbVertex
100
AcDb2dVertex
 10
158.5093973688
 20
148.2031204613
 30
0.0
  0
SEQEND
  5
1C7
330
18B
100
AcDbEntity
  8
DEFAULT
  6
CONTINUOUS
 62
   136
  0
LINE
  5
18C
330
188
100
AcDbEntity
  8
DEFAULT
  6
CONTINUOUS
 62
   136
100
AcDbLine
 10
133.9503458331
 20
170.4031202352
 30
0.0
 11
159.5760640086
 21
170.4031202352
 31
0.0
  0
LINE
  5
18D
330
188
100
AcDbEntity
  8
DEFAULT
  6
CONTINUOUS
 62
   136
100
AcDbLine
 10
133.9503458331
 20
145.0031202352
 30
0.0
 11
159.5760640086
 21
145.0031202352
 31
0.0
  0
LINE
  5
18E
330
188
100
AcDbEntity
  8
DEFAULT
  6
CONTINUOUS
 62
   136
100
AcDbLine
 10
157.976064049
 20
170.4031202352
 30
0.0
 11
157.976064049
 21
145.0031205421
 31
0.0
  0
TEXT
  5
18F
330
188
100
AcDbEntity
  8
DEFAULT
  6
CONTINUOUS
 62
   136
100
AcDbText
 10
157.176064049
 20
146.0309252667
 30
0.0
 40
3.2
  1
1-32UN-2A
 50
90.0
  7
SEACAD_SEANSI_TTF
 11
153.976064049
 21
146.0309252667
 31
0.0
100
AcDbText
 73
     3
  0
ENDBLK
  5
191
330
188
100
AcDbEntity
  8
0
100
AcDbBlockEnd
  0
ENDSEC
  0
SECTION
  2
ENTITIES
  0
TEXT
  5
5E
330
1F
100
AcDbEntity
  8
DEFAULT
  6
CONTINUOUS
 62
     7
100
AcDbText
 10
25.2195424571
 20
221.2370432037
 30
0.0
 40
3.2
  1
FL-BC3518-9M
  7
SEACAD_SEANSI_TTF
 11
25.2195424571
 21
224.4370432037
 31
0.0
100
AcDbText
 73
     3
  0
INSERT
  5
61
330
1F
100
AcDbEntity
  8
DEFAULT
100
AcDbBlockReference
  2
SE
 10
0.0
 20
0.0
 30
0.0
  0
INSERT
  5
155
330
1F
100
AcDbEntity
  8
DEFAULT
100
AcDbBlockReference
  2
GDIMGGROUP
 10
0.0
 20
0.0
 30
0.0
  0
INSERT
  5
15F
330
1F
100
AcDbEntity
  8
DEFAULT
100
AcDbBlockReference
  2
GDIMGGROUP1
 10
0.0
 20
0.0
 30
0.0
  0
INSERT
  5
16B
330
1F
100
AcDbEntity
  8
DEFAULT
100
AcDbBlockReference
  2
GDIMGGROUP2
 10
0.0
 20
0.0
 30
0.0
  0
INSERT
  5
175
330
1F
100
AcDbEntity
  8
DEFAULT
100
AcDbBlockReference
  2
GDIMGGROUP3
 10
0.0
 20
0.0
 30
0.0
  0
INSERT
  5
17F
330
1F
100
AcDbEntity
  8
DEFAULT
100
AcDbBlockReference
  2
GDIMGGROUP4
 10
0.0
 20
0.0
 30
0.0
  0
INSERT
  5
189
330
1F
100
AcDbEntity
  8
DEFAULT
100
AcDbBlockReference
  2
GDIMGGROUP5
 10
0.0
 20
0.0
 30
0.0
  0
ENDSEC
  0
SECTION
  2
OBJECTS
  0
DICTIONARY
  5
C
330
0
100
AcDbDictionary
  3
ACAD_GROUP
350
D
  3
ACAD_LAYOUT
350
1A
  3
ACAD_MLEADERSTYLE
350
194
  3
ACAD_MLINESTYLE
350
17
  3
ACAD_PLOTSETTINGS
350
19
  3
ACAD_SCALELIST
350
3B
  3
ACAD_VISUALSTYLE
350
2A
  3
ACDBVARIABLEDICTIONARY
350
192
1001
ACAD
1000
TREAT_AS_HARD
1070
     0
  0
DICTIONARY
  5
D
102
{ACAD_REACTORS
330
C
102
}
330
C
100
AcDbDictionary
1001
ACAD
1000
TREAT_AS_HARD
1070
     0
  0
DICTIONARY
  5
1A
102
{ACAD_REACTORS
330
C
102
}
330
C
100
AcDbDictionary
1001
ACAD
1000
TREAT_AS_HARD
1070
     0
  0
DICTIONARY
  5
194
102
{ACAD_REACTORS
330
C
102
}
330
C
100
AcDbDictionary
1001
ACAD
1000
TREAT_AS_HARD
1070
     0
  0
DICTIONARY
  5
17
102
{ACAD_REACTORS
330
C
102
}
330
C
100
AcDbDictionary
  3
STANDARD
350
18
1001
ACAD
1000
TREAT_AS_HARD
1070
     0
  0
DICTIONARY
  5
19
102
{ACAD_REACTORS
330
C
102
}
330
C
100
AcDbDictionary
1001
ACAD
1000
TREAT_AS_HARD
1070
     0
  0
DICTIONARY
  5
3B
102
{ACAD_REACTORS
330
C
102
}
330
C
100
AcDbDictionary
  3
A0
350
3C
  3
A1
350
3D
  3
A2
350
3E
  3
A3
350
3F
  3
A4
350
40
  3
A5
350
41
  3
A6
350
42
  3
A7
350
43
  3
A8
350
44
  3
A9
350
45
  3
B0
350
46
  3
B1
350
47
  3
B2
350
48
  3
B3
350
49
  3
B4
350
4A
  3
B5
350
4B
  3
B6
350
4C
  3
B7
350
4D
  3
B8
350
4E
  3
B9
350
4F
  3
C0
350
50
  3
C1
350
51
  3
C2
350
52
  3
C3
350
53
  3
C4
350
54
  3
C5
350
55
  3
C6
350
56
  3
C7
350
57
  3
C8
350
58
  3
C9
350
59
  3
D0
350
5A
  3
D1
350
5B
  3
D2
350
5C
1001
ACAD
1000
TREAT_AS_HARD
1070
     0
  0
DICTIONARY
  5
2A
102
{ACAD_REACTORS
330
C
102
}
330
C
100
AcDbDictionary
  3
2DWIREFRAME
350
2F
  3
3D_HIDDEN
350
31
  3
3DWIREFRAME
350
30
  3
BASIC
350
32
  3
BRIGHTEN
350
36
  3
COLORCHANGE
350
3A
  3
CONCEPTUAL
350
34
  3
DIM
350
35
  3
FACEPATTERN
350
39
  3
FLAT
350
2B
  3
FLATWITHEDGES
350
2C
  3
GOURAUD
350
2D
  3
GOURAUDWITHEDGES
350
2E
  3
LINEPATTERN
350
38
  3
REALISTIC
350
33
  3
THICKEN
350
37
1001
ACAD
1000
TREAT_AS_HARD
1070
     0
  0
DICTIONARY
  5
192
102
{ACAD_REACTORS
330
C
102
}
330
C
100
AcDbDictionary
  3
CANNOSCALE
350
197
  3
PSOLHEIGHT
350
196
  3
PSOLWIDTH
350
195
1001
ACAD
1000
TREAT_AS_HARD
1070
     0
  0
MLINESTYLE
  5
18
102
{ACAD_REACTORS
330
17
102
}
330
17
100
AcDbMlineStyle
  2
Standard
 70
     0
  3

 62
   256
 51
90.0
 52
90.0
 71
     2
 49
0.5
 62
   256
  6
BYLAYER
 49
-0.5
 62
   256
  6
BYLAYER
  0
ACAD_PROXY_OBJECT
  5
3C
102
{ACAD_REACTORS
330
3B
102
}
330
3B
100
AcDbZombieObject
 90
      499
 91
      502
 93
       41
310
903313A31580
  0
ACAD_PROXY_OBJECT
  5
3D
102
{ACAD_REACTORS
330
3B
102
}
330
3B
100
AcDbZombieObject
 90
      499
 91
      502
 93
      105
310
903313A324000000000000004000
  0
ACAD_PROXY_OBJECT
  5
3E
102
{ACAD_REACTORS
330
3B
102
}
330
3B
100
AcDbZombieObject
 90
      499
 91
      502
 93
      105
310
903313A344000000000000104000
  0
ACAD_PROXY_OBJECT
  5
3F
102
{ACAD_REACTORS
330
3B
102
}
330
3B
100
AcDbZombieObject
 90
      499
 91
      502
 93
      105
310
903313A354000000000000144000
  0
ACAD_PROXY_OBJECT
  5
40
102
{ACAD_REACTORS
330
3B
102
}
330
3B
100
AcDbZombieObject
 90
      499
 91
      502
 93
      105
310
903313A384000000000000204000
  0
ACAD_PROXY_OBJECT
  5
41
102
{ACAD_REACTORS
330
3B
102
}
330
3B
100
AcDbZombieObject
 90
      499
 91
      502
 93
      113
310
904313A31304000000000000244000
  0
ACAD_PROXY_OBJECT
  5
42
102
{ACAD_REACTORS
330
3B
102
}
330
3B
100
AcDbZombieObject
 90
      499
 91
      502
 93
      113
310
904313A31364000000000000304000
  0
ACAD_PROXY_OBJECT
  5
43
102
{ACAD_REACTORS
330
3B
102
}
330
3B
100
AcDbZombieObject
 90
      499
 91
      502
 93
      113
310
904313A32304000000000000344000
  0
ACAD_PROXY_OBJECT
  5
44
102
{ACAD_REACTORS
330
3B
102
}
330
3B
100
AcDbZombieObject
 90
      499
 91
      502
 93
      113
310
904313A333040000000000003E4000
  0
ACAD_PROXY_OBJECT
  5
45
102
{ACAD_REACTORS
330
3B
102
}
330
3B
100
AcDbZombieObject
 90
      499
 91
      502
 93
      113
310
904313A34304000000000000444000
  0
ACAD_PROXY_OBJECT
  5
46
102
{ACAD_REACTORS
330
3B
102
}
330
3B
100
AcDbZombieObject
 90
      499
 91
      502
 93
      113
310
904313A35304000000000000494000
  0
ACAD_PROXY_OBJECT
  5
47
102
{ACAD_REACTORS
330
3B
102
}
330
3B
100
AcDbZombieObject
 90
      499
 91
      502
 93
      121
310
905313A3130304000000000000594000
  0
ACAD_PROXY_OBJECT
  5
48
102
{ACAD_REACTORS
330
3B
102
}
330
3B
100
AcDbZombieObject
 90
      499
 91
      502
 93
      105
310
903323A310000000000000010100
  0
ACAD_PROXY_OBJECT
  5
49
102
{ACAD_REACTORS
330
3B
102
}
330
3B
100
AcDbZombieObject
 90
      499
 91
      502
 93
      105
310
903343A310000000000000410100
  0
ACAD_PROXY_OBJECT
  5
4A
102
{ACAD_REACTORS
330
3B
102
}
330
3B
100
AcDbZombieObject
 90
      499
 91
      502
 93
      105
310
903383A310000000000000810100
  0
ACAD_PROXY_OBJECT
  5
4B
102
{ACAD_REACTORS
330
3B
102
}
330
3B
100
AcDbZombieObject
 90
      499
 91
      502
 93
      113
310
90431303A310000000000000910100
  0
ACAD_PROXY_OBJECT
  5
4C
102
{ACAD_REACTORS
330
3B
102
}
330
3B
100
AcDbZombieObject
 90
      499
 91
      502
 93
      121
310
9053130303A310000000000001650100
  0
ACAD_PROXY_OBJECT
  5
4D
102
{ACAD_REACTORS
330
3B
102
}
330
3B
100
AcDbZombieObject
 90
      499
 91
      502
 93
      257
310
90E312F31323822203D2031272D3022000000000000200FC000000000000284000
  0
ACAD_PROXY_OBJECT
  5
4E
102
{ACAD_REACTORS
330
3B
102
}
330
3B
100
AcDbZombieObject
 90
      499
 91
      502
 93
      249
310
90D312F363422203D2031272D3022000000000000240FC000000000000284000
  0
ACAD_PROXY_OBJECT
  5
4F
102
{ACAD_REACTORS
330
3B
102
}
330
3B
100
AcDbZombieObject
 90
      499
 91
      502
 93
      249
310
90D312F333222203D2031272D3022000000000000280FC000000000000284000
  0
ACAD_PROXY_OBJECT
  5
50
102
{ACAD_REACTORS
330
3B
102
}
330
3B
100
AcDbZombieObject
 90
      499
 91
      502
 93
      249
310
90D312F313622203D2031272D30220000000000002C0FC000000000000284000
  0
ACAD_PROXY_OBJECT
  5
51
102
{ACAD_REACTORS
330
3B
102
}
330
3B
100
AcDbZombieObject
 90
      499
 91
      502
 93
      249
310
90D332F333222203D2031272D30220000000000002E0FC000000000000284000
  0
ACAD_PROXY_OBJECT
  5
52
102
{ACAD_REACTORS
330
3B
102
}
330
3B
100
AcDbZombieObject
 90
      499
 91
      502
 93
      241
310
90C312F3822203D2031272D3022000000000000300FC000000000000284000
  0
ACAD_PROXY_OBJECT
  5
53
102
{ACAD_REACTORS
330
3B
102
}
330
3B
100
AcDbZombieObject
 90
      499
 91
      502
 93
      249
310
90D332F313622203D2031272D3022000000000000320FC000000000000284000
  0
ACAD_PROXY_OBJECT
  5
54
102
{ACAD_REACTORS
330
3B
102
}
330
3B
100
AcDbZombieObject
 90
      499
 91
      502
 93
      241
310
90C312F3422203D2031272D3022000000000000340FC000000000000284000
  0
ACAD_PROXY_OBJECT
  5
55
102
{ACAD_REACTORS
330
3B
102
}
330
3B
100
AcDbZombieObject
 90
      499
 91
      502
 93
      241
310
90C332F3822203D2031272D3022000000000000360FC000000000000284000
  0
ACAD_PROXY_OBJECT
  5
56
102
{ACAD_REACTORS
330
3B
102
}
330
3B
100
AcDbZombieObject
 90
      499
 91
      502
 93
      241
310
90C312F3222203D2031272D3022000000000000380FC000000000000284000
  0
ACAD_PROXY_OBJECT
  5
57
102
{ACAD_REACTORS
330
3B
102
}
330
3B
100
AcDbZombieObject
 90
      499
 91
      502
 93
      241
310
90C332F3422203D2031272D30220000000000003A0FC000000000000284000
  0
ACAD_PROXY_OBJECT
  5
58
102
{ACAD_REACTORS
330
3B
102
}
330
3B
100
AcDbZombieObject
 90
      499
 91
      502
 93
      161
310
90A3122203D2031272D30224000000000000284000
  0
ACAD_PROXY_OBJECT
  5
59
102
{ACAD_REACTORS
330
3B
102
}
330
3B
100
AcDbZombieObject
 90
      499
 91
      502
 93
      257
310
90E312D312F3222203D2031272D30220000000000003E0FC000000000000284000
  0
ACAD_PROXY_OBJECT
  5
5A
102
{ACAD_REACTORS
330
3B
102
}
330
3B
100
AcDbZombieObject
 90
      499
 91
      502
 93
      225
310
90A3322203D2031272D302200000000000002100000000000000284000
  0
ACAD_PROXY_OBJECT
  5
5B
102
{ACAD_REACTORS
330
3B
102
}
330
3B
100
AcDbZombieObject
 90
      499
 91
      502
 93
      225
310
90A3622203D2031272D302200000000000006100000000000000284000
  0
ACAD_PROXY_OBJECT
  5
5C
102
{ACAD_REACTORS
330
3B
102
}
330
3B
100
AcDbZombieObject
 90
      499
 91
      502
 93
      249
310
90D31272D3022203D2031272D30220000000000000A100000000000000284000
  0
ACAD_PROXY_OBJECT
  5
2F
102
{ACAD_REACTORS
330
2A
102
}
330
2A
100
AcDbZombieObject
 90
      499
 91
      501
 93
      436
310
42CC9915DA5C99599C985B595049028333333333333E3BF0000000000000FB0107901411070040501600405405064090741402480A0340
1001
ACAD
1000
AcDbSavedByObjectVersion
1070
     0
  0
ACAD_PROXY_OBJECT
  5
31
102
{ACAD_REACTORS
330
2A
102
}
330
2A
100
AcDbZombieObject
 90
      499
 91
      501
 93
      500
310
424CD108121A5919195B90640502408333333333333E3BF0000000000000FB01079024090700405020000000000001110200405405064090740C02480A0340
1001
ACAD
1000
AcDbSavedByObjectVersion
1070
     0
  0
ACAD_PROXY_OBJECT
  5
30
102
{ACAD_REACTORS
330
2A
102
}
330
2A
100
AcDbZombieObject
 90
      499
 91
      501
 93
      436
310
42CCD915DA5C99599C985B595059028333333333333E3BF0000000000000FB0107901411070040501600405405064090741402480A0340
1001
ACAD
1000
AcDbSavedByObjectVersion
1070
     0
  0
ACAD_PROXY_OBJECT
  5
32
102
{ACAD_REACTORS
330
2A
102
}
330
2A
100
AcDbZombieObject
 90
      499
 91
      501
 93
      388
310
4150985CDA58D07406404333333333333E3BF0000000000000FB0107A41107004050150841D405064090741402480A0350
1001
ACAD
1000
AcDbSavedByObjectVersion
1070
     0
  0
ACAD_PROXY_OBJECT
  5
36
102
{ACAD_REACTORS
330
2A
102
}
330
2A
100
AcDbZombieObject
 90
      499
 91
      501
 93
      428
310
42109C9A59DA1D195B90C409028333333333333E3BF0000000000000FB010790141107004050150841D405064090741402480A029950
1001
ACAD
1000
AcDbSavedByObjectVersion
1070
     0
  0
ACAD_PROXY_OBJECT
  5
3A
102
{ACAD_REACTORS
330
2A
102
}
330
2A
100
AcDbZombieObject
 90
      499
 91
      501
 93
      452
310
42D0DBDB1BDC90DA185B99D95104090240C333333333333E3BF0000000000000FB0108901411070040501508421405064090741402480A0350
1001
ACAD
1000
AcDbSavedByObjectVersion
1070
     0
  0
ACAD_PROXY_OBJECT
  5
34
102
{ACAD_REACTORS
330
2A
102
}
330
2A
100
AcDbZombieObject
 90
      499
 91
      501
 93
      500
310
4290DBDB98D95C1D1D585B10940D028333333333333E3BF0000000000000FB0107902409070040501000000000000111010841D405064090740C02480A0340
1001
ACAD
1000
AcDbSavedByObjectVersion
1070
     0
  0
ACAD_PROXY_OBJECT
  5
35
102
{ACAD_REACTORS
330
2A
102
}
330
2A
100
AcDbZombieObject
 90
      499
 91
      501
 93
      412
310
40D11A5B50B409028333333333333E3BF0000000000000FB010790141107004050150841D405064090741402480A02677FFFFFD0
1001
ACAD
1000
AcDbSavedByObjectVersion
1070
     0
  0
ACAD_PROXY_OBJECT
  5
39
102
{ACAD_REACTORS
330
2A
102
}
330
2A
100
AcDbZombieObject
 90
      499
 91
      501
 93
      444
310
42D19858D95C185D1D195C9B90F409028333333333333E3BF0000000000000FB010790141107004050150841D405064090741402480A0350
1001
ACAD
1000
AcDbSavedByObjectVersion
1070
     0
  0
ACAD_PROXY_OBJECT
  5
2B
102
{ACAD_REACTORS
330
2A
102
}
330
2A
100
AcDbZombieObject
 90
      499
 91
      501
 93
      388
310
41119B185D240901404333333333333E3BF0000000000000F9010740A41107004050150841D405064090741402480A1B50
1001
ACAD
1000
AcDbSavedByObjectVersion
1070
     0
  0
ACAD_PROXY_OBJECT
  5
2C
102
{ACAD_REACTORS
330
2A
102
}
330
2A
100
AcDbZombieObject
 90
      499
 91
      501
 93
      476
310
43519B185D15DA5D1A115919D95CD0140901404333333333333E3BF0000000000000F9010740901411070040501600405405064090741402480A1B50
1001
ACAD
1000
AcDbSavedByObjectVersion
1070
     0
  0
ACAD_PROXY_OBJECT
  5
2D
102
{ACAD_REACTORS
330
2A
102
}
330
2A
100
AcDbZombieObject
 90
      499
 91
      501
 93
      412
310
41D1DBDD5C985D5910240902404333333333333E3BF0000000000000F9010740A411070040501641D405064090741402480A1B50
1001
ACAD
1000
AcDbSavedByObjectVersion
1070
     0
  0
ACAD_PROXY_OBJECT
  5
2E
102
{ACAD_REACTORS
330
2A
102
}
330
2A
100
AcDbZombieObject
 90
      499
 91
      501
 93
      500
310
4411DBDD5C985D5915DA5D1A115919D95CD0340902404333333333333E3BF0000000000000F9010740901411070040501600405405064090741402480A1B50
1001
ACAD
1000
AcDbSavedByObjectVersion
1070
     0
  0
ACAD_PROXY_OBJECT
  5
38
102
{ACAD_REACTORS
330
2A
102
}
330
2A
100
AcDbZombieObject
 90
      499
 91
      501
 93
      444
310
42D31A5B995C185D1D195C9B90E409028333333333333E3BF0000000000000FB010790141107004050750841D405064090741402483A0350
1001
ACAD
1000
AcDbSavedByObjectVersion
1070
     0
  0
ACAD_PROXY_OBJECT
  5
33
102
{ACAD_REACTORS
330
2A
102
}
330
2A
100
AcDbZombieObject
 90
      499
 91
      501
 93
      420
310
425499585B1A5CDD1A58D08409028333333333333E3BF0000000000000FB01079019070040501508421405064090741402480A1B40
1001
ACAD
1000
AcDbSavedByObjectVersion
1070
     0
  0
ACAD_PROXY_OBJECT
  5
37
102
{ACAD_REACTORS
330
2A
102
}
330
2A
100
AcDbZombieObject
 90
      499
 91
      501
 93
      412
310
41D51A1A58DAD95B90D409028333333333333E3BF0000000000000FB010790141107004050150C41D405064090741402480A0350
1001
ACAD
1000
AcDbSavedByObjectVersion
1070
     0
  0
DICTIONARYVAR
  5
197
102
{ACAD_REACTORS
330
192
102
}
330
192
100
DictionaryVariables
280
     0
  1
1:1
  0
DICTIONARYVAR
  5
196
102
{ACAD_REACTORS
330
192
102
}
330
192
100
DictionaryVariables
280
     0
  1
80.000000
  0
DICTIONARYVAR
  5
195
102
{ACAD_REACTORS
330
192
102
}
330
192
100
DictionaryVariables
280
     0
  1
5.000000
  0
ENDSEC
  0
EOF
