  0
SECTION
  2
HEADER
  9
$ACADVER
  1
AC1012
  9
$DWGCODEPAGE
  3
ansi_932
  9
$INSBASE
 10
0.0
 20
0.0
 30
0.0
  9
$EXTMIN
 10
0.0
 20
0.0
 30
0.0
  9
$EXTMAX
 10
210.0
 20
297.0
 30
0.0
  9
$LIMMIN
 10
0.0
 20
0.0
  9
$LIMMAX
 10
210.0
 20
297.0
  9
$ORTHOMODE
 70
     0
  9
$REGENMODE
 70
     1
  9
$FILLMODE
 70
     1
  9
$QTEXTMODE
 70
     0
  9
$MIRRTEXT
 70
     1
  9
$DRAGMODE
 70
     2
  9
$LTSCALE
 40
1.0
  9
$OSMODE
 70
    37
  9
$ATTMODE
 70
     1
  9
$TEXTSIZE
 40
2.5
  9
$TRACEWID
 40
1.0
  9
$TEXTSTYLE
  7
STANDARD
  9
$CLAYER
  8
0
  9
$CELTYPE
  6
BYLAYER
  9
$CECOLOR
 62
   256
  9
$CELTSCALE
 40
1.0
  9
$DELOBJ
 70
     1
  9
$DISPSILH
 70
     0
  9
$DIMSCALE
 40
1.0
  9
$DIMASZ
 40
2.5
  9
$DIMEXO
 40
0.625
  9
$DIMDLI
 40
3.75
  9
$DIMRND
 40
0.0
  9
$DIMDLE
 40
0.0
  9
$DIMEXE
 40
1.25
  9
$DIMTP
 40
0.0
  9
$DIMTM
 40
0.0
  9
$DIMTXT
 40
2.5
  9
$DIMCEN
 40
2.5
  9
$DIMTSZ
 40
0.0
  9
$DIMTOL
 70
     0
  9
$DIMLIM
 70
     0
  9
$DIMTIH
 70
     0
  9
$DIMTOH
 70
     0
  9
$DIMSE1
 70
     0
  9
$DIMSE2
 70
     0
  9
$DIMTAD
 70
     1
  9
$DIMZIN
 70
     8
  9
$DIMBLK
  1

  9
$DIMASO
 70
     1
  9
$DIMSHO
 70
     1
  9
$DIMPOST
  1

  9
$DIMAPOST
  1

  9
$DIMALT
 70
     0
  9
$DIMALTD
 70
     3
  9
$DIMALTF
 40
0.0393700787
  9
$DIMLFAC
 40
1.0
  9
$DIMTOFL
 70
     1
  9
$DIMTVP
 40
0.0
  9
$DIMTIX
 70
     0
  9
$DIMSOXD
 70
     0
  9
$DIMSAH
 70
     0
  9
$DIMBLK1
  1

  9
$DIMBLK2
  1

  9
$DIMSTYLE
  2
ISO-25
  9
$DIMCLRD
 70
     0
  9
$DIMCLRE
 70
     0
  9
$DIMCLRT
 70
     0
  9
$DIMTFAC
 40
1.0
  9
$DIMGAP
 40
0.625
  9
$DIMJUST
 70
     0
  9
$DIMSD1
 70
     0
  9
$DIMSD2
 70
     0
  9
$DIMTOLJ
 70
     0
  9
$DIMTZIN
 70
     8
  9
$DIMALTZ
 70
     0
  9
$DIMALTTZ
 70
     0
  9
$DIMFIT
 70
     3
  9
$DIMUPT
 70
     0
  9
$DIMUNIT
 70
     2
  9
$DIMDEC
 70
     2
  9
$DIMTDEC
 70
     2
  9
$DIMALTU
 70
     2
  9
$DIMALTTD
 70
     3
  9
$DIMTXSTY
  7
STANDARD
  9
$DIMAUNIT
 70
     0
  9
$LUNITS
 70
     2
  9
$LUPREC
 70
     4
  9
$SKETCHINC
 40
1.0
  9
$FILLETRAD
 40
10.0
  9
$AUNITS
 70
     0
  9
$AUPREC
 70
     0
  9
$MENU
  1
.
  9
$ELEVATION
 40
0.0
  9
$PELEVATION
 40
0.0
  9
$THICKNESS
 40
0.0
  9
$LIMCHECK
 70
     0
  9
$CHAMFERA
 40
10.0
  9
$CHAMFERB
 40
10.0
  9
$CHAMFERC
 40
20.0
  9
$CHAMFERD
 40
0.0
  9
$SKPOLY
 70
     0
  9
$TDCREATE
 40
2458676.447566933
  9
$TDUPDATE
 40
2458676.447566945
  9
$TDINDWG
 40
0.0000000116
  9
$TDUSRTIMER
 40
0.0000000116
  9
$USRTIMER
 70
     1
  9
$ANGBASE
 50
0.0
  9
$ANGDIR
 70
     0
  9
$PDMODE
 70
     0
  9
$PDSIZE
 40
0.0
  9
$PLINEWID
 40
0.0
  9
$COORDS
 70
     1
  9
$SPLFRAME
 70
     0
  9
$SPLINETYPE
 70
     6
  9
$SPLINESEGS
 70
     8
  9
$ATTDIA
 70
     0
  9
$ATTREQ
 70
     1
  9
$HANDLING
 70
     1
  9
$HANDSEED
  5
1A8
  9
$SURFTAB1
 70
     6
  9
$SURFTAB2
 70
     6
  9
$SURFTYPE
 70
     6
  9
$SURFU
 70
     6
  9
$SURFV
 70
     6
  9
$UCSNAME
  2

  9
$UCSORG
 10
0.0
 20
0.0
 30
0.0
  9
$UCSXDIR
 10
1.0
 20
0.0
 30
0.0
  9
$UCSYDIR
 10
0.0
 20
1.0
 30
0.0
  9
$PUCSNAME
  2

  9
$PUCSORG
 10
0.0
 20
0.0
 30
0.0
  9
$PUCSXDIR
 10
1.0
 20
0.0
 30
0.0
  9
$PUCSYDIR
 10
0.0
 20
1.0
 30
0.0
  9
$USERI1
 70
     0
  9
$USERI2
 70
     0
  9
$USERI3
 70
     0
  9
$USERI4
 70
     0
  9
$USERI5
 70
     0
  9
$USERR1
 40
0.0
  9
$USERR2
 40
0.0
  9
$USERR3
 40
0.0
  9
$USERR4
 40
0.0
  9
$USERR5
 40
0.0
  9
$WORLDVIEW
 70
     1
  9
$SHADEDGE
 70
     3
  9
$SHADEDIF
 70
    70
  9
$TILEMODE
 70
     1
  9
$MAXACTVP
 70
    64
  9
$PINSBASE
 10
0.0
 20
0.0
 30
0.0
  9
$PLIMCHECK
 70
     0
  9
$PEXTMIN
 10
0.0
 20
0.0
 30
0.0
  9
$PEXTMAX
 10
210.0
 20
297.0
 30
0.0
  9
$PLIMMIN
 10
0.0
 20
0.0
  9
$PLIMMAX
 10
210.0
 20
297.0
  9
$UNITMODE
 70
     0
  9
$VISRETAIN
 70
     1
  9
$PLINEGEN
 70
     0
  9
$PSLTSCALE
 70
     1
  9
$TREEDEPTH
 70
  3020
  9
$PICKSTYLE
 70
     1
  9
$CMLSTYLE
  2
STANDARD
  9
$CMLJUST
 70
     0
  9
$CMLSCALE
 40
20.0
  9
$SAVEIMAGES
 70
     1
  0
ENDSEC
  0
SECTION
  2
CLASSES
  0
CLASS
  1
ACDBDICTIONARYWDFLT
  2
AcDbDictionaryWithDefault
  3
ObjectDBX Classes
 90
    32768
280
     0
281
     0
  0
CLASS
  1
VISUALSTYLE
  2
AcDbVisualStyle
  3
ObjectDBX Classes
 90
     4095
280
     0
281
     0
  0
CLASS
  1
SCALE
  2
AcDbScale
  3
ObjectDBX Classes
 90
     1153
280
     0
281
     0
  0
CLASS
  1
DICTIONARYVAR
  2
AcDbDictionaryVar
  3
ObjectDBX Classes
 90
        0
280
     0
281
     0
  0
CLASS
  1
XRECORD
  2
AcDbXrecord
  3
AutoCAD 2000
 90
    32768
280
     0
281
     0
  0
CLASS
  1
LWPOLYLINE
  2
AcDbPolyline
  3
AutoCAD 2000
 90
    32768
280
     0
281
     1
  0
CLASS
  1
HATCH
  2
AcDbHatch
  3
AutoCAD 2000
 90
    32768
280
     0
281
     1
  0
CLASS
  1
ACDBPLACEHOLDER
  2
AcDbPlaceHolder
  3
ObjectDBX Classes
 90
        0
280
     0
281
     0
  0
CLASS
  1
LAYOUT
  2
AcDbLayout
  3
ObjectDBX Classes
 90
        0
280
     0
281
     0
  0
ENDSEC
  0
SECTION
  2
TABLES
  0
TABLE
  2
VPORT
  5
8
330
0
100
AcDbSymbolTable
 70
     1
  0
VPORT
  5
29
330
8
100
AcDbSymbolTableRecord
100
AcDbViewportTableRecord
  2
*ACTIVE
 70
     0
 10
0.0
 20
0.0
 11
1.0
 21
1.0
 12
344.1869158879
 22
148.5
 13
0.0
 23
0.0
 14
10.0
 24
10.0
 15
10.0
 25
10.0
 16
0.0
 26
0.0
 36
1.0
 17
0.0
 27
0.0
 37
0.0
 40
297.0
 41
1.9729729729
 42
50.0
 43
0.0
 44
0.0
 50
0.0
 51
0.0
 71
     0
 72
   100
 73
     1
 74
     3
 75
     0
 76
     0
 77
     0
 78
     0
  0
ENDTAB
  0
TABLE
  2
LTYPE
  5
5
330
0
100
AcDbSymbolTable
 70
     2
  0
LTYPE
  5
14
330
5
100
AcDbSymbolTableRecord
100
AcDbLinetypeTableRecord
  2
BYBLOCK
 70
     0
  3

 72
    65
 73
     0
 40
0.0
  0
LTYPE
  5
15
330
5
100
AcDbSymbolTableRecord
100
AcDbLinetypeTableRecord
  2
BYLAYER
 70
     0
  3

 72
    65
 73
     0
 40
0.0
  0
LTYPE
  5
16
330
5
100
AcDbSymbolTableRecord
100
AcDbLinetypeTableRecord
  2
CONTINUOUS
 70
     0
  3
Solid line
 72
    65
 73
     0
 40
0.0
  0
LTYPE
  5
FF
330
5
100
AcDbSymbolTableRecord
100
AcDbLinetypeTableRecord
  2
DASHDOT2
 70
     0
  3
Dash dot (.5x) _._._._._._._._._._._._._._._.
 72
    65
 73
     4
 40
12.7
 49
6.35
 74
     4
 75
     0
340
0
 46
0.0
 50
0.0
 44
0.0
 45
0.0
 49
-3.175
 74
     4
 75
     0
340
0
 46
0.0
 50
0.0
 44
0.0
 45
0.0
 49
0.0
 74
     4
 75
     0
340
0
 46
0.0
 50
0.0
 44
0.0
 45
0.0
 49
-3.175
 74
     4
 75
     0
340
0
 46
0.0
 50
0.0
 44
0.0
 45
0.0
  0
ENDTAB
  0
TABLE
  2
LAYER
  5
2
330
0
100
AcDbSymbolTable
 70
    11
  0
LAYER
  5
10
330
2
100
AcDbSymbolTableRecord
100
AcDbLayerTableRecord
  2
0
 70
     0
 62
     7
  6
CONTINUOUS
  0
LAYER
  5
5F
330
2
100
AcDbSymbolTableRecord
100
AcDbLayerTableRecord
  2
DEFAULT
 70
     0
 62
     7
  6
CONTINUOUS
  0
LAYER
  5
63
330
2
100
AcDbSymbolTableRecord
100
AcDbLayerTableRecord
  2
KOTEIWAKU_001_SE
 70
     0
 62
     7
  6
CONTINUOUS
  0
LAYER
  5
80
330
2
100
AcDbSymbolTableRecord
100
AcDbLayerTableRecord
  2
02414025P_STD_00
 70
     0
 62
     7
  6
CONTINUOUS
  0
LAYER
  5
88
330
2
100
AcDbSymbolTableRecord
100
AcDbLayerTableRecord
  2
05117020P_001_SE
 70
     0
 62
     7
  6
CONTINUOUS
  0
LAYER
  5
8D
330
2
100
AcDbSymbolTableRecord
100
AcDbLayerTableRecord
  2
USHIROWAKU_001_S
 70
     0
 62
     7
  6
CONTINUOUS
  0
LAYER
  5
98
330
2
100
AcDbSymbolTableRecord
100
AcDbLayerTableRecord
  2
SHIBORI_RING_001
 70
     0
 62
     7
  6
CONTINUOUS
  0
LAYER
  5
A3
330
2
100
AcDbSymbolTableRecord
100
AcDbLayerTableRecord
  2
STOP_SCALE_001_S
 70
     0
 62
     7
  6
CONTINUOUS
  0
LAYER
  5
AA
330
2
100
AcDbSymbolTableRecord
100
AcDbLayerTableRecord
  2
RING_SCALE_BRANK
 70
     0
 62
     7
  6
CONTINUOUS
  0
LAYER
  5
DE
330
2
100
AcDbSymbolTableRecord
100
AcDbLayerTableRecord
  2
MIRANDA25MM_C-MO
 70
     0
 62
     7
  6
CONTINUOUS
  0
LAYER
  5
FE
330
2
100
AcDbSymbolTableRecord
100
AcDbLayerTableRecord
  2
DV1_デフォルト
 70
     0
 62
     7
  6
CONTINUOUS
  0
ENDTAB
  0
TABLE
  2
STYLE
  5
3
330
0
100
AcDbSymbolTable
 70
     3
  0
STYLE
  5
11
330
3
100
AcDbSymbolTableRecord
100
AcDbTextStyleTableRecord
  2
STANDARD
 70
     0
 40
0.0
 41
1.0
 50
0.0
 71
     0
 42
2.5
  3
txt
  4

  0
STYLE
  5
5D
330
3
100
AcDbSymbolTableRecord
100
AcDbTextStyleTableRecord
  2
SEACAD_SEANSI_TTF
 70
     0
 40
0.0
 41
1.0
 50
0.0
 71
     0
 42
0.2
  3
seansi.ttf
  4

  0
STYLE
  5
11A
330
3
100
AcDbSymbolTableRecord
100
AcDbTextStyleTableRecord
  2
SEACAD_SEMECA1_TTF
 70
     0
 40
0.0
 41
1.0
 50
0.0
 71
     0
 42
0.2
  3
semeca1.ttf
  4

  0
ENDTAB
  0
TABLE
  2
VIEW
  5
6
330
0
100
AcDbSymbolTable
 70
     0
  0
ENDTAB
  0
TABLE
  2
UCS
  5
7
330
0
100
AcDbSymbolTable
 70
     0
  0
ENDTAB
  0
TABLE
  2
APPID
  5
9
330
0
100
AcDbSymbolTable
 70
     1
  0
APPID
  5
12
330
9
100
AcDbSymbolTableRecord
100
AcDbRegAppTableRecord
  2
ACAD
 70
     0
  0
ENDTAB
  0
TABLE
  2
DIMSTYLE
  5
A
330
0
100
AcDbSymbolTable
 70
     1
  0
DIMSTYLE
105
27
330
A
100
AcDbSymbolTableRecord
100
AcDbDimStyleTableRecord
  2
ISO-25
 70
     0
  3

  4

  5

  6

  7

 40
1.0
 41
2.5
 42
0.625
 43
3.75
 44
1.25
 45
0.0
 46
0.0
 47
0.0
 48
0.0
140
2.5
141
2.5
142
0.0
143
0.0393700787
144
1.0
145
0.0
146
1.0
147
0.625
 71
     0
 72
     0
 73
     0
 74
     0
 75
     0
 76
     0
 77
     1
 78
     8
170
     0
171
     3
172
     1
173
     0
174
     0
175
     0
176
     0
177
     0
178
     0
270
     2
271
     2
272
     2
273
     2
274
     3
340
11
275
     0
280
     0
281
     0
282
     0
283
     0
284
     8
285
     0
286
     0
287
     3
288
     0
  0
ENDTAB
  0
TABLE
  2
BLOCK_RECORD
  5
1
330
0
100
AcDbSymbolTable
 70
    10
  0
BLOCK_RECORD
  5
1F
330
1
100
AcDbSymbolTableRecord
100
AcDbBlockTableRecord
  2
*MODEL_SPACE
  0
BLOCK_RECORD
  5
1B
330
1
100
AcDbSymbolTableRecord
100
AcDbBlockTableRecord
  2
*PAPER_SPACE
  0
BLOCK_RECORD
  5
61
330
1
100
AcDbSymbolTableRecord
100
AcDbBlockTableRecord
  2
SE
  0
BLOCK_RECORD
  5
107
330
1
100
AcDbSymbolTableRecord
100
AcDbBlockTableRecord
  2
GDIMGGROUP
  0
BLOCK_RECORD
  5
113
330
1
100
AcDbSymbolTableRecord
100
AcDbBlockTableRecord
  2
GDIMGGROUP1
  0
BLOCK_RECORD
  5
11F
330
1
100
AcDbSymbolTableRecord
100
AcDbBlockTableRecord
  2
GDIMGGROUP2
  0
BLOCK_RECORD
  5
129
330
1
100
AcDbSymbolTableRecord
100
AcDbBlockTableRecord
  2
GDIMGGROUP3
  0
BLOCK_RECORD
  5
133
330
1
100
AcDbSymbolTableRecord
100
AcDbBlockTableRecord
  2
GDIMGGROUP4
  0
BLOCK_RECORD
  5
13D
330
1
100
AcDbSymbolTableRecord
100
AcDbBlockTableRecord
  2
GDIMGGROUP5
  0
BLOCK_RECORD
  5
148
330
1
100
AcDbSymbolTableRecord
100
AcDbBlockTableRecord
  2
GDIMGGROUP6
  0
BLOCK_RECORD
  5
152
330
1
100
AcDbSymbolTableRecord
100
AcDbBlockTableRecord
  2
GDIMGGROUP7
  0
ENDTAB
  0
ENDSEC
  0
SECTION
  2
BLOCKS
  0
BLOCK
  5
20
330
1F
100
AcDbEntity
  8
0
100
AcDbBlockBegin
  2
*MODEL_SPACE
 70
     0
 10
0.0
 20
0.0
 30
0.0
  3
*MODEL_SPACE
  1

  0
ENDBLK
  5
21
330
1F
100
AcDbEntity
  8
0
100
AcDbBlockEnd
  0
BLOCK
  5
1C
330
1B
100
AcDbEntity
 67
     1
  8
0
100
AcDbBlockBegin
  2
*PAPER_SPACE
 70
     0
 10
0.0
 20
0.0
 30
0.0
  3
*PAPER_SPACE
  1

  0
ENDBLK
  5
1D
330
1B
100
AcDbEntity
 67
     1
  8
0
100
AcDbBlockEnd
  0
BLOCK
  5
105
330
61
100
AcDbEntity
  8
0
100
AcDbBlockBegin
  2
SE
 70
     0
 10
0.0
 20
0.0
 30
0.0
  3
SE
  1

  0
LINE
  5
64
330
61
100
AcDbEntity
  8
KOTEIWAKU_001_SE
  6
CONTINUOUS
 62
     7
100
AcDbLine
 10
100.8442042754
 20
180.2502773309
 30
0.0
 11
100.8442042754
 21
212.8502773309
 31
0.0
  0
LINE
  5
65
330
61
100
AcDbEntity
  8
KOTEIWAKU_001_SE
  6
CONTINUOUS
 62
     7
100
AcDbLine
 10
100.6442042754
 20
213.050279349
 30
0.0
 11
100.6442042754
 21
196.8002773309
 31
0.0
  0
LINE
  5
66
330
61
100
AcDbEntity
  8
KOTEIWAKU_001_SE
  6
CONTINUOUS
 62
     7
100
AcDbLine
 10
100.6442042754
 20
196.3002773309
 30
0.0
 11
100.6442042754
 21
180.0502753127
 31
0.0
  0
LINE
  5
67
330
61
100
AcDbEntity
  8
KOTEIWAKU_001_SE
  6
CONTINUOUS
 62
     7
100
AcDbLine
 10
90.2442042754
 20
213.050279349
 30
0.0
 11
90.2442042754
 21
196.8002773309
 31
0.0
  0
LINE
  5
68
330
61
100
AcDbEntity
  8
KOTEIWAKU_001_SE
  6
CONTINUOUS
 62
     7
100
AcDbLine
 10
90.2442042754
 20
196.3002773309
 30
0.0
 11
90.2442042754
 21
180.0502753127
 31
0.0
  0
LINE
  5
69
330
61
100
AcDbEntity
  8
KOTEIWAKU_001_SE
  6
CONTINUOUS
 62
     7
100
AcDbLine
 10
90.0442042754
 20
180.2502773309
 30
0.0
 11
90.0442042754
 21
212.8502773309
 31
0.0
  0
LINE
  5
6A
330
61
100
AcDbEntity
  8
KOTEIWAKU_001_SE
  6
CONTINUOUS
 62
     7
100
AcDbLine
 10
100.7957909508
 20
196.4502773309
 30
0.0
 11
100.6442042754
 21
196.3002773309
 31
0.0
  0
SPLINE
  5
6B
330
61
100
AcDbEntity
  8
KOTEIWAKU_001_SE
  6
CONTINUOUS
 62
     7
100
AcDbSpline
210
0.0
220
0.0
230
1.0
 70
     8
 71
     3
 72
    11
 73
     7
 74
     0
 42
0.0000000499994791
 43
0.0000000001
 40
0.0
 40
0.0
 40
0.0
 40
0.0
 40
0.1255292184134812
 40
0.1255292184134812
 40
0.1255292184134812
 40
1.0
 40
1.0
 40
1.0
 40
1.0
 10
100.7957909507551
 20
196.6502773308705
 30
0.0
 10
100.7958421411053
 20
196.6419084361406
 30
0.0
 10
100.7958869058402
 20
196.6335394996399
 30
0.0
 10
100.7959252445642
 20
196.625170536168
 30
0.0
 10
100.7961923072637
 20
196.5668733955942
 30
0.0
 10
100.7961475362571
 20
196.508573992596
 30
0.0
 10
100.7957909507551
 20
196.4502773308704
 30
0.0
  0
LINE
  5
6C
330
61
100
AcDbEntity
  8
KOTEIWAKU_001_SE
  6
CONTINUOUS
 62
     7
100
AcDbLine
 10
100.6442042754
 20
196.8002773309
 30
0.0
 11
100.7957909508
 21
196.6502773309
 31
0.0
  0
LINE
  5
6D
330
61
100
AcDbEntity
  8
KOTEIWAKU_001_SE
  6
CONTINUOUS
 62
     7
100
AcDbLine
 10
90.2442042754
 20
196.8002773309
 30
0.0
 11
100.6442042754
 21
196.8002773309
 31
0.0
  0
LINE
  5
6E
330
61
100
AcDbEntity
  8
KOTEIWAKU_001_SE
  6
CONTINUOUS
 62
     7
100
AcDbLine
 10
90.0926176001
 20
196.6502773309
 30
0.0
 11
100.7957909508
 21
196.6502773309
 31
0.0
  0
LINE
  5
6F
330
61
100
AcDbEntity
  8
KOTEIWAKU_001_SE
  6
CONTINUOUS
 62
     7
100
AcDbLine
 10
90.0926176001
 20
196.4502773309
 30
0.0
 11
100.7957909508
 21
196.4502773309
 31
0.0
  0
LINE
  5
70
330
61
100
AcDbEntity
  8
KOTEIWAKU_001_SE
  6
CONTINUOUS
 62
     7
100
AcDbLine
 10
90.0926176001
 20
196.6502773309
 30
0.0
 11
90.2442042754
 21
196.8002773309
 31
0.0
  0
SPLINE
  5
71
330
61
100
AcDbEntity
  8
KOTEIWAKU_001_SE
  6
CONTINUOUS
 62
     7
100
AcDbSpline
210
0.0
220
0.0
230
1.0
 70
     8
 71
     3
 72
    11
 73
     7
 74
     0
 42
0.0000000499994791
 43
0.0000000001
 40
0.0
 40
0.0
 40
0.0
 40
0.0
 40
0.8744707815865188
 40
0.8744707815865188
 40
0.8744707815865188
 40
1.0
 40
1.0
 40
1.0
 40
1.0
 10
90.09261760013615
 20
196.4502773308704
 30
0.0
 10
90.0922610146341
 20
196.508573992596
 30
0.0
 10
90.09221624362753
 20
196.5668733955942
 30
0.0
 10
90.09248330632705
 20
196.625170536168
 30
0.0
 10
90.09252164505097
 20
196.6335394996399
 30
0.0
 10
90.09256640978596
 20
196.6419084361406
 30
0.0
 10
90.09261760013615
 20
196.6502773308705
 30
0.0
  0
LINE
  5
72
330
61
100
AcDbEntity
  8
KOTEIWAKU_001_SE
  6
CONTINUOUS
 62
     7
100
AcDbLine
 10
90.2442042754
 20
196.3002773309
 30
0.0
 11
90.0926176001
 21
196.4502773309
 31
0.0
  0
LINE
  5
73
330
61
100
AcDbEntity
  8
KOTEIWAKU_001_SE
  6
CONTINUOUS
 62
     7
100
AcDbLine
 10
90.2442042754
 20
196.3002773309
 30
0.0
 11
100.6442042754
 21
196.3002773309
 31
0.0
  0
SPLINE
  5
74
330
61
100
AcDbEntity
  8
KOTEIWAKU_001_SE
  6
CONTINUOUS
 62
     7
100
AcDbSpline
210
0.0
220
0.0
230
1.0
 70
     8
 71
     3
 72
    11
 73
     7
 74
     0
 42
0.0000000045800411
 43
0.0000000001
 40
0.209726085065946
 40
0.209726085065946
 40
0.209726085065946
 40
0.209726085065946
 40
0.2533607156363345
 40
0.5003045976731362
 40
0.747261277931907
 40
0.7904522438467498
 40
0.7904522438467498
 40
0.7904522438467498
 40
0.7904522438467498
 10
94.85180941954437
 20
182.4919413839054
 30
0.0
 10
94.87254582378532
 20
182.5058062165698
 30
0.0
 10
95.0224923743293
 20
182.5938867204622
 30
0.0
 10
95.44549055939981
 20
182.7007311856204
 30
0.0
 10
95.86039066275372
 20
182.5948677379342
 30
0.0
 10
96.01622703998927
 20
182.5061620725461
 30
0.0
 10
96.03744096574916
 20
182.4923544931139
 30
0.0
  0
SPLINE
  5
75
330
61
100
AcDbEntity
  8
KOTEIWAKU_001_SE
  6
CONTINUOUS
 62
     7
100
AcDbSpline
210
0.0
220
0.0
230
1.0
 70
     8
 71
     3
 72
    11
 73
     7
 74
     0
 42
0.0000000045800368
 43
0.0000000001
 40
0.2097270836301846
 40
0.2097270836301846
 40
0.2097270836301846
 40
0.2097270836301846
 40
0.253360712505721
 40
0.5003045976859263
 40
0.7472612810966304
 40
0.7904512615577859
 40
0.7904512615577859
 40
0.7904512615577859
 40
0.7904512615577859
 10
96.03660266467723
 20
210.6086122602021
 30
0.0
 10
96.01586664833445
 20
210.5947477712035
 30
0.0
 10
95.86592029585128
 20
210.506667649763
 30
0.0
 10
95.44292277238675
 20
210.3998233550862
 30
0.0
 10
95.02802330636527
 20
210.5056866368335
 30
0.0
 10
94.87218717700698
 20
210.5943919198547
 30
0.0
 10
94.85097363820444
 20
210.6081991606476
 30
0.0
  0
LINE
  5
76
330
61
100
AcDbEntity
  8
KOTEIWAKU_001_SE
  6
CONTINUOUS
 62
     7
100
AcDbLine
 10
100.8442042754
 20
180.8502773309
 30
0.0
 11
101.3442042754
 21
180.8502773309
 31
0.0
  0
LINE
  5
77
330
61
100
AcDbEntity
  8
KOTEIWAKU_001_SE
  6
CONTINUOUS
 62
     7
100
AcDbLine
 10
101.3442042754
 20
212.2502773309
 30
0.0
 11
100.8442042754
 21
212.2502773309
 31
0.0
  0
LINE
  5
78
330
61
100
AcDbEntity
  8
KOTEIWAKU_001_SE
  6
CONTINUOUS
 62
     7
100
AcDbLine
 10
100.6442042754
 20
180.0502753127
 30
0.0
 11
100.8442042754
 21
180.2502773309
 31
0.0
  0
LINE
  5
79
330
61
100
AcDbEntity
  8
KOTEIWAKU_001_SE
  6
CONTINUOUS
 62
     7
100
AcDbLine
 10
100.8442042754
 20
212.8502773309
 30
0.0
 11
100.6442042754
 21
213.050279349
 31
0.0
  0
LINE
  5
7A
330
61
100
AcDbEntity
  8
KOTEIWAKU_001_SE
  6
CONTINUOUS
 62
     7
100
AcDbLine
 10
90.2442042754
 20
180.0502753127
 30
0.0
 11
100.6442042754
 21
180.0502753127
 31
0.0
  0
LINE
  5
7B
330
61
100
AcDbEntity
  8
KOTEIWAKU_001_SE
  6
CONTINUOUS
 62
     7
100
AcDbLine
 10
100.6442042754
 20
213.050279349
 30
0.0
 11
90.2442042754
 21
213.050279349
 31
0.0
  0
LINE
  5
7C
330
61
100
AcDbEntity
  8
KOTEIWAKU_001_SE
  6
CONTINUOUS
 62
     7
100
AcDbLine
 10
90.2442042754
 20
213.050279349
 30
0.0
 11
90.0442042754
 21
212.8502773309
 31
0.0
  0
LINE
  5
7D
330
61
100
AcDbEntity
  8
KOTEIWAKU_001_SE
  6
CONTINUOUS
 62
     7
100
AcDbLine
 10
90.0442042754
 20
180.2502773309
 30
0.0
 11
90.2442042754
 21
180.0502753127
 31
0.0
  0
LINE
  5
7E
330
61
100
AcDbEntity
  8
KOTEIWAKU_001_SE
  6
CONTINUOUS
 62
     7
100
AcDbLine
 10
89.493421726
 20
180.8502773309
 30
0.0
 11
90.0442042754
 21
180.8502773309
 31
0.0
  0
LINE
  5
7F
330
61
100
AcDbEntity
  8
KOTEIWAKU_001_SE
  6
CONTINUOUS
 62
     7
100
AcDbLine
 10
90.0442042754
 20
212.2502773309
 30
0.0
 11
89.493421726
 21
212.2502773309
 31
0.0
  0
ELLIPSE
  5
81
330
61
100
AcDbEntity
  8
02414025P_STD_00
  6
CONTINUOUS
 62
     7
100
AcDbEllipse
 10
119.8442042754
 20
202.4330221608
 30
0.0
 11
0.999999999999994
 21
9.357282098000336E-15
 31
0.0
210
0.0
220
0.0
230
1.0
 40
0.9396926208
 41
0.0
 42
0.2427502305773437
  0
ELLIPSE
  5
82
330
61
100
AcDbEntity
  8
02414025P_STD_00
  6
CONTINUOUS
 62
     7
100
AcDbEllipse
 10
119.8442042754
 20
202.4330221608
 30
0.0
 11
0.999999999999994
 21
9.357282098000336E-15
 31
0.0
210
0.0
220
0.0
230
1.0
 40
0.9396926208
 41
2.898842423012314
 42
6.283185307179576
  0
ELLIPSE
  5
83
330
61
100
AcDbEntity
  8
02414025P_STD_00
  6
CONTINUOUS
 62
     7
100
AcDbEllipse
 10
119.8442042754
 20
202.5415900077
 30
0.0
 11
0.9722283730519005
 21
6.887662832236662E-16
 31
0.0
210
0.0
220
0.0
230
1.0
 40
0.9396926208
 41
0.2427502305773521
 42
0.2990487305513267
  0
LINE
  5
84
330
61
100
AcDbEntity
  8
02414025P_STD_00
  6
CONTINUOUS
 62
     7
100
AcDbLine
 10
120.8148848406
 20
202.658899015
 30
0.0
 11
120.7879274621
 21
202.7611938942
 31
0.0
  0
LINE
  5
85
330
61
100
AcDbEntity
  8
02414025P_STD_00
  6
CONTINUOUS
 62
     7
100
AcDbLine
 10
118.9004810888
 20
202.7611938942
 30
0.0
 11
118.8735237103
 21
202.658899015
 31
0.0
  0
ARC
  5
86
330
61
100
AcDbEntity
  8
02414025P_STD_00
  6
CONTINUOUS
 62
     7
100
AcDbCircle
 10
119.8588356995
 20
202.4982448691
 30
0.0
 40
0.963866859643272
100
AcDbArc
 50
18.9571462446
 51
90.8697788907
  0
ARC
  5
87
330
61
100
AcDbEntity
  8
02414025P_STD_00
  6
CONTINUOUS
 62
     7
100
AcDbCircle
 10
119.8269411395
 20
202.5032339153
 30
0.0
 40
0.9589221587375011
100
AcDbArc
 50
88.9684686507
 51
164.4586103207
  0
ARC
  5
89
330
61
100
AcDbEntity
  8
05117020P_001_SE
  6
CONTINUOUS
 62
     7
100
AcDbCircle
 10
129.9442042754
 20
196.5502773309
 30
0.0
 40
0.8499999999999998
100
AcDbArc
 50
214.9959693602
 51
346.3910393692
  0
ARC
  5
8A
330
61
100
AcDbEntity
  8
05117020P_001_SE
  6
CONTINUOUS
 62
     7
100
AcDbCircle
 10
129.9442042754
 20
196.5502773309
 30
0.0
 40
0.6767949192431122
100
AcDbArc
 50
268.335752315
 51
285.6260311124
  0
LINE
  5
8B
330
61
100
AcDbEntity
  8
05117020P_001_SE
  6
CONTINUOUS
 62
     7
100
AcDbLine
 10
129.2976353598
 20
196.7502773309
 30
0.0
 11
130.5907731911
 21
196.7502773309
 31
0.0
  0
LINE
  5
8C
330
61
100
AcDbEntity
  8
05117020P_001_SE
  6
CONTINUOUS
 62
     7
100
AcDbLine
 10
130.5907731911
 20
196.3502773309
 30
0.0
 11
129.2976353598
 21
196.3502773309
 31
0.0
  0
LINE
  5
8E
330
61
100
AcDbEntity
  8
USHIROWAKU_001_S
  6
CONTINUOUS
 62
     7
100
AcDbLine
 10
138.2442066661
 20
185.7618576134
 30
0.0
 11
138.2442066661
 21
207.3386970483
 31
0.0
  0
LINE
  5
8F
330
61
100
AcDbEntity
  8
USHIROWAKU_001_S
  6
CONTINUOUS
 62
     7
100
AcDbLine
 10
138.0442066661
 20
185.561646843
 30
0.0
 11
138.0442066661
 21
207.5389078188
 31
0.0
  0
LINE
  5
90
330
61
100
AcDbEntity
  8
USHIROWAKU_001_S
  6
CONTINUOUS
 62
     7
100
AcDbLine
 10
137.7442066661
 20
185.561646843
 30
0.0
 11
138.0442066661
 21
185.561646843
 31
0.0
  0
LINE
  5
91
330
61
100
AcDbEntity
  8
USHIROWAKU_001_S
  6
CONTINUOUS
 62
     7
100
AcDbLine
 10
138.0442066661
 20
185.561646843
 30
0.0
 11
138.2442066661
 21
185.7618576134
 31
0.0
  0
LINE
  5
92
330
61
100
AcDbEntity
  8
USHIROWAKU_001_S
  6
CONTINUOUS
 62
     7
100
AcDbLine
 10
137.7442066661
 20
185.5502773309
 30
0.0
 11
137.7442066661
 21
185.561646843
 31
0.0
  0
LINE
  5
93
330
61
100
AcDbEntity
  8
USHIROWAKU_001_S
  6
CONTINUOUS
 62
     7
100
AcDbLine
 10
138.2442066661
 20
207.3386970483
 30
0.0
 11
138.0442066661
 21
207.5389078188
 31
0.0
  0
LINE
  5
94
330
61
100
AcDbEntity
  8
USHIROWAKU_001_S
  6
CONTINUOUS
 62
     7
100
AcDbLine
 10
138.0442066661
 20
207.5389078188
 30
0.0
 11
137.7442066661
 21
207.5389078188
 31
0.0
  0
LINE
  5
95
330
61
100
AcDbEntity
  8
USHIROWAKU_001_S
  6
CONTINUOUS
 62
     7
100
AcDbLine
 10
137.7442066661
 20
207.5389078188
 30
0.0
 11
137.7442066661
 21
207.5502773309
 31
0.0
  0
LINE
  5
96
330
61
100
AcDbEntity
  8
USHIROWAKU_001_S
  6
CONTINUOUS
 62
     7
100
AcDbLine
 10
136.6442066661
 20
185.5502773309
 30
0.0
 11
137.7442066661
 21
185.5502773309
 31
0.0
  0
LINE
  5
97
330
61
100
AcDbEntity
  8
USHIROWAKU_001_S
  6
CONTINUOUS
 62
     7
100
AcDbLine
 10
137.7442066661
 20
207.5502773309
 30
0.0
 11
136.6442066661
 21
207.5502773309
 31
0.0
  0
LINE
  5
99
330
61
100
AcDbEntity
  8
SHIBORI_RING_001
  6
CONTINUOUS
 62
     7
100
AcDbLine
 10
127.3442025778
 20
180.2502773309
 30
0.0
 11
127.3442025778
 21
212.8502773309
 31
0.0
  0
LINE
  5
9A
330
61
100
AcDbEntity
  8
SHIBORI_RING_001
  6
CONTINUOUS
 62
     7
100
AcDbLine
 10
127.1442025778
 20
180.050282112
 30
0.0
 11
127.1442025778
 21
213.0502725497
 31
0.0
  0
LINE
  5
9B
330
61
100
AcDbEntity
  8
SHIBORI_RING_001
  6
CONTINUOUS
 62
     7
100
AcDbLine
 10
101.5442042754
 20
180.050282112
 30
0.0
 11
101.5442042754
 21
213.0502725497
 31
0.0
  0
LINE
  5
9C
330
61
100
AcDbEntity
  8
SHIBORI_RING_001
  6
CONTINUOUS
 62
     7
100
AcDbLine
 10
101.3442042754
 20
180.2502773309
 30
0.0
 11
101.3442042754
 21
212.8502773309
 31
0.0
  0
LINE
  5
9D
330
61
100
AcDbEntity
  8
SHIBORI_RING_001
  6
CONTINUOUS
 62
     7
100
AcDbLine
 10
127.1442025778
 20
180.050282112
 30
0.0
 11
127.3442025778
 21
180.2502773309
 31
0.0
  0
LINE
  5
9E
330
61
100
AcDbEntity
  8
SHIBORI_RING_001
  6
CONTINUOUS
 62
     7
100
AcDbLine
 10
127.3442025778
 20
212.8502773309
 30
0.0
 11
127.1442025778
 21
213.0502725497
 31
0.0
  0
LINE
  5
9F
330
61
100
AcDbEntity
  8
SHIBORI_RING_001
  6
CONTINUOUS
 62
     7
100
AcDbLine
 10
101.5442042754
 20
180.050282112
 30
0.0
 11
127.1442025778
 21
180.050282112
 31
0.0
  0
LINE
  5
A0
330
61
100
AcDbEntity
  8
SHIBORI_RING_001
  6
CONTINUOUS
 62
     7
100
AcDbLine
 10
127.1442025778
 20
213.0502725497
 30
0.0
 11
101.5442042754
 21
213.0502725497
 31
0.0
  0
LINE
  5
A1
330
61
100
AcDbEntity
  8
SHIBORI_RING_001
  6
CONTINUOUS
 62
     7
100
AcDbLine
 10
101.5442042754
 20
213.0502725497
 30
0.0
 11
101.3442042754
 21
212.8502773309
 31
0.0
  0
LINE
  5
A2
330
61
100
AcDbEntity
  8
SHIBORI_RING_001
  6
CONTINUOUS
 62
     7
100
AcDbLine
 10
101.3442042754
 20
180.2502773309
 30
0.0
 11
101.5442042754
 21
180.050282112
 31
0.0
  0
LINE
  5
A4
330
61
100
AcDbEntity
  8
STOP_SCALE_001_S
  6
CONTINUOUS
 62
     7
100
AcDbLine
 10
87.4934218848
 20
213.280279349
 30
0.0
 11
86.0934218848
 21
213.280279349
 31
0.0
  0
LINE
  5
A5
330
61
100
AcDbEntity
  8
STOP_SCALE_001_S
  6
CONTINUOUS
 62
     7
100
AcDbLine
 10
87.4734218848
 20
213.300279349
 30
0.0
 11
86.1134218848
 21
213.300279349
 31
0.0
  0
LINE
  5
A6
330
61
100
AcDbEntity
  8
STOP_SCALE_001_S
  6
CONTINUOUS
 62
     7
100
AcDbLine
 10
86.0934218848
 20
213.280279349
 30
0.0
 11
86.0934218848
 21
213.0414240899
 31
0.0
  0
LINE
  5
A7
330
61
100
AcDbEntity
  8
STOP_SCALE_001_S
  6
CONTINUOUS
 62
     7
100
AcDbLine
 10
87.4934218848
 20
213.0414188574
 30
0.0
 11
87.4934218848
 21
213.280279349
 31
0.0
  0
LINE
  5
A8
330
61
100
AcDbEntity
  8
STOP_SCALE_001_S
  6
CONTINUOUS
 62
     7
100
AcDbLine
 10
87.4934218848
 20
213.280279349
 30
0.0
 11
87.4734218848
 21
213.300279349
 31
0.0
  0
LINE
  5
A9
330
61
100
AcDbEntity
  8
STOP_SCALE_001_S
  6
CONTINUOUS
 62
     7
100
AcDbLine
 10
86.1134218848
 20
213.300279349
 30
0.0
 11
86.0934218848
 21
213.280279349
 31
0.0
  0
LINE
  5
AB
330
61
100
AcDbEntity
  8
RING_SCALE_BRANK
  6
CONTINUOUS
 62
     7
100
AcDbLine
 10
67.4934218848
 20
180.7502773309
 30
0.0
 11
67.4934218848
 21
212.3502773309
 31
0.0
  0
LINE
  5
AC
330
61
100
AcDbEntity
  8
RING_SCALE_BRANK
  6
CONTINUOUS
 62
     7
100
AcDbLine
 10
67.6934218848
 20
180.5502773309
 30
0.0
 11
67.6934218848
 21
212.5502773309
 31
0.0
  0
LINE
  5
AD
330
61
100
AcDbEntity
  8
RING_SCALE_BRANK
  6
CONTINUOUS
 62
     7
100
AcDbLine
 10
74.5934218848
 20
180.5502773309
 30
0.0
 11
74.5934218848
 21
212.5502773309
 31
0.0
  0
LINE
  5
AE
330
61
100
AcDbEntity
  8
RING_SCALE_BRANK
  6
CONTINUOUS
 62
     7
100
AcDbLine
 10
75.0934266938
 20
180.0502721589
 30
0.0
 11
75.0934266938
 21
213.0502825028
 31
0.0
  0
LINE
  5
AF
330
61
100
AcDbEntity
  8
RING_SCALE_BRANK
  6
CONTINUOUS
 62
     7
100
AcDbLine
 10
89.2934196158
 20
180.0502753794
 30
0.0
 11
89.2934196158
 21
213.0502792823
 31
0.0
  0
LINE
  5
B0
330
61
100
AcDbEntity
  8
RING_SCALE_BRANK
  6
CONTINUOUS
 62
     7
100
AcDbLine
 10
89.493421726
 20
180.2502774896
 30
0.0
 11
89.493421726
 21
212.8502771721
 31
0.0
  0
SPLINE
  5
B1
330
61
100
AcDbEntity
  8
RING_SCALE_BRANK
  6
CONTINUOUS
 62
     7
100
AcDbSpline
210
0.0
220
0.0
230
1.0
 70
    11
 71
     3
 72
    15
 73
    11
 74
     0
 42
0.0000000024831941
 43
0.0000000001
 40
0.0
 40
0.0
 40
0.0
 40
0.0
 40
0.1247594945679309
 40
0.2499991920339484
 40
0.3752519043084524
 40
0.500114566444477
 40
0.6248738069194545
 40
0.7500683105582258
 40
0.875296892106181
 40
1.0
 40
1.0
 40
1.0
 40
1.0
 10
80.49342172601209
 20
181.8888960304114
 30
0.0
 10
80.29483346532545
 20
181.8889102974771
 30
0.0
 10
79.89697346845409
 20
181.969614956832
 30
0.0
 10
79.63494897056673
 20
182.2571385523478
 30
0.0
 10
79.89721656312979
 20
182.5674766711203
 30
0.0
 10
80.49408754904309
 20
182.7128371958848
 30
0.0
 10
81.09081792795857
 20
182.5672350102428
 30
0.0
 10
81.35162078170852
 20
182.2568178624795
 30
0.0
 10
81.08983451502266
 20
181.9694710225781
 30
0.0
 10
80.69192023215477
 20
181.8888817697939
 30
0.0
 10
80.49342172601209
 20
181.8888960304114
 30
0.0
  0
SPLINE
  5
B2
330
61
100
AcDbEntity
  8
RING_SCALE_BRANK
  6
CONTINUOUS
 62
     7
100
AcDbSpline
210
0.0
220
0.0
230
1.0
 70
     8
 71
     3
 72
    10
 73
     6
 74
     0
 42
0.0000000030610584
 43
0.0000000001
 40
0.0
 40
0.0
 40
0.0
 40
0.0
 40
0.1249552819110133
 40
0.249932393990421
 40
0.3528584296448794
 40
0.3528584296448794
 40
0.3528584296448794
 40
0.3528584296448794
 10
80.49342172601209
 20
182.0221839414328
 30
0.0
 10
80.66967165651376
 20
182.0221124098493
 30
0.0
 10
81.02219101493807
 20
182.0868337873848
 30
0.0
 10
81.22855214051874
 20
182.3267228060922
 30
0.0
 10
81.11899594263097
 20
182.4887260874996
 30
0.0
 10
81.03195387773384
 20
182.5493372680478
 30
0.0
  0
SPLINE
  5
B3
330
61
100
AcDbEntity
  8
RING_SCALE_BRANK
  6
CONTINUOUS
 62
     7
100
AcDbSpline
210
0.0
220
0.0
230
1.0
 70
     8
 71
     3
 72
    10
 73
     6
 74
     0
 42
0.000000003083892
 43
0.0000000001
 40
0.682901481466637
 40
0.682901481466637
 40
0.682901481466637
 40
0.682901481466637
 40
0.7499766601321542
 40
0.8749765627901366
 40
1.0
 40
1.0
 40
1.0
 40
1.0
 10
79.87824607357267
 20
182.4846129764112
 30
0.0
 10
79.83947883156584
 20
182.4396671807591
 30
0.0
 10
79.77922273403918
 20
182.3011935457682
 30
0.0
 10
79.9644054257216
 20
182.0873220883398
 30
0.0
 10
80.31707566218574
 20
182.0222555120324
 30
0.0
 10
80.49342172601209
 20
182.0221839414328
 30
0.0
  0
SPLINE
  5
B4
330
61
100
AcDbEntity
  8
RING_SCALE_BRANK
  6
CONTINUOUS
 62
     7
100
AcDbSpline
210
0.0
220
0.0
230
1.0
 70
    11
 71
     3
 72
    15
 73
    11
 74
     0
 42
0.0000000024854162
 43
0.0000000001
 40
0.0
 40
0.0
 40
0.0
 40
0.0
 40
0.1247594945679336
 40
0.2499991920339462
 40
0.3752519043084495
 40
0.5001145664444754
 40
0.6248738069194518
 40
0.7500683105582251
 40
0.8752968921061803
 40
1.0
 40
1.0
 40
1.0
 40
1.0
 10
80.49342172601207
 20
210.4361576750638
 30
0.0
 10
80.29483346532545
 20
210.4361745725293
 30
0.0
 10
79.89697346845406
 20
210.5333418208513
 30
0.0
 10
79.63494897056675
 20
210.8435626669829
 30
0.0
 10
79.89721656312979
 20
211.1311729665954
 30
0.0
 10
80.49408754904309
 20
211.2518869033997
 30
0.0
 10
81.09081792795855
 20
211.1309642283638
 30
0.0
 10
81.35162078170855
 20
210.8432420320445
 30
0.0
 10
81.08983451502263
 20
210.5331702068106
 30
0.0
 10
80.69192023215477
 20
210.4361407852354
 30
0.0
 10
80.49342172601207
 20
210.4361576750638
 30
0.0
  0
SPLINE
  5
B5
330
61
100
AcDbEntity
  8
RING_SCALE_BRANK
  6
CONTINUOUS
 62
     7
100
AcDbSpline
210
0.0
220
0.0
230
1.0
 70
     8
 71
     3
 72
    13
 73
     9
 74
     0
 42
0.0000000030686739
 43
0.0000000001
 40
0.1829018707881078
 40
0.1829018707881078
 40
0.1829018707881078
 40
0.1829018707881078
 40
0.2499323939904224
 40
0.3748688446078963
 40
0.4998439322820926
 40
0.6249673935410898
 40
0.7499766601321535
 40
0.8171066248346458
 40
0.8171066248346458
 40
0.8171066248346458
 40
0.8171066248346458
 10
81.10860471194184
 20
210.6153342009648
 30
0.0
 10
81.14734656191186
 20
210.6601424955675
 30
0.0
 10
81.20760554548924
 20
210.7988662615854
 30
0.0
 10
81.02263132140055
 20
211.019825543311
 30
0.0
 10
80.49405375046717
 20
211.1091496384142
 30
0.0
 10
79.96464650845428
 20
211.0138291882985
 30
0.0
 10
79.77921345060531
 20
210.7995159482562
 30
0.0
 10
79.8394537179377
 20
210.6607707853879
 30
0.0
 10
79.87825209523373
 20
210.615777676414
 30
0.0
  0
ARC
  5
B6
330
61
100
AcDbEntity
  8
RING_SCALE_BRANK
  6
CONTINUOUS
 62
     7
100
AcDbCircle
 10
80.4934217259
 20
229.2788930149
 30
0.0
 40
16.24811431762276
100
AcDbArc
 50
269.3550487585
 51
272.8075099589
  0
ARC
  5
B7
330
61
100
AcDbEntity
  8
RING_SCALE_BRANK
  6
CONTINUOUS
 62
     7
100
AcDbCircle
 10
86.7934218846
 20
229.084267294
 30
0.0
 40
16.05876168742977
100
AcDbArc
 50
266.8169256209
 51
273.1830741156
  0
LINE
  5
B8
330
61
100
AcDbEntity
  8
RING_SCALE_BRANK
  6
CONTINUOUS
 62
     7
100
AcDbLine
 10
67.6934218848
 20
212.5502773309
 30
0.0
 11
67.4934218848
 21
212.3502773309
 31
0.0
  0
LINE
  5
B9
330
61
100
AcDbEntity
  8
RING_SCALE_BRANK
  6
CONTINUOUS
 62
     7
100
AcDbLine
 10
67.4934218848
 20
180.7502773309
 30
0.0
 11
67.6934218848
 21
180.5502773309
 31
0.0
  0
LINE
  5
BA
330
61
100
AcDbEntity
  8
RING_SCALE_BRANK
  6
CONTINUOUS
 62
     7
100
AcDbLine
 10
67.6934218848
 20
180.5502773309
 30
0.0
 11
74.5934218848
 21
180.5502773309
 31
0.0
  0
LINE
  5
BB
330
61
100
AcDbEntity
  8
RING_SCALE_BRANK
  6
CONTINUOUS
 62
     7
100
AcDbLine
 10
74.5934218848
 20
212.5502773309
 30
0.0
 11
67.6934218848
 21
212.5502773309
 31
0.0
  0
LINE
  5
BC
330
61
100
AcDbEntity
  8
RING_SCALE_BRANK
  6
CONTINUOUS
 62
     7
100
AcDbLine
 10
75.0934266938
 20
213.0502825028
 30
0.0
 11
74.5934218848
 21
212.5502773309
 31
0.0
  0
LINE
  5
BD
330
61
100
AcDbEntity
  8
RING_SCALE_BRANK
  6
CONTINUOUS
 62
     7
100
AcDbLine
 10
74.5934218848
 20
180.5502773309
 30
0.0
 11
75.0934266938
 21
180.0502721589
 31
0.0
  0
LINE
  5
BE
330
61
100
AcDbEntity
  8
RING_SCALE_BRANK
  6
CONTINUOUS
 62
     7
100
AcDbLine
 10
75.0934266938
 20
180.0502721589
 30
0.0
 11
89.2934196158
 21
180.0502753794
 31
0.0
  0
LINE
  5
BF
330
61
100
AcDbEntity
  8
RING_SCALE_BRANK
  6
CONTINUOUS
 62
     7
100
AcDbLine
 10
79.697591017
 20
213.0502808926
 30
0.0
 11
75.0934266938
 21
213.0502825028
 31
0.0
  0
LINE
  5
C0
330
61
100
AcDbEntity
  8
RING_SCALE_BRANK
  6
CONTINUOUS
 62
     7
100
AcDbLine
 10
85.901749038
 20
213.0502808926
 30
0.0
 11
81.2892324089
 21
213.0502808926
 31
0.0
  0
LINE
  5
C1
330
61
100
AcDbEntity
  8
RING_SCALE_BRANK
  6
CONTINUOUS
 62
     7
100
AcDbLine
 10
89.2934196158
 20
213.0502792823
 30
0.0
 11
87.6850311734
 21
213.0502808926
 31
0.0
  0
LINE
  5
C2
330
61
100
AcDbEntity
  8
RING_SCALE_BRANK
  6
CONTINUOUS
 62
     7
100
AcDbLine
 10
89.2934196158
 20
180.0502753794
 30
0.0
 11
89.493421726
 21
180.2502774896
 31
0.0
  0
LINE
  5
C3
330
61
100
AcDbEntity
  8
RING_SCALE_BRANK
  6
CONTINUOUS
 62
     7
100
AcDbLine
 10
89.493421726
 20
212.8502771721
 30
0.0
 11
89.2934196158
 21
213.0502792823
 31
0.0
  0
ELLIPSE
  5
C4
330
61
100
AcDbEntity
  8
05117020P_001_SE
  6
CONTINUOUS
 62
     7
100
AcDbEllipse
 10
80.493421726
 20
210.6664931603
 30
0.0
 11
0.6767949192431135
 21
5.079845218200880E-15
 31
0.0
210
0.0
220
0.0
230
1.0
 40
0.5
 41
0.2999898318457685
 42
2.841602821743875
  0
LINE
  5
C5
330
61
100
AcDbEntity
  8
05117020P_001_SE
  6
CONTINUOUS
 62
     7
100
AcDbLine
 10
79.8468528103
 20
210.7664931603
 30
0.0
 11
81.1399906417
 21
210.7664931603
 31
0.0
  0
LINE
  5
C6
330
61
100
AcDbEntity
  8
05117020P_001_SE
  6
CONTINUOUS
 62
     7
100
AcDbLine
 10
81.0415946278
 20
210.5664931603
 30
0.0
 11
79.9453543668
 21
210.5664931603
 31
0.0
  0
ELLIPSE
  5
C7
330
61
100
AcDbEntity
  8
05117020P_001_SE
  6
CONTINUOUS
 62
     7
100
AcDbEllipse
 10
80.493421726
 20
182.4340615014
 30
0.0
 11
-0.6767949192431066
 21
1.243252097295393E-16
 31
0.0
210
0.0
220
0.0
230
1.0
 40
0.5
 41
0.2999898318458816
 42
2.841602821743983
  0
LINE
  5
C8
330
61
100
AcDbEntity
  8
05117020P_001_SE
  6
CONTINUOUS
 62
     7
100
AcDbLine
 10
79.9453618917
 20
182.5340615014
 30
0.0
 11
81.0390435697
 21
182.5340615014
 31
0.0
  0
LINE
  5
C9
330
61
100
AcDbEntity
  8
05117020P_001_SE
  6
CONTINUOUS
 62
     7
100
AcDbLine
 10
81.1399906417
 20
182.3340615014
 30
0.0
 11
79.8468528103
 21
182.3340615014
 31
0.0
  0
ELLIPSE
  5
CA
330
61
100
AcDbEntity
  8
02414025P_STD_00
  6
CONTINUOUS
 62
     7
100
AcDbEllipse
 10
95.4442066661
 20
182.0876513399
 30
0.0
 11
-0.999999999999994
 21
1.836970198721019E-16
 31
0.0
210
0.0
220
0.0
230
1.0
 40
0.5
 41
0.0000000000000004
 42
0.0505331075398119
  0
ELLIPSE
  5
CB
330
61
100
AcDbEntity
  8
02414025P_STD_00
  6
CONTINUOUS
 62
     7
100
AcDbEllipse
 10
95.4442066661
 20
182.0876513399
 30
0.0
 11
-0.999999999999994
 21
1.836970198721019E-16
 31
0.0
210
0.0
220
0.0
230
1.0
 40
0.5
 41
3.0910595460497
 42
6.283185307179586
  0
LINE
  5
CC
330
61
100
AcDbEntity
  8
02414025P_STD_00
  6
CONTINUOUS
 62
     7
100
AcDbLine
 10
94.4454831919
 20
182.0623955382
 30
0.0
 11
94.4732193677
 21
181.7881934943
 31
0.0
  0
LINE
  5
CD
330
61
100
AcDbEntity
  8
02414025P_STD_00
  6
CONTINUOUS
 62
     7
100
AcDbLine
 10
96.4151939646
 20
181.7881934943
 30
0.0
 11
96.4429301403
 21
182.0623955382
 31
0.0
  0
SPLINE
  5
CE
330
61
100
AcDbEntity
  8
02414025P_STD_00
  6
CONTINUOUS
 62
     7
100
AcDbSpline
210
0.0
220
0.0
230
1.0
 70
     8
 71
     3
 72
    18
 73
    14
 74
     0
 42
0.0000000082186277
 43
0.0000000001
 40
0.0
 40
0.0
 40
0.0
 40
0.0
 40
0.032546059357493
 40
0.1238201010769952
 40
0.2157980867578541
 40
0.3122181605467922
 40
0.415366094883491
 40
0.52468016924783
 40
0.6368678366937667
 40
0.7484990321890496
 40
0.8590820706518284
 40
0.968912560919032
 40
1.0
 40
1.0
 40
1.0
 40
1.0
 10
94.47583755588698
 20
181.7909987253855
 30
0.0
 10
94.4761357543378
 20
181.7782347517471
 30
0.0
 10
94.47734331381966
 20
181.7367722025213
 30
0.0
 10
94.5043765694305
 20
181.6611221494351
 30
0.0
 10
94.55361716650037
 20
181.5753897947211
 30
0.0
 10
94.62434742569309
 20
181.4966137098474
 30
0.0
 10
94.71503348836268
 20
181.4256581841368
 30
0.0
 10
94.82628880046157
 20
181.363560533704
 30
0.0
 10
94.95502198814748
 20
181.3126898090005
 30
0.0
 10
95.09703193652614
 20
181.2746925402045
 30
0.0
 10
95.24541875937894
 20
181.2503964388113
 30
0.0
 10
95.36620295274686
 20
181.2420009899263
 30
0.0
 10
95.42820424277126
 20
181.2414489035156
 30
0.0
 10
95.44420666612213
 20
181.241349002044
 30
0.0
  0
SPLINE
  5
CF
330
61
100
AcDbEntity
  8
02414025P_STD_00
  6
CONTINUOUS
 62
     7
100
AcDbSpline
210
0.0
220
0.0
230
1.0
 70
     8
 71
     3
 72
    17
 73
    13
 74
     0
 42
0.000000008306508
 43
0.0000000001
 40
0.0
 40
0.0
 40
0.0
 40
0.0
 40
0.0590487920258192
 40
0.1700052172960885
 40
0.2816146486319062
 40
0.394407688265581
 40
0.509070661045245
 40
0.6261479688800954
 40
0.7311692131586885
 40
0.829432052985997
 40
0.9219153719516884
 40
1.0
 40
1.0
 40
1.0
 40
1.0
 10
95.44420666612213
 20
181.241349002044
 30
0.0
 10
95.47423907892582
 20
181.2417008306089
 30
0.0
 10
95.54772595509631
 20
181.2428786764551
 30
0.0
 10
95.68000854119981
 20
181.2551602022447
 30
0.0
 10
95.82645640427695
 20
181.2826230437508
 30
0.0
 10
95.96600837523728
 20
181.3238687010876
 30
0.0
 10
96.09414616964277
 20
181.3790752476131
 30
0.0
 10
96.20367097200364
 20
181.446319435229
 30
0.0
 10
96.29147121782181
 20
181.5234537360688
 30
0.0
 10
96.35531453584444
 20
181.6060238905242
 30
0.0
 10
96.39824255875502
 20
181.6934574776008
 30
0.0
 10
96.4079819310899
 20
181.7486042443851
 30
0.0
 10
96.41286571437315
 20
181.7784889334432
 30
0.0
  0
ELLIPSE
  5
D0
330
61
100
AcDbEntity
  8
02414025P_STD_00
  6
CONTINUOUS
 62
     7
100
AcDbEllipse
 10
95.4442066661
 20
211.0129033218
 30
0.0
 11
-0.999999999999994
 21
1.836970198721019E-16
 31
0.0
210
0.0
220
0.0
230
1.0
 40
0.5
 41
0.0000000000000004
 42
3.192125761129886
  0
ELLIPSE
  5
D1
330
61
100
AcDbEntity
  8
02414025P_STD_00
  6
CONTINUOUS
 62
     7
100
AcDbEllipse
 10
95.4442066661
 20
211.0129033218
 30
0.0
 11
-0.999999999999994
 21
1.836970198721019E-16
 31
0.0
210
0.0
220
0.0
230
1.0
 40
0.5
 41
6.232652199639775
 42
6.283185307179586
  0
LINE
  5
D2
330
61
100
AcDbEntity
  8
02414025P_STD_00
  6
CONTINUOUS
 62
     7
100
AcDbLine
 10
96.4429301403
 20
211.0381591236
 30
0.0
 11
96.4151939646
 21
211.3123611675
 31
0.0
  0
LINE
  5
D3
330
61
100
AcDbEntity
  8
02414025P_STD_00
  6
CONTINUOUS
 62
     7
100
AcDbLine
 10
94.4732193677
 20
211.3123611675
 30
0.0
 11
94.4454831919
 21
211.0381591236
 31
0.0
  0
SPLINE
  5
D4
330
61
100
AcDbEntity
  8
02414025P_STD_00
  6
CONTINUOUS
 62
     7
100
AcDbSpline
210
0.0
220
0.0
230
1.0
 70
     8
 71
     3
 72
    18
 73
    14
 74
     0
 42
0.0000000082186277
 43
0.0000000001
 40
0.0
 40
0.0
 40
0.0
 40
0.0
 40
0.032546059357493
 40
0.1238201010769952
 40
0.2157980867578549
 40
0.3122181605467922
 40
0.415366094883491
 40
0.5246801692478306
 40
0.6368678366937667
 40
0.7484990321890496
 40
0.8590820706518284
 40
0.968912560919032
 40
1.0
 40
1.0
 40
1.0
 40
1.0
 10
96.41257577635727
 20
211.3095559363554
 30
0.0
 10
96.41227757790644
 20
211.3223199099938
 30
0.0
 10
96.41107001842455
 20
211.3637824592197
 30
0.0
 10
96.38403676281382
 20
211.4394325123057
 30
0.0
 10
96.33479616574382
 20
211.5251648670198
 30
0.0
 10
96.26406590655118
 20
211.6039409518935
 30
0.0
 10
96.17337984388156
 20
211.6748964776042
 30
0.0
 10
96.06212453178267
 20
211.7369941280369
 30
0.0
 10
95.93339134409673
 20
211.7878648527404
 30
0.0
 10
95.7913813957181
 20
211.8258621215363
 30
0.0
 10
95.64299457286535
 20
211.8501582229296
 30
0.0
 10
95.52221037949741
 20
211.8585536718145
 30
0.0
 10
95.460209089473
 20
211.8591057582253
 30
0.0
 10
95.44420666612213
 20
211.8592056596969
 30
0.0
  0
SPLINE
  5
D5
330
61
100
AcDbEntity
  8
02414025P_STD_00
  6
CONTINUOUS
 62
     7
100
AcDbSpline
210
0.0
220
0.0
230
1.0
 70
     8
 71
     3
 72
    17
 73
    13
 74
     0
 42
0.000000008306508
 43
0.0000000001
 40
0.0
 40
0.0
 40
0.0
 40
0.0
 40
0.0590487920258193
 40
0.1700052172960882
 40
0.2816146486319062
 40
0.3944076882655814
 40
0.509070661045245
 40
0.6261479688800954
 40
0.7311692131586885
 40
0.8294320529859971
 40
0.9219153719516884
 40
1.0
 40
1.0
 40
1.0
 40
1.0
 10
95.44420666612213
 20
211.8592056596969
 30
0.0
 10
95.41417425331844
 20
211.858853831132
 30
0.0
 10
95.34068737714796
 20
211.8576759852858
 30
0.0
 10
95.20840479104442
 20
211.8453944594962
 30
0.0
 10
95.06195692796729
 20
211.8179316179901
 30
0.0
 10
94.92240495700699
 20
211.7766859606534
 30
0.0
 10
94.79426716260146
 20
211.7214794141278
 30
0.0
 10
94.68474236024066
 20
211.6542352265119
 30
0.0
 10
94.59694211442243
 20
211.5771009256721
 30
0.0
 10
94.53309879639984
 20
211.4945307712167
 30
0.0
 10
94.49017077348923
 20
211.4070971841401
 30
0.0
 10
94.48043140115436
 20
211.3519504173558
 30
0.0
 10
94.47554761787109
 20
211.3220657282977
 30
0.0
  0
ELLIPSE
  5
D6
330
61
100
AcDbEntity
  8
02414025P_STD_00
  6
CONTINUOUS
 62
     7
100
AcDbEllipse
 10
119.8442042754
 20
179.6115886876
 30
0.0
 11
0.9999999999999957
 21
-1.836970198721022E-16
 31
0.0
210
0.0
220
0.0
230
1.0
 40
0.1736481777
 41
2.346193823405638
 42
6.283185307179586
  0
ELLIPSE
  5
D7
330
61
100
AcDbEntity
  8
02414025P_STD_00
  6
CONTINUOUS
 62
     7
100
AcDbEllipse
 10
119.8442042754
 20
179.6115886876
 30
0.0
 11
0.9999999999999957
 21
-1.836970198721022E-16
 31
0.0
210
0.0
220
0.0
230
1.0
 40
0.1736481777
 41
0.0000000000000011
 42
0.7953988301841353
  0
ELLIPSE
  5
D8
330
61
100
AcDbEntity
  8
02414025P_STD_00
  6
CONTINUOUS
 62
     7
100
AcDbEllipse
 10
119.8442042754
 20
179.6115886876
 30
0.0
 11
-0.700000000000001
 21
1.285879139104723E-16
 31
0.0
210
0.0
220
0.0
230
1.0
 40
0.1736481777
 41
0.0000000000000011
 42
3.141592653589794
  0
LINE
  5
D9
330
61
100
AcDbEntity
  8
02414025P_STD_00
  6
CONTINUOUS
 62
     7
100
AcDbLine
 10
118.8443232727
 20
179.6089098845
 30
0.0
 11
118.8720915949
 21
179.2963756231
 31
0.0
  0
LINE
  5
DA
330
61
100
AcDbEntity
  8
02414025P_STD_00
  6
CONTINUOUS
 62
     7
100
AcDbLine
 10
120.816316956
 20
179.2963756231
 30
0.0
 11
120.8440852782
 21
179.6089098845
 31
0.0
  0
SPLINE
  5
DB
330
61
100
AcDbEntity
  8
02414025P_STD_00
  6
CONTINUOUS
 62
     7
100
AcDbSpline
210
0.0
220
0.0
230
1.0
 70
     8
 71
     3
 72
    30
 73
    26
 74
     0
 42
0.0000000045452745
 43
0.0000000001
 40
0.0
 40
0.0
 40
0.0
 40
0.0
 40
0.0277440246885952
 40
0.0557577211683359
 40
0.0837371944671811
 40
0.1145338145959982
 40
0.1526954542714663
 40
0.2071380641866048
 40
0.2619184992514341
 40
0.31936089395622
 40
0.373845938226407
 40
0.4271043503687675
 40
0.4798243179173559
 40
0.5323432679917239
 40
0.5848832744493276
 40
0.6376028650296242
 40
0.6907804701510405
 40
0.7448866651160744
 40
0.800940377981512
 40
0.8618685397629107
 40
0.8984355755543821
 40
0.9295403946323515
 40
0.9595022078329226
 40
0.9892296854925282
 40
1.0
 40
1.0
 40
1.0
 40
1.0
 10
118.8731405442721
 20
179.2961418790235
 30
0.0
 10
118.8767923975514
 20
179.2722610548615
 30
0.0
 10
118.8834795322598
 20
179.2317563310295
 30
0.0
 10
118.9167478310403
 20
179.1761956178707
 30
0.0
 10
118.9573568812727
 20
179.1344291042795
 30
0.0
 10
119.0050085940651
 20
179.1018859235088
 30
0.0
 10
119.065608914625
 20
179.0733039196154
 30
0.0
 10
119.1441482779752
 20
179.0482705275911
 30
0.0
 10
119.2481056342203
 20
179.0256193336923
 30
0.0
 10
119.3687857962437
 20
179.0075671302374
 30
0.0
 10
119.5027738776798
 20
178.9941572170456
 30
0.0
 10
119.6430928731227
 20
178.9855397409063
 30
0.0
 10
119.7876476894138
 20
178.9815041309794
 30
0.0
 10
119.9332166031104
 20
178.9820137892134
 30
0.0
 10
120.0761556956612
 20
178.9870297204352
 30
0.0
 10
120.2128831588953
 20
178.9964732539912
 30
0.0
 10
120.3402620576039
 20
179.0102875546566
 30
0.0
 10
120.456163599939
 20
179.0285938236086
 30
0.0
 10
120.560727256766
 20
179.052531116388
 30
0.0
 10
120.6400942414453
 20
179.0797759025677
 30
0.0
 10
120.7027800391899
 20
179.1134767188785
 30
0.0
 10
120.7509139019394
 20
179.1518834747004
 30
0.0
 10
120.7897518197417
 20
179.2031297672323
 30
0.0
 10
120.8130481096681
 20
179.2558072250377
 30
0.0
 10
120.8135237816394
 20
179.2859300015251
 30
0.0
 10
120.8136196253854
 20
179.2953104172255
 30
0.0
  0
LINE
  5
DC
330
61
100
AcDbEntity
  8
02414025P_STD_00
  6
CONTINUOUS
 62
     7
100
AcDbLine
 10
120.5442042754
 20
179.6115886876
 30
0.0
 11
120.5442042754
 21
180.050282112
 31
0.0
  0
LINE
  5
DD
330
61
100
AcDbEntity
  8
02414025P_STD_00
  6
CONTINUOUS
 62
     7
100
AcDbLine
 10
119.1442042754
 20
180.050282112
 30
0.0
 11
119.1442042754
 21
179.6115886876
 31
0.0
  0
LINE
  5
DF
330
61
100
AcDbEntity
  8
MIRANDA25MM_C-MO
  6
CONTINUOUS
 62
     7
100
AcDbLine
 10
133.6942066661
 20
184.5502773309
 30
0.0
 11
133.6942066661
 21
208.5502773309
 31
0.0
  0
LINE
  5
E0
330
61
100
AcDbEntity
  8
MIRANDA25MM_C-MO
  6
CONTINUOUS
 62
     7
100
AcDbLine
 10
134.3942066661
 20
183.8502773309
 30
0.0
 11
134.3942066661
 21
209.2502773309
 31
0.0
  0
LINE
  5
E1
330
61
100
AcDbEntity
  8
MIRANDA25MM_C-MO
  6
CONTINUOUS
 62
     7
100
AcDbLine
 10
135.9442066661
 20
183.8502773309
 30
0.0
 11
135.9442066661
 21
209.2502773309
 31
0.0
  0
LINE
  5
E2
330
61
100
AcDbEntity
  8
MIRANDA25MM_C-MO
  6
CONTINUOUS
 62
     7
100
AcDbLine
 10
136.6442066661
 20
184.5502773309
 30
0.0
 11
136.6442066661
 21
208.5502773309
 31
0.0
  0
SPLINE
  5
E3
330
61
100
AcDbEntity
  8
MIRANDA25MM_C-MO
  6
CONTINUOUS
 62
     7
100
AcDbSpline
210
0.0
220
0.0
230
1.0
 70
    11
 71
     3
 72
    15
 73
    11
 74
     0
 42
0.0000000017098741
 43
0.0000000001
 40
0.0
 40
0.0
 40
0.0
 40
0.0
 40
0.124506551245146
 40
0.2499994084853779
 40
0.3755055203383981
 40
0.5001143325258917
 40
0.6246207231501126
 40
0.7500693732697152
 40
0.8755505352120356
 40
1.0
 40
1.0
 40
1.0
 40
1.0
 10
129.9442066661222
 20
195.6730923155541
 30
0.0
 10
129.7207759480915
 20
195.6731285378877
 30
0.0
 10
129.272238174837
 20
195.8755689929646
 30
0.0
 10
128.9792871526624
 20
196.5504445315528
 30
0.0
 10
129.2725099935677
 20
197.2255513142259
 30
0.0
 10
129.9449614628534
 20
197.52817554774
 30
0.0
 10
130.6172418222453
 20
197.225030758593
 30
0.0
 10
130.9088176093678
 20
196.5497145961996
 30
0.0
 10
130.6161364511164
 20
195.875202684331
 30
0.0
 10
130.1675349408035
 20
195.6730561098285
 30
0.0
 10
129.9442066661222
 20
195.6730923155541
 30
0.0
  0
CIRCLE
  5
E4
330
61
100
AcDbEntity
  8
MIRANDA25MM_C-MO
  6
CONTINUOUS
 62
     7
100
AcDbCircle
 10
129.9442066661
 20
196.5502773309
 30
0.0
 40
0.6749999999999993
  0
ARC
  5
E5
330
61
100
AcDbEntity
  8
MIRANDA25MM_C-MO
  6
CONTINUOUS
 62
     7
100
AcDbCircle
 10
129.9442066659
 20
164.0154750951
 30
0.0
 40
16.05822328720019
100
AcDbArc
 50
86.9051127264
 51
93.0948875277
  0
ARC
  5
E6
330
61
100
AcDbEntity
  8
MIRANDA25MM_C-MO
  6
CONTINUOUS
 62
     7
100
AcDbCircle
 10
129.9442066659
 20
229.0850795666
 30
0.0
 40
16.05822328719553
100
AcDbArc
 50
266.9051124723
 51
273.0948872736
  0
LINE
  5
E7
330
61
100
AcDbEntity
  8
MIRANDA25MM_C-MO
  6
CONTINUOUS
 62
     7
100
AcDbLine
 10
127.8442066661
 20
180.2502773309
 30
0.0
 11
127.8442066661
 21
212.8502773309
 31
0.0
  0
LINE
  5
E8
330
61
100
AcDbEntity
  8
MIRANDA25MM_C-MO
  6
CONTINUOUS
 62
     7
100
AcDbLine
 10
128.0442066661
 20
180.0502773309
 30
0.0
 11
128.0442066661
 21
213.0502773309
 31
0.0
  0
LINE
  5
E9
330
61
100
AcDbEntity
  8
MIRANDA25MM_C-MO
  6
CONTINUOUS
 62
     7
100
AcDbLine
 10
132.1442066661
 20
180.0502773309
 30
0.0
 11
132.1442066661
 21
213.0502773309
 31
0.0
  0
LINE
  5
EA
330
61
100
AcDbEntity
  8
MIRANDA25MM_C-MO
  6
CONTINUOUS
 62
     7
100
AcDbLine
 10
132.6442066661
 20
180.5502773309
 30
0.0
 11
132.6442066661
 21
212.5502773309
 31
0.0
  0
LINE
  5
EB
330
61
100
AcDbEntity
  8
MIRANDA25MM_C-MO
  6
CONTINUOUS
 62
     7
100
AcDbLine
 10
127.3442025778
 20
180.8502773309
 30
0.0
 11
127.8442066661
 21
180.8502773309
 31
0.0
  0
LINE
  5
EC
330
61
100
AcDbEntity
  8
MIRANDA25MM_C-MO
  6
CONTINUOUS
 62
     7
100
AcDbLine
 10
127.8442066661
 20
212.2502773309
 30
0.0
 11
127.3442025778
 21
212.2502773309
 31
0.0
  0
LINE
  5
ED
330
61
100
AcDbEntity
  8
MIRANDA25MM_C-MO
  6
CONTINUOUS
 62
     7
100
AcDbLine
 10
130.8111095771
 20
180.0502773309
 30
0.0
 11
132.1442066661
 21
180.0502773309
 31
0.0
  0
LINE
  5
EE
330
61
100
AcDbEntity
  8
MIRANDA25MM_C-MO
  6
CONTINUOUS
 62
     7
100
AcDbLine
 10
128.0442066661
 20
180.0502773309
 30
0.0
 11
129.0772422184
 21
180.0502773309
 31
0.0
  0
LINE
  5
EF
330
61
100
AcDbEntity
  8
MIRANDA25MM_C-MO
  6
CONTINUOUS
 62
     7
100
AcDbLine
 10
129.0772422184
 20
213.0502773309
 30
0.0
 11
128.0442066661
 21
213.0502773309
 31
0.0
  0
LINE
  5
F0
330
61
100
AcDbEntity
  8
MIRANDA25MM_C-MO
  6
CONTINUOUS
 62
     7
100
AcDbLine
 10
132.1442066661
 20
213.0502773309
 30
0.0
 11
130.8111095771
 21
213.0502773309
 31
0.0
  0
LINE
  5
F1
330
61
100
AcDbEntity
  8
MIRANDA25MM_C-MO
  6
CONTINUOUS
 62
     7
100
AcDbLine
 10
132.6442066661
 20
184.5502773309
 30
0.0
 11
133.6942066661
 21
184.5502773309
 31
0.0
  0
LINE
  5
F2
330
61
100
AcDbEntity
  8
MIRANDA25MM_C-MO
  6
CONTINUOUS
 62
     7
100
AcDbLine
 10
133.6942066661
 20
208.5502773309
 30
0.0
 11
132.6442066661
 21
208.5502773309
 31
0.0
  0
LINE
  5
F3
330
61
100
AcDbEntity
  8
MIRANDA25MM_C-MO
  6
CONTINUOUS
 62
     7
100
AcDbLine
 10
134.3942066661
 20
209.2502773309
 30
0.0
 11
133.6942066661
 21
208.5502773309
 31
0.0
  0
LINE
  5
F4
330
61
100
AcDbEntity
  8
MIRANDA25MM_C-MO
  6
CONTINUOUS
 62
     7
100
AcDbLine
 10
133.6942066661
 20
184.5502773309
 30
0.0
 11
134.3942066661
 21
183.8502773309
 31
0.0
  0
LINE
  5
F5
330
61
100
AcDbEntity
  8
MIRANDA25MM_C-MO
  6
CONTINUOUS
 62
     7
100
AcDbLine
 10
134.3942066661
 20
183.8502773309
 30
0.0
 11
135.9442066661
 21
183.8502773309
 31
0.0
  0
LINE
  5
F6
330
61
100
AcDbEntity
  8
MIRANDA25MM_C-MO
  6
CONTINUOUS
 62
     7
100
AcDbLine
 10
135.9442066661
 20
209.2502773309
 30
0.0
 11
134.3942066661
 21
209.2502773309
 31
0.0
  0
LINE
  5
F7
330
61
100
AcDbEntity
  8
MIRANDA25MM_C-MO
  6
CONTINUOUS
 62
     7
100
AcDbLine
 10
135.9442066661
 20
183.8502773309
 30
0.0
 11
136.6442066661
 21
184.5502773309
 31
0.0
  0
LINE
  5
F8
330
61
100
AcDbEntity
  8
MIRANDA25MM_C-MO
  6
CONTINUOUS
 62
     7
100
AcDbLine
 10
136.6442066661
 20
208.5502773309
 30
0.0
 11
135.9442066661
 21
209.2502773309
 31
0.0
  0
LINE
  5
F9
330
61
100
AcDbEntity
  8
MIRANDA25MM_C-MO
  6
CONTINUOUS
 62
     7
100
AcDbLine
 10
128.0442066661
 20
213.0502773309
 30
0.0
 11
127.8442066661
 21
212.8502773309
 31
0.0
  0
LINE
  5
FA
330
61
100
AcDbEntity
  8
MIRANDA25MM_C-MO
  6
CONTINUOUS
 62
     7
100
AcDbLine
 10
127.8442066661
 20
180.2502773309
 30
0.0
 11
128.0442066661
 21
180.0502773309
 31
0.0
  0
LINE
  5
FB
330
61
100
AcDbEntity
  8
MIRANDA25MM_C-MO
  6
CONTINUOUS
 62
     7
100
AcDbLine
 10
132.1442066661
 20
180.0502773309
 30
0.0
 11
132.6442066661
 21
180.5502773309
 31
0.0
  0
LINE
  5
FC
330
61
100
AcDbEntity
  8
MIRANDA25MM_C-MO
  6
CONTINUOUS
 62
     7
100
AcDbLine
 10
132.6442066661
 20
212.5502773309
 30
0.0
 11
132.1442066661
 21
213.0502773309
 31
0.0
  0
ARC
  5
FD
330
61
100
AcDbEntity
  8
MIRANDA25MM_C-MO
  6
CONTINUOUS
 62
     7
100
AcDbCircle
 10
129.9442066661
 20
196.5502773309
 30
0.0
 40
0.849999999999999
100
AcDbArc
 50
75.0
 51
15.0
  0
LINE
  5
100
330
61
100
AcDbEntity
  8
DV1_デフォルト
  6
DASHDOT2
 62
     7
100
AcDbLine
 10
64.726575992
 20
196.5502773309
 30
0.0
 11
139.4648891049
 21
196.5502773309
 31
0.0
  0
LINE
  5
101
330
61
100
AcDbEntity
  8
DV1_デフォルト
  6
DASHDOT2
 62
     7
100
AcDbLine
 10
66.1187602559
 20
211.8002773309
 30
0.0
 11
73.3727729992
 21
211.8002773309
 31
0.0
  0
LINE
  5
102
330
61
100
AcDbEntity
  8
DV1_デフォルト
  6
DASHDOT2
 62
     7
100
AcDbLine
 10
66.1187602559
 20
181.3002773309
 30
0.0
 11
73.3727729992
 21
181.3002773309
 31
0.0
  0
LINE
  5
103
330
61
100
AcDbEntity
  8
DV1_デフォルト
  6
DASHDOT2
 62
     7
100
AcDbLine
 10
152.2762841995
 20
194.4441997975
 30
0.0
 11
148.0641291327
 21
198.6563548643
 31
0.0
  0
LINE
  5
104
330
61
100
AcDbEntity
  8
DV1_デフォルト
  6
DASHDOT2
 62
     7
100
AcDbLine
 10
148.0641291327
 20
194.4441997975
 30
0.0
 11
152.2762841995
 21
198.6563548643
 31
0.0
  0
ENDBLK
  5
106
330
61
100
AcDbEntity
  8
0
100
AcDbBlockEnd
  0
BLOCK
  5
111
330
107
100
AcDbEntity
  8
0
100
AcDbBlockBegin
  2
GDIMGGROUP
 70
     0
 10
0.0
 20
0.0
 30
0.0
  3
GDIMGGROUP
  1

  0
POLYLINE
  5
109
330
107
100
AcDbEntity
  8
DEFAULT
  6
CONTINUOUS
 62
   136
100
AcDb2dPolyline
 66
     1
 10
0.0
 20
0.0
 30
0.0
  0
VERTEX
  5
168
330
109
100
AcDbEntity
  8
DEFAULT
  6
CONTINUOUS
 62
   136
100
AcDbVertex
100
AcDb2dVertex
 10
56.7317963852
 20
184.50027725
 30
0.0
  0
VERTEX
  5
169
330
109
100
AcDbEntity
  8
DEFAULT
  6
CONTINUOUS
 62
   136
100
AcDbVertex
100
AcDb2dVertex
 10
56.1984630653
 20
181.3002773309
 30
0.0
  0
VERTEX
  5
16A
330
109
100
AcDbEntity
  8
DEFAULT
  6
CONTINUOUS
 62
   136
100
AcDbVertex
100
AcDb2dVertex
 10
55.6651297454
 20
184.50027725
 30
0.0
  0
SEQEND
  5
16B
330
109
100
AcDbEntity
  8
DEFAULT
  6
CONTINUOUS
 62
   136
  0
POLYLINE
  5
10A
330
107
100
AcDbEntity
  8
DEFAULT
  6
CONTINUOUS
 62
   136
100
AcDb2dPolyline
 66
     1
 10
0.0
 20
0.0
 30
0.0
  0
VERTEX
  5
16C
330
10A
100
AcDbEntity
  8
DEFAULT
  6
CONTINUOUS
 62
   136
100
AcDbVertex
100
AcDb2dVertex
 10
56.7317963852
 20
208.6002777544
 30
0.0
  0
VERTEX
  5
16D
330
10A
100
AcDbEntity
  8
DEFAULT
  6
CONTINUOUS
 62
   136
100
AcDbVertex
100
AcDb2dVertex
 10
56.1984630653
 20
211.8002776736
 30
0.0
  0
VERTEX
  5
16E
330
10A
100
AcDbEntity
  8
DEFAULT
  6
CONTINUOUS
 62
   136
100
AcDbVertex
100
AcDb2dVertex
 10
55.6651297454
 20
208.6002777544
 30
0.0
  0
SEQEND
  5
16F
330
10A
100
AcDbEntity
  8
DEFAULT
  6
CONTINUOUS
 62
   136
  0
LINE
  5
10B
330
107
100
AcDbEntity
  8
DEFAULT
  6
CONTINUOUS
 62
   136
100
AcDbLine
 10
64.8387602882
 20
181.3002773309
 30
0.0
 11
54.5984631057
 21
181.3002773309
 31
0.0
  0
LINE
  5
10C
330
107
100
AcDbEntity
  8
DEFAULT
  6
CONTINUOUS
 62
   136
100
AcDbLine
 10
64.8387602882
 20
211.8002773309
 30
0.0
 11
54.5984631057
 21
211.8002773309
 31
0.0
  0
LINE
  5
10D
330
107
100
AcDbEntity
  8
DEFAULT
  6
CONTINUOUS
 62
   136
100
AcDbLine
 10
56.1984630653
 20
181.3002773309
 30
0.0
 11
56.1984630653
 21
211.8002776736
 31
0.0
  0
TEXT
  5
10E
330
107
100
AcDbEntity
  8
DEFAULT
  6
CONTINUOUS
 62
   136
100
AcDbText
 10
55.3984630653
 20
188.1275132746
 30
0.0
 40
3.2
  1
30.5
 50
90.0
  7
SEACAD_SEANSI_TTF
 11
52.1984630653
 21
188.1275132746
 31
0.0
100
AcDbText
 73
     3
  0
TEXT
  5
10F
330
107
100
AcDbEntity
  8
DEFAULT
  6
CONTINUOUS
 62
   136
100
AcDbText
 10
55.3984630653
 20
184.360358803
 30
0.0
 40
3.2
  1
M
 50
90.0
  7
SEACAD_SEANSI_TTF
 11
52.1984630653
 21
184.360358803
 31
0.0
100
AcDbText
 73
     3
  0
TEXT
  5
110
330
107
100
AcDbEntity
  8
DEFAULT
  6
CONTINUOUS
 62
   136
100
AcDbText
 10
55.3984630653
 20
196.4475132746
 30
0.0
 40
3.2
  1
 P=0.5
 50
90.0
  7
SEACAD_SEANSI_TTF
 11
52.1984630653
 21
196.4475132746
 31
0.0
100
AcDbText
 73
     3
  0
ENDBLK
  5
112
330
107
100
AcDbEntity
  8
0
100
AcDbBlockEnd
  0
BLOCK
  5
11D
330
113
100
AcDbEntity
  8
0
100
AcDbBlockBegin
  2
GDIMGGROUP1
 70
     0
 10
0.0
 20
0.0
 30
0.0
  3
GDIMGGROUP1
  1

  0
POLYLINE
  5
115
330
113
100
AcDbEntity
  8
DEFAULT
  6
CONTINUOUS
 62
   136
100
AcDb2dPolyline
 66
     1
 10
0.0
 20
0.0
 30
0.0
  0
VERTEX
  5
170
330
115
100
AcDbEntity
  8
DEFAULT
  6
CONTINUOUS
 62
   136
100
AcDbVertex
100
AcDb2dVertex
 10
50.0791177529
 20
209.8502825837
 30
0.0
  0
VERTEX
  5
171
330
115
100
AcDbEntity
  8
DEFAULT
  6
CONTINUOUS
 62
   136
100
AcDbVertex
100
AcDb2dVertex
 10
49.5457844331
 20
213.0502825028
 30
0.0
  0
VERTEX
  5
172
330
115
100
AcDbEntity
  8
DEFAULT
  6
CONTINUOUS
 62
   136
100
AcDbVertex
100
AcDb2dVertex
 10
49.0124511132
 20
209.8502825837
 30
0.0
  0
SEQEND
  5
173
330
115
100
AcDbEntity
  8
DEFAULT
  6
CONTINUOUS
 62
   136
  0
POLYLINE
  5
116
330
113
100
AcDbEntity
  8
DEFAULT
  6
CONTINUOUS
 62
   136
100
AcDb2dPolyline
 66
     1
 10
0.0
 20
0.0
 30
0.0
  0
VERTEX
  5
174
330
116
100
AcDbEntity
  8
DEFAULT
  6
CONTINUOUS
 62
   136
100
AcDbVertex
100
AcDb2dVertex
 10
50.0791177529
 20
183.2502714249
 30
0.0
  0
VERTEX
  5
175
330
116
100
AcDbEntity
  8
DEFAULT
  6
CONTINUOUS
 62
   136
100
AcDbVertex
100
AcDb2dVertex
 10
49.5457844331
 20
180.0502715058
 30
0.0
  0
VERTEX
  5
176
330
116
100
AcDbEntity
  8
DEFAULT
  6
CONTINUOUS
 62
   136
100
AcDbVertex
100
AcDb2dVertex
 10
49.0124511132
 20
183.2502714249
 30
0.0
  0
SEQEND
  5
177
330
116
100
AcDbEntity
  8
DEFAULT
  6
CONTINUOUS
 62
   136
  0
LINE
  5
117
330
113
100
AcDbEntity
  8
DEFAULT
  6
CONTINUOUS
 62
   136
100
AcDbLine
 10
73.8134267262
 20
213.0502825028
 30
0.0
 11
47.9457844735
 21
213.0502825028
 31
0.0
  0
LINE
  5
118
330
113
100
AcDbEntity
  8
DEFAULT
  6
CONTINUOUS
 62
   136
100
AcDbLine
 10
73.8134267262
 20
180.0502721589
 30
0.0
 11
47.9457844735
 21
180.0502721589
 31
0.0
  0
LINE
  5
119
330
113
100
AcDbEntity
  8
DEFAULT
  6
CONTINUOUS
 62
   136
100
AcDbLine
 10
49.5457844331
 20
213.0502825028
 30
0.0
 11
49.5457844331
 21
180.0502715058
 31
0.0
  0
TEXT
  5
11B
330
113
100
AcDbEntity
  8
DEFAULT
  6
CONTINUOUS
 62
   136
100
AcDbText
 10
48.7457844331
 20
192.2242521862
 30
0.0
 40
3.2
  1
O
 50
90.0
  7
SEACAD_SEMECA1_TTF
 11
45.5457844331
 21
192.2242521862
 31
0.0
100
AcDbText
 73
     3
  0
TEXT
  5
11C
330
113
100
AcDbEntity
  8
DEFAULT
  6
CONTINUOUS
 62
   136
100
AcDbText
 10
48.7457844331
 20
196.1933749932
 30
0.0
 40
3.2
  1
33
 50
90.0
  7
SEACAD_SEANSI_TTF
 11
45.5457844331
 21
196.1933749932
 31
0.0
100
AcDbText
 73
     3
  0
ENDBLK
  5
11E
330
113
100
AcDbEntity
  8
0
100
AcDbBlockEnd
  0
BLOCK
  5
127
330
11F
100
AcDbEntity
  8
0
100
AcDbBlockBegin
  2
GDIMGGROUP2
 70
     0
 10
0.0
 20
0.0
 30
0.0
  3
GDIMGGROUP2
  1

  0
POLYLINE
  5
121
330
11F
100
AcDbEntity
  8
DEFAULT
  6
CONTINUOUS
 62
   136
100
AcDb2dPolyline
 66
     1
 10
0.0
 20
0.0
 30
0.0
  0
VERTEX
  5
178
330
121
100
AcDbEntity
  8
DEFAULT
  6
CONTINUOUS
 62
   136
100
AcDbVertex
100
AcDb2dVertex
 10
129.444206747
 20
174.4461175023
 30
0.0
  0
VERTEX
  5
179
330
121
100
AcDbEntity
  8
DEFAULT
  6
CONTINUOUS
 62
   136
100
AcDbVertex
100
AcDb2dVertex
 10
132.6442066661
 20
173.9127841824
 30
0.0
  0
VERTEX
  5
17A
330
121
100
AcDbEntity
  8
DEFAULT
  6
CONTINUOUS
 62
   136
100
AcDbVertex
100
AcDb2dVertex
 10
129.444206747
 20
173.3794508626
 30
0.0
  0
SEQEND
  5
17B
330
121
100
AcDbEntity
  8
DEFAULT
  6
CONTINUOUS
 62
   136
  0
POLYLINE
  5
122
330
11F
100
AcDbEntity
  8
DEFAULT
  6
CONTINUOUS
 62
   136
100
AcDb2dPolyline
 66
     1
 10
0.0
 20
0.0
 30
0.0
  0
VERTEX
  5
17C
330
122
100
AcDbEntity
  8
DEFAULT
  6
CONTINUOUS
 62
   136
100
AcDbVertex
100
AcDb2dVertex
 10
139.8442065853
 20
174.4461175023
 30
0.0
  0
VERTEX
  5
17D
330
122
100
AcDbEntity
  8
DEFAULT
  6
CONTINUOUS
 62
   136
100
AcDbVertex
100
AcDb2dVertex
 10
136.6442066661
 20
173.9127841824
 30
0.0
  0
VERTEX
  5
17E
330
122
100
AcDbEntity
  8
DEFAULT
  6
CONTINUOUS
 62
   136
100
AcDbVertex
100
AcDb2dVertex
 10
139.8442065853
 20
173.3794508626
 30
0.0
  0
SEQEND
  5
17F
330
122
100
AcDbEntity
  8
DEFAULT
  6
CONTINUOUS
 62
   136
  0
LINE
  5
123
330
11F
100
AcDbEntity
  8
DEFAULT
  6
CONTINUOUS
 62
   136
100
AcDbLine
 10
132.6442066661
 20
179.2702773632
 30
0.0
 11
132.6442066661
 21
172.3127842228
 31
0.0
  0
LINE
  5
124
330
11F
100
AcDbEntity
  8
DEFAULT
  6
CONTINUOUS
 62
   136
100
AcDbLine
 10
136.6442066661
 20
183.2702773632
 30
0.0
 11
136.6442066661
 21
172.3127842228
 31
0.0
  0
LINE
  5
125
330
11F
100
AcDbEntity
  8
DEFAULT
  6
CONTINUOUS
 62
   136
100
AcDbLine
 10
126.2442068278
 20
173.9127841824
 30
0.0
 11
143.4843599877
 21
173.9127841824
 31
0.0
  0
TEXT
  5
126
330
11F
100
AcDbEntity
  8
DEFAULT
  6
CONTINUOUS
 62
   136
100
AcDbText
 10
140.0228964645
 20
174.7127841824
 30
0.0
 40
3.2
  1
4
  7
SEACAD_SEANSI_TTF
 11
140.0228964645
 21
177.9127841824
 31
0.0
100
AcDbText
 73
     3
  0
ENDBLK
  5
128
330
11F
100
AcDbEntity
  8
0
100
AcDbBlockEnd
  0
BLOCK
  5
131
330
129
100
AcDbEntity
  8
0
100
AcDbBlockBegin
  2
GDIMGGROUP3
 70
     0
 10
0.0
 20
0.0
 30
0.0
  3
GDIMGGROUP3
  1

  0
POLYLINE
  5
12B
330
129
100
AcDbEntity
  8
DEFAULT
  6
CONTINUOUS
 62
   136
100
AcDb2dPolyline
 66
     1
 10
0.0
 20
0.0
 30
0.0
  0
VERTEX
  5
180
330
12B
100
AcDbEntity
  8
DEFAULT
  6
CONTINUOUS
 62
   136
100
AcDbVertex
100
AcDb2dVertex
 10
129.444206747
 20
168.0461171983
 30
0.0
  0
VERTEX
  5
181
330
12B
100
AcDbEntity
  8
DEFAULT
  6
CONTINUOUS
 62
   136
100
AcDbVertex
100
AcDb2dVertex
 10
132.6442066661
 20
167.5127838784
 30
0.0
  0
VERTEX
  5
182
330
12B
100
AcDbEntity
  8
DEFAULT
  6
CONTINUOUS
 62
   136
100
AcDbVertex
100
AcDb2dVertex
 10
129.444206747
 20
166.9794505586
 30
0.0
  0
SEQEND
  5
183
330
12B
100
AcDbEntity
  8
DEFAULT
  6
CONTINUOUS
 62
   136
  0
POLYLINE
  5
12C
330
129
100
AcDbEntity
  8
DEFAULT
  6
CONTINUOUS
 62
   136
100
AcDb2dPolyline
 66
     1
 10
0.0
 20
0.0
 30
0.0
  0
VERTEX
  5
184
330
12C
100
AcDbEntity
  8
DEFAULT
  6
CONTINUOUS
 62
   136
100
AcDbVertex
100
AcDb2dVertex
 10
141.4442065853
 20
168.0461171983
 30
0.0
  0
VERTEX
  5
185
330
12C
100
AcDbEntity
  8
DEFAULT
  6
CONTINUOUS
 62
   136
100
AcDbVertex
100
AcDb2dVertex
 10
138.2442066661
 20
167.5127838784
 30
0.0
  0
VERTEX
  5
186
330
12C
100
AcDbEntity
  8
DEFAULT
  6
CONTINUOUS
 62
   136
100
AcDbVertex
100
AcDb2dVertex
 10
141.4442065853
 20
166.9794505586
 30
0.0
  0
SEQEND
  5
187
330
12C
100
AcDbEntity
  8
DEFAULT
  6
CONTINUOUS
 62
   136
  0
LINE
  5
12D
330
129
100
AcDbEntity
  8
DEFAULT
  6
CONTINUOUS
 62
   136
100
AcDbLine
 10
132.6442066661
 20
179.2702773632
 30
0.0
 11
132.6442066661
 21
165.9127839189
 31
0.0
  0
LINE
  5
12E
330
129
100
AcDbEntity
  8
DEFAULT
  6
CONTINUOUS
 62
   136
100
AcDbLine
 10
138.2442066661
 20
184.4818576457
 30
0.0
 11
138.2442066661
 21
165.9127839189
 31
0.0
  0
LINE
  5
12F
330
129
100
AcDbEntity
  8
DEFAULT
  6
CONTINUOUS
 62
   136
100
AcDbLine
 10
126.2442068278
 20
167.5127838784
 30
0.0
 11
144.6442067704
 21
167.5127838784
 31
0.0
  0
TEXT
  5
130
330
129
100
AcDbEntity
  8
DEFAULT
  6
CONTINUOUS
 62
   136
100
AcDbText
 10
132.6149382736
 20
168.3127838784
 30
0.0
 40
3.2
  1
5.6
  7
SEACAD_SEANSI_TTF
 11
132.6149382736
 21
171.5127838784
 31
0.0
100
AcDbText
 73
     3
  0
ENDBLK
  5
132
330
129
100
AcDbEntity
  8
0
100
AcDbBlockEnd
  0
BLOCK
  5
13B
330
133
100
AcDbEntity
  8
0
100
AcDbBlockBegin
  2
GDIMGGROUP4
 70
     0
 10
0.0
 20
0.0
 30
0.0
  3
GDIMGGROUP4
  1

  0
POLYLINE
  5
135
330
133
100
AcDbEntity
  8
DEFAULT
  6
CONTINUOUS
 62
   136
100
AcDb2dPolyline
 66
     1
 10
0.0
 20
0.0
 30
0.0
  0
VERTEX
  5
188
330
135
100
AcDbEntity
  8
DEFAULT
  6
CONTINUOUS
 62
   136
100
AcDbVertex
100
AcDb2dVertex
 10
135.8442065853
 20
161.6461168943
 30
0.0
  0
VERTEX
  5
189
330
135
100
AcDbEntity
  8
DEFAULT
  6
CONTINUOUS
 62
   136
100
AcDbVertex
100
AcDb2dVertex
 10
132.6442066661
 20
161.1127835745
 30
0.0
  0
VERTEX
  5
18A
330
135
100
AcDbEntity
  8
DEFAULT
  6
CONTINUOUS
 62
   136
100
AcDbVertex
100
AcDb2dVertex
 10
135.8442065853
 20
160.5794502546
 30
0.0
  0
SEQEND
  5
18B
330
135
100
AcDbEntity
  8
DEFAULT
  6
CONTINUOUS
 62
   136
  0
POLYLINE
  5
136
330
133
100
AcDbEntity
  8
DEFAULT
  6
CONTINUOUS
 62
   136
100
AcDb2dPolyline
 66
     1
 10
0.0
 20
0.0
 30
0.0
  0
VERTEX
  5
18C
330
136
100
AcDbEntity
  8
DEFAULT
  6
CONTINUOUS
 62
   136
100
AcDbVertex
100
AcDb2dVertex
 10
146.9702074851
 20
161.6461168943
 30
0.0
  0
VERTEX
  5
18D
330
136
100
AcDbEntity
  8
DEFAULT
  6
CONTINUOUS
 62
   136
100
AcDbVertex
100
AcDb2dVertex
 10
150.1702074043
 20
161.1127835745
 30
0.0
  0
VERTEX
  5
18E
330
136
100
AcDbEntity
  8
DEFAULT
  6
CONTINUOUS
 62
   136
100
AcDbVertex
100
AcDb2dVertex
 10
146.9702074851
 20
160.5794502546
 30
0.0
  0
SEQEND
  5
18F
330
136
100
AcDbEntity
  8
DEFAULT
  6
CONTINUOUS
 62
   136
  0
LINE
  5
137
330
133
100
AcDbEntity
  8
DEFAULT
  6
CONTINUOUS
 62
   136
100
AcDbLine
 10
132.6442066661
 20
179.2702773632
 30
0.0
 11
132.6442066661
 21
159.5127836149
 31
0.0
  0
LINE
  5
138
330
133
100
AcDbEntity
  8
DEFAULT
  6
CONTINUOUS
 62
   136
100
AcDbLine
 10
150.1702066661
 20
195.2702773632
 30
0.0
 11
150.1702066661
 21
159.5127836149
 31
0.0
  0
LINE
  5
139
330
133
100
AcDbEntity
  8
DEFAULT
  6
CONTINUOUS
 62
   136
100
AcDbLine
 10
132.6442066661
 20
161.1127835745
 30
0.0
 11
150.1702074043
 21
161.1127835745
 31
0.0
  0
TEXT
  5
13A
330
133
100
AcDbEntity
  8
DEFAULT
  6
CONTINUOUS
 62
   136
100
AcDbText
 10
135.0657436206
 20
161.9127835745
 30
0.0
 40
3.2
  1
17.526
  7
SEACAD_SEANSI_TTF
 11
135.0657436206
 21
165.1127835745
 31
0.0
100
AcDbText
 73
     3
  0
ENDBLK
  5
13C
330
133
100
AcDbEntity
  8
0
100
AcDbBlockEnd
  0
BLOCK
  5
146
330
13D
100
AcDbEntity
  8
0
100
AcDbBlockBegin
  2
GDIMGGROUP5
 70
     0
 10
0.0
 20
0.0
 30
0.0
  3
GDIMGGROUP5
  1

  0
POLYLINE
  5
13F
330
13D
100
AcDbEntity
  8
DEFAULT
  6
CONTINUOUS
 62
   136
100
AcDb2dPolyline
 66
     1
 10
0.0
 20
0.0
 30
0.0
  0
VERTEX
  5
190
330
13F
100
AcDbEntity
  8
DEFAULT
  6
CONTINUOUS
 62
   136
100
AcDbVertex
100
AcDb2dVertex
 10
159.2754013526
 20
204.3389078996
 30
0.0
  0
VERTEX
  5
191
330
13F
100
AcDbEntity
  8
DEFAULT
  6
CONTINUOUS
 62
   136
100
AcDbVertex
100
AcDb2dVertex
 10
159.8087346724
 20
207.5389078188
 30
0.0
  0
VERTEX
  5
192
330
13F
100
AcDbEntity
  8
DEFAULT
  6
CONTINUOUS
 62
   136
100
AcDbVertex
100
AcDb2dVertex
 10
160.3420679923
 20
204.3389078996
 30
0.0
  0
SEQEND
  5
193
330
13F
100
AcDbEntity
  8
DEFAULT
  6
CONTINUOUS
 62
   136
  0
POLYLINE
  5
140
330
13D
100
AcDbEntity
  8
DEFAULT
  6
CONTINUOUS
 62
   136
100
AcDb2dPolyline
 66
     1
 10
0.0
 20
0.0
 30
0.0
  0
VERTEX
  5
194
330
140
100
AcDbEntity
  8
DEFAULT
  6
CONTINUOUS
 62
   136
100
AcDbVertex
100
AcDb2dVertex
 10
159.2754013526
 20
188.7616470291
 30
0.0
  0
VERTEX
  5
195
330
140
100
AcDbEntity
  8
DEFAULT
  6
CONTINUOUS
 62
   136
100
AcDbVertex
100
AcDb2dVertex
 10
159.8087346724
 20
185.56164711
 30
0.0
  0
VERTEX
  5
196
330
140
100
AcDbEntity
  8
DEFAULT
  6
CONTINUOUS
 62
   136
100
AcDbVertex
100
AcDb2dVertex
 10
160.3420679923
 20
188.7616470291
 30
0.0
  0
SEQEND
  5
197
330
140
100
AcDbEntity
  8
DEFAULT
  6
CONTINUOUS
 62
   136
  0
LINE
  5
141
330
13D
100
AcDbEntity
  8
DEFAULT
  6
CONTINUOUS
 62
   136
100
AcDbLine
 10
139.3242066338
 20
207.5389078188
 30
0.0
 11
161.408734632
 21
207.5389078188
 31
0.0
  0
LINE
  5
142
330
13D
100
AcDbEntity
  8
DEFAULT
  6
CONTINUOUS
 62
   136
100
AcDbLine
 10
139.3242066338
 20
185.561646843
 30
0.0
 11
161.408734632
 21
185.561646843
 31
0.0
  0
LINE
  5
143
330
13D
100
AcDbEntity
  8
DEFAULT
  6
CONTINUOUS
 62
   136
100
AcDbLine
 10
159.8087346724
 20
207.5389078188
 30
0.0
 11
159.8087346724
 21
185.56164711
 31
0.0
  0
TEXT
  5
144
330
13D
100
AcDbEntity
  8
DEFAULT
  6
CONTINUOUS
 62
   136
100
AcDbText
 10
159.0087346724
 20
192.2242526462
 30
0.0
 40
3.2
  1
O
 50
90.0
  7
SEACAD_SEMECA1_TTF
 11
155.8087346724
 21
192.2242526462
 31
0.0
100
AcDbText
 73
     3
  0
TEXT
  5
145
330
13D
100
AcDbEntity
  8
DEFAULT
  6
CONTINUOUS
 62
   136
100
AcDbText
 10
159.0087346724
 20
196.1933754533
 30
0.0
 40
3.2
  1
22
 50
90.0
  7
SEACAD_SEANSI_TTF
 11
155.8087346724
 21
196.1933754533
 31
0.0
100
AcDbText
 73
     3
  0
ENDBLK
  5
147
330
13D
100
AcDbEntity
  8
0
100
AcDbBlockEnd
  0
BLOCK
  5
150
330
148
100
AcDbEntity
  8
0
100
AcDbBlockBegin
  2
GDIMGGROUP6
 70
     0
 10
0.0
 20
0.0
 30
0.0
  3
GDIMGGROUP6
  1

  0
POLYLINE
  5
14A
330
148
100
AcDbEntity
  8
DEFAULT
  6
CONTINUOUS
 62
   136
100
AcDb2dPolyline
 66
     1
 10
0.0
 20
0.0
 30
0.0
  0
VERTEX
  5
198
330
14A
100
AcDbEntity
  8
DEFAULT
  6
CONTINUOUS
 62
   136
100
AcDbVertex
100
AcDb2dVertex
 10
165.6754018145
 20
206.0502774117
 30
0.0
  0
VERTEX
  5
199
330
14A
100
AcDbEntity
  8
DEFAULT
  6
CONTINUOUS
 62
   136
100
AcDbVertex
100
AcDb2dVertex
 10
166.2087351344
 20
209.2502773309
 30
0.0
  0
VERTEX
  5
19A
330
14A
100
AcDbEntity
  8
DEFAULT
  6
CONTINUOUS
 62
   136
100
AcDbVertex
100
AcDb2dVertex
 10
166.7420684542
 20
206.0502774117
 30
0.0
  0
SEQEND
  5
19B
330
14A
100
AcDbEntity
  8
DEFAULT
  6
CONTINUOUS
 62
   136
  0
POLYLINE
  5
14B
330
148
100
AcDbEntity
  8
DEFAULT
  6
CONTINUOUS
 62
   136
100
AcDb2dPolyline
 66
     1
 10
0.0
 20
0.0
 30
0.0
  0
VERTEX
  5
19C
330
14B
100
AcDbEntity
  8
DEFAULT
  6
CONTINUOUS
 62
   136
100
AcDbVertex
100
AcDb2dVertex
 10
165.6754018145
 20
187.050277557
 30
0.0
  0
VERTEX
  5
19D
330
14B
100
AcDbEntity
  8
DEFAULT
  6
CONTINUOUS
 62
   136
100
AcDbVertex
100
AcDb2dVertex
 10
166.2087351344
 20
183.8502776378
 30
0.0
  0
VERTEX
  5
19E
330
14B
100
AcDbEntity
  8
DEFAULT
  6
CONTINUOUS
 62
   136
100
AcDbVertex
100
AcDb2dVertex
 10
166.7420684542
 20
187.050277557
 30
0.0
  0
SEQEND
  5
19F
330
14B
100
AcDbEntity
  8
DEFAULT
  6
CONTINUOUS
 62
   136
  0
LINE
  5
14C
330
148
100
AcDbEntity
  8
DEFAULT
  6
CONTINUOUS
 62
   136
100
AcDbLine
 10
137.2242066338
 20
209.2502773309
 30
0.0
 11
167.808735094
 21
209.2502773309
 31
0.0
  0
LINE
  5
14D
330
148
100
AcDbEntity
  8
DEFAULT
  6
CONTINUOUS
 62
   136
100
AcDbLine
 10
137.2242066338
 20
183.8502773309
 30
0.0
 11
167.808735094
 21
183.8502773309
 31
0.0
  0
LINE
  5
14E
330
148
100
AcDbEntity
  8
DEFAULT
  6
CONTINUOUS
 62
   136
100
AcDbLine
 10
166.2087351344
 20
209.2502773309
 30
0.0
 11
166.2087351344
 21
183.8502776378
 31
0.0
  0
TEXT
  5
14F
330
148
100
AcDbEntity
  8
DEFAULT
  6
CONTINUOUS
 62
   136
100
AcDbText
 10
165.4087351344
 20
184.8780823624
 30
0.0
 40
3.2
  1
1-32UN-2A
 50
90.0
  7
SEACAD_SEANSI_TTF
 11
162.2087351344
 21
184.8780823624
 31
0.0
100
AcDbText
 73
     3
  0
ENDBLK
  5
151
330
148
100
AcDbEntity
  8
0
100
AcDbBlockEnd
  0
BLOCK
  5
15A
330
152
100
AcDbEntity
  8
0
100
AcDbBlockBegin
  2
GDIMGGROUP7
 70
     0
 10
0.0
 20
0.0
 30
0.0
  3
GDIMGGROUP7
  1

  0
POLYLINE
  5
154
330
152
100
AcDbEntity
  8
DEFAULT
  6
CONTINUOUS
 62
   136
100
AcDb2dPolyline
 66
     1
 10
0.0
 20
0.0
 30
0.0
  0
VERTEX
  5
1A0
330
154
100
AcDbEntity
  8
DEFAULT
  6
CONTINUOUS
 62
   136
100
AcDbVertex
100
AcDb2dVertex
 10
129.444206747
 20
161.6519097207
 30
0.0
  0
VERTEX
  5
1A1
330
154
100
AcDbEntity
  8
DEFAULT
  6
CONTINUOUS
 62
   136
100
AcDbVertex
100
AcDb2dVertex
 10
132.6442066661
 20
161.1185764009
 30
0.0
  0
VERTEX
  5
1A2
330
154
100
AcDbEntity
  8
DEFAULT
  6
CONTINUOUS
 62
   136
100
AcDbVertex
100
AcDb2dVertex
 10
129.444206747
 20
160.585243081
 30
0.0
  0
SEQEND
  5
1A3
330
154
100
AcDbEntity
  8
DEFAULT
  6
CONTINUOUS
 62
   136
  0
POLYLINE
  5
155
330
152
100
AcDbEntity
  8
DEFAULT
  6
CONTINUOUS
 62
   136
100
AcDb2dPolyline
 66
     1
 10
0.0
 20
0.0
 30
0.0
  0
VERTEX
  5
1A4
330
155
100
AcDbEntity
  8
DEFAULT
  6
CONTINUOUS
 62
   136
100
AcDbVertex
100
AcDb2dVertex
 10
70.6934241193
 20
161.6519097207
 30
0.0
  0
VERTEX
  5
1A5
330
155
100
AcDbEntity
  8
DEFAULT
  6
CONTINUOUS
 62
   136
100
AcDbVertex
100
AcDb2dVertex
 10
67.4934242002
 20
161.1185764009
 30
0.0
  0
VERTEX
  5
1A6
330
155
100
AcDbEntity
  8
DEFAULT
  6
CONTINUOUS
 62
   136
100
AcDbVertex
100
AcDb2dVertex
 10
70.6934241193
 20
160.585243081
 30
0.0
  0
SEQEND
  5
1A7
330
155
100
AcDbEntity
  8
DEFAULT
  6
CONTINUOUS
 62
   136
  0
LINE
  5
156
330
152
100
AcDbEntity
  8
DEFAULT
  6
CONTINUOUS
 62
   136
100
AcDbLine
 10
132.6442066661
 20
179.2702773632
 30
0.0
 11
132.6442066661
 21
159.5185764413
 31
0.0
  0
LINE
  5
157
330
152
100
AcDbEntity
  8
DEFAULT
  6
CONTINUOUS
 62
   136
100
AcDbLine
 10
67.4934218848
 20
179.4702773632
 30
0.0
 11
67.4934218848
 21
159.5185764413
 31
0.0
  0
LINE
  5
158
330
152
100
AcDbEntity
  8
DEFAULT
  6
CONTINUOUS
 62
   136
100
AcDbLine
 10
132.6442066661
 20
161.1185764009
 30
0.0
 11
67.4934242002
 21
161.1185764009
 31
0.0
  0
TEXT
  5
159
330
152
100
AcDbEntity
  8
DEFAULT
  6
CONTINUOUS
 62
   136
100
AcDbText
 10
95.9088154332
 20
161.9185764009
 30
0.0
 40
3.2
  1
65.5
  7
SEACAD_SEANSI_TTF
 11
95.9088154332
 21
165.1185764009
 31
0.0
100
AcDbText
 73
     3
  0
ENDBLK
  5
15B
330
152
100
AcDbEntity
  8
0
100
AcDbBlockEnd
  0
ENDSEC
  0
SECTION
  2
ENTITIES
  0
TEXT
  5
5E
330
1F
100
AcDbEntity
  8
DEFAULT
  6
CONTINUOUS
 62
     7
100
AcDbText
 10
141.3744967449
 20
148.5690842091
 30
0.0
 40
3.2
  1
FL-CC3524-5MX
  7
SEACAD_SEANSI_TTF
 11
141.3744967449
 21
151.7690842091
 31
0.0
100
AcDbText
 73
     3
  0
POLYLINE
  5
60
330
1F
100
AcDbEntity
  8
DEFAULT
  6
CONTINUOUS
 62
     7
100
AcDb2dPolyline
 66
     1
 10
0.0
 20
0.0
 30
0.0
  0
VERTEX
  5
162
330
60
100
AcDbEntity
  8
DEFAULT
  6
CONTINUOUS
 62
     7
100
AcDbVertex
100
AcDb2dVertex
 10
139.4427063237
 20
153.7471179813
 30
0.0
  0
VERTEX
  5
163
330
60
100
AcDbEntity
  8
DEFAULT
  6
CONTINUOUS
 62
     7
100
AcDbVertex
100
AcDb2dVertex
 10
139.4427063237
 20
146.773164258
 30
0.0
  0
VERTEX
  5
164
330
60
100
AcDbEntity
  8
DEFAULT
  6
CONTINUOUS
 62
     7
100
AcDbVertex
100
AcDb2dVertex
 10
177.3225473286
 20
146.773164258
 30
0.0
  0
VERTEX
  5
165
330
60
100
AcDbEntity
  8
DEFAULT
  6
CONTINUOUS
 62
     7
100
AcDbVertex
100
AcDb2dVertex
 10
177.3225473286
 20
153.7471179813
 30
0.0
  0
VERTEX
  5
166
330
60
100
AcDbEntity
  8
DEFAULT
  6
CONTINUOUS
 62
     7
100
AcDbVertex
100
AcDb2dVertex
 10
139.4427063237
 20
153.7471179813
 30
0.0
  0
SEQEND
  5
167
330
60
100
AcDbEntity
  8
DEFAULT
  6
CONTINUOUS
 62
     7
  0
INSERT
  5
62
330
1F
100
AcDbEntity
  8
DEFAULT
100
AcDbBlockReference
  2
SE
 10
0.0
 20
0.0
 30
0.0
  0
INSERT
  5
108
330
1F
100
AcDbEntity
  8
DEFAULT
100
AcDbBlockReference
  2
GDIMGGROUP
 10
0.0
 20
0.0
 30
0.0
  0
INSERT
  5
114
330
1F
100
AcDbEntity
  8
DEFAULT
100
AcDbBlockReference
  2
GDIMGGROUP1
 10
0.0
 20
0.0
 30
0.0
  0
INSERT
  5
120
330
1F
100
AcDbEntity
  8
DEFAULT
100
AcDbBlockReference
  2
GDIMGGROUP2
 10
0.0
 20
0.0
 30
0.0
  0
INSERT
  5
12A
330
1F
100
AcDbEntity
  8
DEFAULT
100
AcDbBlockReference
  2
GDIMGGROUP3
 10
0.0
 20
0.0
 30
0.0
  0
INSERT
  5
134
330
1F
100
AcDbEntity
  8
DEFAULT
100
AcDbBlockReference
  2
GDIMGGROUP4
 10
0.0
 20
0.0
 30
0.0
  0
INSERT
  5
13E
330
1F
100
AcDbEntity
  8
DEFAULT
100
AcDbBlockReference
  2
GDIMGGROUP5
 10
0.0
 20
0.0
 30
0.0
  0
INSERT
  5
149
330
1F
100
AcDbEntity
  8
DEFAULT
100
AcDbBlockReference
  2
GDIMGGROUP6
 10
0.0
 20
0.0
 30
0.0
  0
INSERT
  5
153
330
1F
100
AcDbEntity
  8
DEFAULT
100
AcDbBlockReference
  2
GDIMGGROUP7
 10
0.0
 20
0.0
 30
0.0
  0
ENDSEC
  0
SECTION
  2
OBJECTS
  0
DICTIONARY
  5
C
330
0
100
AcDbDictionary
  3
ACAD_GROUP
350
D
  3
ACAD_LAYOUT
350
1A
  3
ACAD_MLEADERSTYLE
350
15E
  3
ACAD_MLINESTYLE
350
17
  3
ACAD_PLOTSETTINGS
350
19
  3
ACAD_SCALELIST
350
3B
  3
ACAD_VISUALSTYLE
350
2A
  3
ACDBVARIABLEDICTIONARY
350
15C
1001
ACAD
1000
TREAT_AS_HARD
1070
     0
  0
DICTIONARY
  5
D
102
{ACAD_REACTORS
330
C
102
}
330
C
100
AcDbDictionary
1001
ACAD
1000
TREAT_AS_HARD
1070
     0
  0
DICTIONARY
  5
1A
102
{ACAD_REACTORS
330
C
102
}
330
C
100
AcDbDictionary
1001
ACAD
1000
TREAT_AS_HARD
1070
     0
  0
DICTIONARY
  5
15E
102
{ACAD_REACTORS
330
C
102
}
330
C
100
AcDbDictionary
1001
ACAD
1000
TREAT_AS_HARD
1070
     0
  0
DICTIONARY
  5
17
102
{ACAD_REACTORS
330
C
102
}
330
C
100
AcDbDictionary
  3
STANDARD
350
18
1001
ACAD
1000
TREAT_AS_HARD
1070
     0
  0
DICTIONARY
  5
19
102
{ACAD_REACTORS
330
C
102
}
330
C
100
AcDbDictionary
1001
ACAD
1000
TREAT_AS_HARD
1070
     0
  0
DICTIONARY
  5
3B
102
{ACAD_REACTORS
330
C
102
}
330
C
100
AcDbDictionary
  3
A0
350
3C
  3
A1
350
3D
  3
A2
350
3E
  3
A3
350
3F
  3
A4
350
40
  3
A5
350
41
  3
A6
350
42
  3
A7
350
43
  3
A8
350
44
  3
A9
350
45
  3
B0
350
46
  3
B1
350
47
  3
B2
350
48
  3
B3
350
49
  3
B4
350
4A
  3
B5
350
4B
  3
B6
350
4C
  3
B7
350
4D
  3
B8
350
4E
  3
B9
350
4F
  3
C0
350
50
  3
C1
350
51
  3
C2
350
52
  3
C3
350
53
  3
C4
350
54
  3
C5
350
55
  3
C6
350
56
  3
C7
350
57
  3
C8
350
58
  3
C9
350
59
  3
D0
350
5A
  3
D1
350
5B
  3
D2
350
5C
1001
ACAD
1000
TREAT_AS_HARD
1070
     0
  0
DICTIONARY
  5
2A
102
{ACAD_REACTORS
330
C
102
}
330
C
100
AcDbDictionary
  3
2DWIREFRAME
350
2F
  3
3D_HIDDEN
350
31
  3
3DWIREFRAME
350
30
  3
BASIC
350
32
  3
BRIGHTEN
350
36
  3
COLORCHANGE
350
3A
  3
CONCEPTUAL
350
34
  3
DIM
350
35
  3
FACEPATTERN
350
39
  3
FLAT
350
2B
  3
FLATWITHEDGES
350
2C
  3
GOURAUD
350
2D
  3
GOURAUDWITHEDGES
350
2E
  3
LINEPATTERN
350
38
  3
REALISTIC
350
33
  3
THICKEN
350
37
1001
ACAD
1000
TREAT_AS_HARD
1070
     0
  0
DICTIONARY
  5
15C
102
{ACAD_REACTORS
330
C
102
}
330
C
100
AcDbDictionary
  3
CANNOSCALE
350
161
  3
PSOLHEIGHT
350
160
  3
PSOLWIDTH
350
15F
1001
ACAD
1000
TREAT_AS_HARD
1070
     0
  0
MLINESTYLE
  5
18
102
{ACAD_REACTORS
330
17
102
}
330
17
100
AcDbMlineStyle
  2
Standard
 70
     0
  3

 62
   256
 51
90.0
 52
90.0
 71
     2
 49
0.5
 62
   256
  6
BYLAYER
 49
-0.5
 62
   256
  6
BYLAYER
  0
ACAD_PROXY_OBJECT
  5
3C
102
{ACAD_REACTORS
330
3B
102
}
330
3B
100
AcDbZombieObject
 90
      499
 91
      502
 93
       41
310
903313A31580
  0
ACAD_PROXY_OBJECT
  5
3D
102
{ACAD_REACTORS
330
3B
102
}
330
3B
100
AcDbZombieObject
 90
      499
 91
      502
 93
      105
310
903313A324000000000000004000
  0
ACAD_PROXY_OBJECT
  5
3E
102
{ACAD_REACTORS
330
3B
102
}
330
3B
100
AcDbZombieObject
 90
      499
 91
      502
 93
      105
310
903313A344000000000000104000
  0
ACAD_PROXY_OBJECT
  5
3F
102
{ACAD_REACTORS
330
3B
102
}
330
3B
100
AcDbZombieObject
 90
      499
 91
      502
 93
      105
310
903313A354000000000000144000
  0
ACAD_PROXY_OBJECT
  5
40
102
{ACAD_REACTORS
330
3B
102
}
330
3B
100
AcDbZombieObject
 90
      499
 91
      502
 93
      105
310
903313A384000000000000204000
  0
ACAD_PROXY_OBJECT
  5
41
102
{ACAD_REACTORS
330
3B
102
}
330
3B
100
AcDbZombieObject
 90
      499
 91
      502
 93
      113
310
904313A31304000000000000244000
  0
ACAD_PROXY_OBJECT
  5
42
102
{ACAD_REACTORS
330
3B
102
}
330
3B
100
AcDbZombieObject
 90
      499
 91
      502
 93
      113
310
904313A31364000000000000304000
  0
ACAD_PROXY_OBJECT
  5
43
102
{ACAD_REACTORS
330
3B
102
}
330
3B
100
AcDbZombieObject
 90
      499
 91
      502
 93
      113
310
904313A32304000000000000344000
  0
ACAD_PROXY_OBJECT
  5
44
102
{ACAD_REACTORS
330
3B
102
}
330
3B
100
AcDbZombieObject
 90
      499
 91
      502
 93
      113
310
904313A333040000000000003E4000
  0
ACAD_PROXY_OBJECT
  5
45
102
{ACAD_REACTORS
330
3B
102
}
330
3B
100
AcDbZombieObject
 90
      499
 91
      502
 93
      113
310
904313A34304000000000000444000
  0
ACAD_PROXY_OBJECT
  5
46
102
{ACAD_REACTORS
330
3B
102
}
330
3B
100
AcDbZombieObject
 90
      499
 91
      502
 93
      113
310
904313A35304000000000000494000
  0
ACAD_PROXY_OBJECT
  5
47
102
{ACAD_REACTORS
330
3B
102
}
330
3B
100
AcDbZombieObject
 90
      499
 91
      502
 93
      121
310
905313A3130304000000000000594000
  0
ACAD_PROXY_OBJECT
  5
48
102
{ACAD_REACTORS
330
3B
102
}
330
3B
100
AcDbZombieObject
 90
      499
 91
      502
 93
      105
310
903323A310000000000000010100
  0
ACAD_PROXY_OBJECT
  5
49
102
{ACAD_REACTORS
330
3B
102
}
330
3B
100
AcDbZombieObject
 90
      499
 91
      502
 93
      105
310
903343A310000000000000410100
  0
ACAD_PROXY_OBJECT
  5
4A
102
{ACAD_REACTORS
330
3B
102
}
330
3B
100
AcDbZombieObject
 90
      499
 91
      502
 93
      105
310
903383A310000000000000810100
  0
ACAD_PROXY_OBJECT
  5
4B
102
{ACAD_REACTORS
330
3B
102
}
330
3B
100
AcDbZombieObject
 90
      499
 91
      502
 93
      113
310
90431303A310000000000000910100
  0
ACAD_PROXY_OBJECT
  5
4C
102
{ACAD_REACTORS
330
3B
102
}
330
3B
100
AcDbZombieObject
 90
      499
 91
      502
 93
      121
310
9053130303A310000000000001650100
  0
ACAD_PROXY_OBJECT
  5
4D
102
{ACAD_REACTORS
330
3B
102
}
330
3B
100
AcDbZombieObject
 90
      499
 91
      502
 93
      257
310
90E312F31323822203D2031272D3022000000000000200FC000000000000284000
  0
ACAD_PROXY_OBJECT
  5
4E
102
{ACAD_REACTORS
330
3B
102
}
330
3B
100
AcDbZombieObject
 90
      499
 91
      502
 93
      249
310
90D312F363422203D2031272D3022000000000000240FC000000000000284000
  0
ACAD_PROXY_OBJECT
  5
4F
102
{ACAD_REACTORS
330
3B
102
}
330
3B
100
AcDbZombieObject
 90
      499
 91
      502
 93
      249
310
90D312F333222203D2031272D3022000000000000280FC000000000000284000
  0
ACAD_PROXY_OBJECT
  5
50
102
{ACAD_REACTORS
330
3B
102
}
330
3B
100
AcDbZombieObject
 90
      499
 91
      502
 93
      249
310
90D312F313622203D2031272D30220000000000002C0FC000000000000284000
  0
ACAD_PROXY_OBJECT
  5
51
102
{ACAD_REACTORS
330
3B
102
}
330
3B
100
AcDbZombieObject
 90
      499
 91
      502
 93
      249
310
90D332F333222203D2031272D30220000000000002E0FC000000000000284000
  0
ACAD_PROXY_OBJECT
  5
52
102
{ACAD_REACTORS
330
3B
102
}
330
3B
100
AcDbZombieObject
 90
      499
 91
      502
 93
      241
310
90C312F3822203D2031272D3022000000000000300FC000000000000284000
  0
ACAD_PROXY_OBJECT
  5
53
102
{ACAD_REACTORS
330
3B
102
}
330
3B
100
AcDbZombieObject
 90
      499
 91
      502
 93
      249
310
90D332F313622203D2031272D3022000000000000320FC000000000000284000
  0
ACAD_PROXY_OBJECT
  5
54
102
{ACAD_REACTORS
330
3B
102
}
330
3B
100
AcDbZombieObject
 90
      499
 91
      502
 93
      241
310
90C312F3422203D2031272D3022000000000000340FC000000000000284000
  0
ACAD_PROXY_OBJECT
  5
55
102
{ACAD_REACTORS
330
3B
102
}
330
3B
100
AcDbZombieObject
 90
      499
 91
      502
 93
      241
310
90C332F3822203D2031272D3022000000000000360FC000000000000284000
  0
ACAD_PROXY_OBJECT
  5
56
102
{ACAD_REACTORS
330
3B
102
}
330
3B
100
AcDbZombieObject
 90
      499
 91
      502
 93
      241
310
90C312F3222203D2031272D3022000000000000380FC000000000000284000
  0
ACAD_PROXY_OBJECT
  5
57
102
{ACAD_REACTORS
330
3B
102
}
330
3B
100
AcDbZombieObject
 90
      499
 91
      502
 93
      241
310
90C332F3422203D2031272D30220000000000003A0FC000000000000284000
  0
ACAD_PROXY_OBJECT
  5
58
102
{ACAD_REACTORS
330
3B
102
}
330
3B
100
AcDbZombieObject
 90
      499
 91
      502
 93
      161
310
90A3122203D2031272D30224000000000000284000
  0
ACAD_PROXY_OBJECT
  5
59
102
{ACAD_REACTORS
330
3B
102
}
330
3B
100
AcDbZombieObject
 90
      499
 91
      502
 93
      257
310
90E312D312F3222203D2031272D30220000000000003E0FC000000000000284000
  0
ACAD_PROXY_OBJECT
  5
5A
102
{ACAD_REACTORS
330
3B
102
}
330
3B
100
AcDbZombieObject
 90
      499
 91
      502
 93
      225
310
90A3322203D2031272D302200000000000002100000000000000284000
  0
ACAD_PROXY_OBJECT
  5
5B
102
{ACAD_REACTORS
330
3B
102
}
330
3B
100
AcDbZombieObject
 90
      499
 91
      502
 93
      225
310
90A3622203D2031272D302200000000000006100000000000000284000
  0
ACAD_PROXY_OBJECT
  5
5C
102
{ACAD_REACTORS
330
3B
102
}
330
3B
100
AcDbZombieObject
 90
      499
 91
      502
 93
      249
310
90D31272D3022203D2031272D30220000000000000A100000000000000284000
  0
ACAD_PROXY_OBJECT
  5
2F
102
{ACAD_REACTORS
330
2A
102
}
330
2A
100
AcDbZombieObject
 90
      499
 91
      501
 93
      436
310
42CC9915DA5C99599C985B595049028333333333333E3BF0000000000000FB0107901411070040501600405405064090741402480A0340
1001
ACAD
1000
AcDbSavedByObjectVersion
1070
     0
  0
ACAD_PROXY_OBJECT
  5
31
102
{ACAD_REACTORS
330
2A
102
}
330
2A
100
AcDbZombieObject
 90
      499
 91
      501
 93
      500
310
424CD108121A5919195B90640502408333333333333E3BF0000000000000FB01079024090700405020000000000001110200405405064090740C02480A0340
1001
ACAD
1000
AcDbSavedByObjectVersion
1070
     0
  0
ACAD_PROXY_OBJECT
  5
30
102
{ACAD_REACTORS
330
2A
102
}
330
2A
100
AcDbZombieObject
 90
      499
 91
      501
 93
      436
310
42CCD915DA5C99599C985B595059028333333333333E3BF0000000000000FB0107901411070040501600405405064090741402480A0340
1001
ACAD
1000
AcDbSavedByObjectVersion
1070
     0
  0
ACAD_PROXY_OBJECT
  5
32
102
{ACAD_REACTORS
330
2A
102
}
330
2A
100
AcDbZombieObject
 90
      499
 91
      501
 93
      388
310
4150985CDA58D07406404333333333333E3BF0000000000000FB0107A41107004050150841D405064090741402480A0350
1001
ACAD
1000
AcDbSavedByObjectVersion
1070
     0
  0
ACAD_PROXY_OBJECT
  5
36
102
{ACAD_REACTORS
330
2A
102
}
330
2A
100
AcDbZombieObject
 90
      499
 91
      501
 93
      428
310
42109C9A59DA1D195B90C409028333333333333E3BF0000000000000FB010790141107004050150841D405064090741402480A029950
1001
ACAD
1000
AcDbSavedByObjectVersion
1070
     0
  0
ACAD_PROXY_OBJECT
  5
3A
102
{ACAD_REACTORS
330
2A
102
}
330
2A
100
AcDbZombieObject
 90
      499
 91
      501
 93
      452
310
42D0DBDB1BDC90DA185B99D95104090240C333333333333E3BF0000000000000FB0108901411070040501508421405064090741402480A0350
1001
ACAD
1000
AcDbSavedByObjectVersion
1070
     0
  0
ACAD_PROXY_OBJECT
  5
34
102
{ACAD_REACTORS
330
2A
102
}
330
2A
100
AcDbZombieObject
 90
      499
 91
      501
 93
      500
310
4290DBDB98D95C1D1D585B10940D028333333333333E3BF0000000000000FB0107902409070040501000000000000111010841D405064090740C02480A0340
1001
ACAD
1000
AcDbSavedByObjectVersion
1070
     0
  0
ACAD_PROXY_OBJECT
  5
35
102
{ACAD_REACTORS
330
2A
102
}
330
2A
100
AcDbZombieObject
 90
      499
 91
      501
 93
      412
310
40D11A5B50B409028333333333333E3BF0000000000000FB010790141107004050150841D405064090741402480A02677FFFFFD0
1001
ACAD
1000
AcDbSavedByObjectVersion
1070
     0
  0
ACAD_PROXY_OBJECT
  5
39
102
{ACAD_REACTORS
330
2A
102
}
330
2A
100
AcDbZombieObject
 90
      499
 91
      501
 93
      444
310
42D19858D95C185D1D195C9B90F409028333333333333E3BF0000000000000FB010790141107004050150841D405064090741402480A0350
1001
ACAD
1000
AcDbSavedByObjectVersion
1070
     0
  0
ACAD_PROXY_OBJECT
  5
2B
102
{ACAD_REACTORS
330
2A
102
}
330
2A
100
AcDbZombieObject
 90
      499
 91
      501
 93
      388
310
41119B185D240901404333333333333E3BF0000000000000F9010740A41107004050150841D405064090741402480A1B50
1001
ACAD
1000
AcDbSavedByObjectVersion
1070
     0
  0
ACAD_PROXY_OBJECT
  5
2C
102
{ACAD_REACTORS
330
2A
102
}
330
2A
100
AcDbZombieObject
 90
      499
 91
      501
 93
      476
310
43519B185D15DA5D1A115919D95CD0140901404333333333333E3BF0000000000000F9010740901411070040501600405405064090741402480A1B50
1001
ACAD
1000
AcDbSavedByObjectVersion
1070
     0
  0
ACAD_PROXY_OBJECT
  5
2D
102
{ACAD_REACTORS
330
2A
102
}
330
2A
100
AcDbZombieObject
 90
      499
 91
      501
 93
      412
310
41D1DBDD5C985D5910240902404333333333333E3BF0000000000000F9010740A411070040501641D405064090741402480A1B50
1001
ACAD
1000
AcDbSavedByObjectVersion
1070
     0
  0
ACAD_PROXY_OBJECT
  5
2E
102
{ACAD_REACTORS
330
2A
102
}
330
2A
100
AcDbZombieObject
 90
      499
 91
      501
 93
      500
310
4411DBDD5C985D5915DA5D1A115919D95CD0340902404333333333333E3BF0000000000000F9010740901411070040501600405405064090741402480A1B50
1001
ACAD
1000
AcDbSavedByObjectVersion
1070
     0
  0
ACAD_PROXY_OBJECT
  5
38
102
{ACAD_REACTORS
330
2A
102
}
330
2A
100
AcDbZombieObject
 90
      499
 91
      501
 93
      444
310
42D31A5B995C185D1D195C9B90E409028333333333333E3BF0000000000000FB010790141107004050750841D405064090741402483A0350
1001
ACAD
1000
AcDbSavedByObjectVersion
1070
     0
  0
ACAD_PROXY_OBJECT
  5
33
102
{ACAD_REACTORS
330
2A
102
}
330
2A
100
AcDbZombieObject
 90
      499
 91
      501
 93
      420
310
425499585B1A5CDD1A58D08409028333333333333E3BF0000000000000FB01079019070040501508421405064090741402480A1B40
1001
ACAD
1000
AcDbSavedByObjectVersion
1070
     0
  0
ACAD_PROXY_OBJECT
  5
37
102
{ACAD_REACTORS
330
2A
102
}
330
2A
100
AcDbZombieObject
 90
      499
 91
      501
 93
      412
310
41D51A1A58DAD95B90D409028333333333333E3BF0000000000000FB010790141107004050150C41D405064090741402480A0350
1001
ACAD
1000
AcDbSavedByObjectVersion
1070
     0
  0
DICTIONARYVAR
  5
161
102
{ACAD_REACTORS
330
15C
102
}
330
15C
100
DictionaryVariables
280
     0
  1
1:1
  0
DICTIONARYVAR
  5
160
102
{ACAD_REACTORS
330
15C
102
}
330
15C
100
DictionaryVariables
280
     0
  1
80.000000
  0
DICTIONARYVAR
  5
15F
102
{ACAD_REACTORS
330
15C
102
}
330
15C
100
DictionaryVariables
280
     0
  1
5.000000
  0
ENDSEC
  0
EOF
