  0
SECTION
  2
HEADER
  9
$ACADVER
  1
AC1014
  9
$ACADMAINTVER
 70
     9
  9
$DWGCODEPAGE
  3
ANSI_932
  9
$INSBASE
 10
0.0
 20
0.0
 30
0.0
  9
$EXTMIN
 10
0.0
 20
0.0
 30
0.0
  9
$EXTMAX
 10
210.0
 20
297.0
 30
0.0
  9
$LIMMIN
 10
0.0
 20
0.0
  9
$LIMMAX
 10
210.0
 20
297.0
  9
$ORTHOMODE
 70
     0
  9
$REGENMODE
 70
     1
  9
$FILLMODE
 70
     1
  9
$QTEXTMODE
 70
     0
  9
$MIRRTEXT
 70
     1
  9
$DRAGMODE
 70
     2
  9
$LTSCALE
 40
1.0
  9
$OSMODE
 70
    37
  9
$ATTMODE
 70
     1
  9
$TEXTSIZE
 40
2.5
  9
$TRACEWID
 40
1.0
  9
$TEXTSTYLE
  7
STANDARD
  9
$CLAYER
  8
0
  9
$CELTYPE
  6
BYLAYER
  9
$CECOLOR
 62
   256
  9
$CELTSCALE
 40
1.0
  9
$DELOBJ
 70
     1
  9
$DISPSILH
 70
     0
  9
$DIMSCALE
 40
1.0
  9
$DIMASZ
 40
2.5
  9
$DIMEXO
 40
0.625
  9
$DIMDLI
 40
3.75
  9
$DIMRND
 40
0.0
  9
$DIMDLE
 40
0.0
  9
$DIMEXE
 40
1.25
  9
$DIMTP
 40
0.0
  9
$DIMTM
 40
0.0
  9
$DIMTXT
 40
2.5
  9
$DIMCEN
 40
2.5
  9
$DIMTSZ
 40
0.0
  9
$DIMTOL
 70
     0
  9
$DIMLIM
 70
     0
  9
$DIMTIH
 70
     0
  9
$DIMTOH
 70
     0
  9
$DIMSE1
 70
     0
  9
$DIMSE2
 70
     0
  9
$DIMTAD
 70
     1
  9
$DIMZIN
 70
     8
  9
$DIMBLK
  1

  9
$DIMASO
 70
     1
  9
$DIMSHO
 70
     1
  9
$DIMPOST
  1

  9
$DIMAPOST
  1

  9
$DIMALT
 70
     0
  9
$DIMALTD
 70
     3
  9
$DIMALTF
 40
0.0393700787
  9
$DIMLFAC
 40
1.0
  9
$DIMTOFL
 70
     1
  9
$DIMTVP
 40
0.0
  9
$DIMTIX
 70
     0
  9
$DIMSOXD
 70
     0
  9
$DIMSAH
 70
     0
  9
$DIMBLK1
  1

  9
$DIMBLK2
  1

  9
$DIMSTYLE
  2
ISO-25
  9
$DIMCLRD
 70
     0
  9
$DIMCLRE
 70
     0
  9
$DIMCLRT
 70
     0
  9
$DIMTFAC
 40
1.0
  9
$DIMGAP
 40
0.625
  9
$DIMJUST
 70
     0
  9
$DIMSD1
 70
     0
  9
$DIMSD2
 70
     0
  9
$DIMTOLJ
 70
     0
  9
$DIMTZIN
 70
     8
  9
$DIMALTZ
 70
     0
  9
$DIMALTTZ
 70
     0
  9
$DIMFIT
 70
     3
  9
$DIMUPT
 70
     0
  9
$DIMUNIT
 70
     2
  9
$DIMDEC
 70
     2
  9
$DIMTDEC
 70
     2
  9
$DIMALTU
 70
     2
  9
$DIMALTTD
 70
     3
  9
$DIMTXSTY
  7
STANDARD
  9
$DIMAUNIT
 70
     0
  9
$LUNITS
 70
     2
  9
$LUPREC
 70
     4
  9
$SKETCHINC
 40
1.0
  9
$FILLETRAD
 40
10.0
  9
$AUNITS
 70
     0
  9
$AUPREC
 70
     0
  9
$MENU
  1
.
  9
$ELEVATION
 40
0.0
  9
$PELEVATION
 40
0.0
  9
$THICKNESS
 40
0.0
  9
$LIMCHECK
 70
     0
  9
$CHAMFERA
 40
10.0
  9
$CHAMFERB
 40
10.0
  9
$CHAMFERC
 40
20.0
  9
$CHAMFERD
 40
0.0
  9
$SKPOLY
 70
     0
  9
$TDCREATE
 40
2458194.466199155
  9
$TDUPDATE
 40
2458194.466199167
  9
$TDINDWG
 40
0.0000000116
  9
$TDUSRTIMER
 40
0.0000000116
  9
$USRTIMER
 70
     1
  9
$ANGBASE
 50
0.0
  9
$ANGDIR
 70
     0
  9
$PDMODE
 70
     0
  9
$PDSIZE
 40
0.0
  9
$PLINEWID
 40
0.0
  9
$COORDS
 70
     1
  9
$SPLFRAME
 70
     0
  9
$SPLINETYPE
 70
     6
  9
$SPLINESEGS
 70
     8
  9
$ATTDIA
 70
     0
  9
$ATTREQ
 70
     1
  9
$HANDLING
 70
     1
  9
$HANDSEED
  5
1C1
  9
$SURFTAB1
 70
     6
  9
$SURFTAB2
 70
     6
  9
$SURFTYPE
 70
     6
  9
$SURFU
 70
     6
  9
$SURFV
 70
     6
  9
$UCSNAME
  2

  9
$UCSORG
 10
0.0
 20
0.0
 30
0.0
  9
$UCSXDIR
 10
1.0
 20
0.0
 30
0.0
  9
$UCSYDIR
 10
0.0
 20
1.0
 30
0.0
  9
$PUCSNAME
  2

  9
$PUCSORG
 10
0.0
 20
0.0
 30
0.0
  9
$PUCSXDIR
 10
1.0
 20
0.0
 30
0.0
  9
$PUCSYDIR
 10
0.0
 20
1.0
 30
0.0
  9
$USERI1
 70
     0
  9
$USERI2
 70
     0
  9
$USERI3
 70
     0
  9
$USERI4
 70
     0
  9
$USERI5
 70
     0
  9
$USERR1
 40
0.0
  9
$USERR2
 40
0.0
  9
$USERR3
 40
0.0
  9
$USERR4
 40
0.0
  9
$USERR5
 40
0.0
  9
$WORLDVIEW
 70
     1
  9
$SHADEDGE
 70
     3
  9
$SHADEDIF
 70
    70
  9
$TILEMODE
 70
     1
  9
$MAXACTVP
 70
    64
  9
$PINSBASE
 10
0.0
 20
0.0
 30
0.0
  9
$PLIMCHECK
 70
     0
  9
$PEXTMIN
 10
0.0
 20
0.0
 30
0.0
  9
$PEXTMAX
 10
210.0
 20
297.0
 30
0.0
  9
$PLIMMIN
 10
0.0
 20
0.0
  9
$PLIMMAX
 10
210.0
 20
297.0
  9
$UNITMODE
 70
     0
  9
$VISRETAIN
 70
     1
  9
$PLINEGEN
 70
     0
  9
$PSLTSCALE
 70
     1
  9
$TREEDEPTH
 70
  3020
  9
$PICKSTYLE
 70
     1
  9
$CMLSTYLE
  2
STANDARD
  9
$CMLJUST
 70
     0
  9
$CMLSCALE
 40
20.0
  9
$PROXYGRAPHICS
 70
     1
  9
$MEASUREMENT
 70
     1
  0
ENDSEC
  0
SECTION
  2
CLASSES
  0
CLASS
  1
ACDBDICTIONARYWDFLT
  2
AcDbDictionaryWithDefault
  3
ObjectDBX Classes
 90
        0
280
     0
281
     0
  0
CLASS
  1
VISUALSTYLE
  2
AcDbVisualStyle
  3
ObjectDBX Classes
 90
     4095
280
     0
281
     0
  0
CLASS
  1
SCALE
  2
AcDbScale
  3
ObjectDBX Classes
 90
     1153
280
     0
281
     0
  0
CLASS
  1
DICTIONARYVAR
  2
AcDbDictionaryVar
  3
ObjectDBX Classes
 90
        0
280
     0
281
     0
  0
CLASS
  1
XRECORD
  2
AcDbXrecord
  3
AutoCAD 2000
 90
        0
280
     0
281
     0
  0
CLASS
  1
LWPOLYLINE
  2
AcDbPolyline
  3
AutoCAD 2000
 90
        0
280
     0
281
     1
  0
CLASS
  1
HATCH
  2
AcDbHatch
  3
AutoCAD 2000
 90
        0
280
     0
281
     1
  0
CLASS
  1
ACDBPLACEHOLDER
  2
AcDbPlaceHolder
  3
ObjectDBX Classes
 90
        0
280
     0
281
     0
  0
CLASS
  1
LAYOUT
  2
AcDbLayout
  3
ObjectDBX Classes
 90
        0
280
     0
281
     0
  0
ENDSEC
  0
SECTION
  2
TABLES
  0
TABLE
  2
VPORT
  5
8
330
0
100
AcDbSymbolTable
 70
     1
  0
VPORT
  5
29
330
8
100
AcDbSymbolTableRecord
100
AcDbViewportTableRecord
  2
*ACTIVE
 70
     0
 10
0.0
 20
0.0
 11
1.0
 21
1.0
 12
344.1869158879
 22
148.5
 13
0.0
 23
0.0
 14
10.0
 24
10.0
 15
10.0
 25
10.0
 16
0.0
 26
0.0
 36
1.0
 17
0.0
 27
0.0
 37
0.0
 40
297.0
 41
1.9729729729
 42
50.0
 43
0.0
 44
0.0
 50
0.0
 51
0.0
 71
     0
 72
   100
 73
     1
 74
     3
 75
     0
 76
     0
 77
     0
 78
     0
  0
ENDTAB
  0
TABLE
  2
LTYPE
  5
5
330
0
100
AcDbSymbolTable
 70
     2
  0
LTYPE
  5
14
330
5
100
AcDbSymbolTableRecord
100
AcDbLinetypeTableRecord
  2
BYBLOCK
 70
     0
  3

 72
    65
 73
     0
 40
0.0
  0
LTYPE
  5
15
330
5
100
AcDbSymbolTableRecord
100
AcDbLinetypeTableRecord
  2
BYLAYER
 70
     0
  3

 72
    65
 73
     0
 40
0.0
  0
LTYPE
  5
16
330
5
100
AcDbSymbolTableRecord
100
AcDbLinetypeTableRecord
  2
CONTINUOUS
 70
     0
  3
Solid line
 72
    65
 73
     0
 40
0.0
  0
LTYPE
  5
13B
330
5
100
AcDbSymbolTableRecord
100
AcDbLinetypeTableRecord
  2
CENTER2
 70
     0
  3
Center (.5x) ___ _ ___ _ ___ _ ___ _ ___ _ ___
 72
    65
 73
     4
 40
28.575
 49
19.05
 74
     4
 75
     0
340
0
 46
0.0
 50
0.0
 44
0.0
 45
0.0
 49
-3.175
 74
     4
 75
     0
340
0
 46
0.0
 50
0.0
 44
0.0
 45
0.0
 49
3.175
 74
     4
 75
     0
340
0
 46
0.0
 50
0.0
 44
0.0
 45
0.0
 49
-3.175
 74
     4
 75
     0
340
0
 46
0.0
 50
0.0
 44
0.0
 45
0.0
  0
ENDTAB
  0
TABLE
  2
LAYER
  5
2
330
0
100
AcDbSymbolTable
 70
     5
  0
LAYER
  5
10
330
2
100
AcDbSymbolTableRecord
100
AcDbLayerTableRecord
  2
0
 70
     0
 62
     7
  6
CONTINUOUS
  0
LAYER
  5
5F
330
2
100
AcDbSymbolTableRecord
100
AcDbLayerTableRecord
  2
DEFAULT
 70
     0
 62
     7
  6
CONTINUOUS
  0
LAYER
  5
63
330
2
100
AcDbSymbolTableRecord
100
AcDbLayerTableRecord
  2
DV1_デフォルト
 70
     0
 62
     7
  6
CONTINUOUS
  0
LAYER
  5
122
330
2
100
AcDbSymbolTableRecord
100
AcDbLayerTableRecord
  2
DV1_ﾃﾞﾌｫﾙﾄ
 70
     0
 62
     7
  6
CONTINUOUS
  0
LAYER
  5
13D
330
2
100
AcDbSymbolTableRecord
100
AcDbLayerTableRecord
  2
デフォルト
 70
     0
 62
     7
  6
CONTINUOUS
  0
ENDTAB
  0
TABLE
  2
STYLE
  5
3
330
0
100
AcDbSymbolTable
 70
     3
  0
STYLE
  5
11
330
3
100
AcDbSymbolTableRecord
100
AcDbTextStyleTableRecord
  2
STANDARD
 70
     0
 40
0.0
 41
1.0
 50
0.0
 71
     0
 42
2.5
  3
txt
  4

  0
STYLE
  5
5D
330
3
100
AcDbSymbolTableRecord
100
AcDbTextStyleTableRecord
  2
SEACAD_SEANSI_TTF
 70
     0
 40
0.0
 41
1.0
 50
0.0
 71
     0
 42
0.2
  3
seansi.ttf
  4

  0
STYLE
  5
159
330
3
100
AcDbSymbolTableRecord
100
AcDbTextStyleTableRecord
  2
SEACAD_SEMECA1_TTF
 70
     0
 40
0.0
 41
1.0
 50
0.0
 71
     0
 42
0.2
  3
semeca1.ttf
  4

  0
ENDTAB
  0
TABLE
  2
VIEW
  5
6
330
0
100
AcDbSymbolTable
 70
     0
  0
ENDTAB
  0
TABLE
  2
UCS
  5
7
330
0
100
AcDbSymbolTable
 70
     0
  0
ENDTAB
  0
TABLE
  2
APPID
  5
9
330
0
100
AcDbSymbolTable
 70
     1
  0
APPID
  5
12
330
9
100
AcDbSymbolTableRecord
100
AcDbRegAppTableRecord
  2
ACAD
 70
     0
  0
ENDTAB
  0
TABLE
  2
DIMSTYLE
  5
A
330
0
100
AcDbSymbolTable
 70
     1
  0
DIMSTYLE
105
27
330
A
100
AcDbSymbolTableRecord
100
AcDbDimStyleTableRecord
  2
ISO-25
 70
     0
  3

  4

  5

  6

  7

 40
1.0
 41
2.5
 42
0.625
 43
3.75
 44
1.25
 45
0.0
 46
0.0
 47
0.0
 48
0.0
140
2.5
141
2.5
142
0.0
143
0.0393700787
144
1.0
145
0.0
146
1.0
147
0.625
 71
     0
 72
     0
 73
     0
 74
     0
 75
     0
 76
     0
 77
     1
 78
     8
170
     0
171
     3
172
     1
173
     0
174
     0
175
     0
176
     0
177
     0
178
     0
270
     2
271
     2
272
     2
273
     2
274
     3
340
11
275
     0
280
     0
281
     0
282
     0
283
     0
284
     8
285
     0
286
     0
287
     3
288
     0
  0
ENDTAB
  0
TABLE
  2
BLOCK_RECORD
  5
1
330
0
100
AcDbSymbolTable
 70
    10
  0
BLOCK_RECORD
  5
1F
330
1
100
AcDbSymbolTableRecord
100
AcDbBlockTableRecord
  2
*MODEL_SPACE
  0
BLOCK_RECORD
  5
1B
330
1
100
AcDbSymbolTableRecord
100
AcDbBlockTableRecord
  2
*PAPER_SPACE
  0
BLOCK_RECORD
  5
61
330
1
100
AcDbSymbolTableRecord
100
AcDbBlockTableRecord
  2
SE
  0
BLOCK_RECORD
  5
146
330
1
100
AcDbSymbolTableRecord
100
AcDbBlockTableRecord
  2
GDIMGGROUP
  0
BLOCK_RECORD
  5
152
330
1
100
AcDbSymbolTableRecord
100
AcDbBlockTableRecord
  2
GDIMGGROUP1
  0
BLOCK_RECORD
  5
15E
330
1
100
AcDbSymbolTableRecord
100
AcDbBlockTableRecord
  2
GDIMGGROUP2
  0
BLOCK_RECORD
  5
169
330
1
100
AcDbSymbolTableRecord
100
AcDbBlockTableRecord
  2
GDIMGGROUP3
  0
BLOCK_RECORD
  5
173
330
1
100
AcDbSymbolTableRecord
100
AcDbBlockTableRecord
  2
GDIMGGROUP4
  0
BLOCK_RECORD
  5
17D
330
1
100
AcDbSymbolTableRecord
100
AcDbBlockTableRecord
  2
GDIMGGROUP5
  0
BLOCK_RECORD
  5
187
330
1
100
AcDbSymbolTableRecord
100
AcDbBlockTableRecord
  2
GDIMGGROUP6
  0
BLOCK_RECORD
  5
191
330
1
100
AcDbSymbolTableRecord
100
AcDbBlockTableRecord
  2
GDIMGGROUP7
  0
ENDTAB
  0
ENDSEC
  0
SECTION
  2
BLOCKS
  0
BLOCK
  5
20
330
1F
100
AcDbEntity
  8
0
100
AcDbBlockBegin
  2
*MODEL_SPACE
 70
     0
 10
0.0
 20
0.0
 30
0.0
  3
*MODEL_SPACE
  1

  0
ENDBLK
  5
21
330
1F
100
AcDbEntity
  8
0
100
AcDbBlockEnd
  0
BLOCK
  5
1C
330
1B
100
AcDbEntity
 67
     1
  8
0
100
AcDbBlockBegin
  2
*PAPER_SPACE
 70
     0
 10
0.0
 20
0.0
 30
0.0
  3
*PAPER_SPACE
  1

  0
ENDBLK
  5
1D
330
1B
100
AcDbEntity
 67
     1
  8
0
100
AcDbBlockEnd
  0
BLOCK
  5
144
330
61
100
AcDbEntity
  8
0
100
AcDbBlockBegin
  2
SE
 70
     0
 10
0.0
 20
0.0
 30
0.0
  3
SE
  1

  0
LINE
  5
64
330
61
100
AcDbEntity
  8
DV1_デフォルト
  6
CONTINUOUS
 62
     7
100
AcDbLine
 10
113.7387073734
 20
201.9498578582
 30
0.0
 11
113.7387073734
 21
170.1498578549
 31
0.0
  0
LINE
  5
65
330
61
100
AcDbEntity
  8
DV1_デフォルト
  6
CONTINUOUS
 62
     7
100
AcDbLine
 10
113.5387073839
 20
202.1498578477
 30
0.0
 11
113.5387073839
 21
169.9498578653
 31
0.0
  0
LINE
  5
66
330
61
100
AcDbEntity
  8
DV1_デフォルト
  6
CONTINUOUS
 62
     7
100
AcDbLine
 10
106.3387073757
 20
202.1498578477
 30
0.0
 11
106.3387073757
 21
169.9498578653
 31
0.0
  0
LINE
  5
67
330
61
100
AcDbEntity
  8
DV1_デフォルト
  6
CONTINUOUS
 62
     7
100
AcDbLine
 10
105.9387073669
 20
202.5498578565
 30
0.0
 11
105.9387073669
 21
169.5498578565
 31
0.0
  0
LINE
  5
68
330
61
100
AcDbEntity
  8
DV1_デフォルト
  6
CONTINUOUS
 62
     7
100
AcDbLine
 10
99.1387073734
 20
202.5498578565
 30
0.0
 11
99.1387073734
 21
169.5498578565
 31
0.0
  0
LINE
  5
69
330
61
100
AcDbEntity
  8
DV1_デフォルト
  6
CONTINUOUS
 62
     7
100
AcDbLine
 10
98.9387073734
 20
202.3498578565
 30
0.0
 11
98.9387073734
 21
169.7498578565
 31
0.0
  0
LINE
  5
6A
330
61
100
AcDbEntity
  8
DV1_デフォルト
  6
CONTINUOUS
 62
     7
100
AcDbLine
 10
113.5387073839
 20
169.9498578653
 30
0.0
 11
113.7387073734
 21
170.1498578549
 31
0.0
  0
LINE
  5
6B
330
61
100
AcDbEntity
  8
DV1_デフォルト
  6
CONTINUOUS
 62
     7
100
AcDbLine
 10
113.7387073734
 20
201.9498578582
 30
0.0
 11
113.5387073839
 21
202.1498578477
 31
0.0
  0
LINE
  5
6C
330
61
100
AcDbEntity
  8
DV1_デフォルト
  6
CONTINUOUS
 62
     7
100
AcDbLine
 10
106.3387073757
 20
169.9498578653
 30
0.0
 11
113.5387073839
 21
169.9498578653
 31
0.0
  0
LINE
  5
6D
330
61
100
AcDbEntity
  8
DV1_デフォルト
  6
CONTINUOUS
 62
     7
100
AcDbLine
 10
113.5387073839
 20
202.1498578477
 30
0.0
 11
106.3387073757
 21
202.1498578477
 31
0.0
  0
LINE
  5
6E
330
61
100
AcDbEntity
  8
DV1_デフォルト
  6
CONTINUOUS
 62
     7
100
AcDbLine
 10
105.9387073669
 20
169.5498578565
 30
0.0
 11
106.3387073757
 21
169.9498578653
 31
0.0
  0
LINE
  5
6F
330
61
100
AcDbEntity
  8
DV1_デフォルト
  6
CONTINUOUS
 62
     7
100
AcDbLine
 10
106.3387073757
 20
202.1498578477
 30
0.0
 11
105.9387073669
 21
202.5498578565
 31
0.0
  0
LINE
  5
70
330
61
100
AcDbEntity
  8
DV1_デフォルト
  6
CONTINUOUS
 62
     7
100
AcDbLine
 10
99.1387073734
 20
169.5498578565
 30
0.0
 11
105.9387073669
 21
169.5498578565
 31
0.0
  0
LINE
  5
71
330
61
100
AcDbEntity
  8
DV1_デフォルト
  6
CONTINUOUS
 62
     7
100
AcDbLine
 10
105.9387073669
 20
202.5498578565
 30
0.0
 11
99.1387073734
 21
202.5498578565
 31
0.0
  0
LINE
  5
72
330
61
100
AcDbEntity
  8
DV1_デフォルト
  6
CONTINUOUS
 62
     7
100
AcDbLine
 10
99.1387073734
 20
202.5498578565
 30
0.0
 11
98.9387073734
 21
202.3498578565
 31
0.0
  0
LINE
  5
73
330
61
100
AcDbEntity
  8
DV1_デフォルト
  6
CONTINUOUS
 62
     7
100
AcDbLine
 10
98.9387073734
 20
169.7498578565
 30
0.0
 11
99.1387073734
 21
169.5498578565
 31
0.0
  0
LINE
  5
74
330
61
100
AcDbEntity
  8
DV1_デフォルト
  6
CONTINUOUS
 62
     7
100
AcDbLine
 10
98.4387073734
 20
202.3498578565
 30
0.0
 11
98.4387073734
 21
169.7498578565
 31
0.0
  0
LINE
  5
75
330
61
100
AcDbEntity
  8
DV1_デフォルト
  6
CONTINUOUS
 62
     7
100
AcDbLine
 10
91.0387073734
 20
202.3498578566
 30
0.0
 11
91.0387073734
 21
169.7498578565
 31
0.0
  0
SPLINE
  5
76
330
61
100
AcDbEntity
  8
DV1_デフォルト
  6
CONTINUOUS
 62
     7
100
AcDbSpline
210
0.0
220
0.0
230
1.0
 70
     8
 71
     3
 72
    10
 73
     6
 74
     0
 42
0.0000000099063094
 43
0.0000000001
 40
0.0
 40
0.0
 40
0.0
 40
0.0
 40
0.453519804432117
 40
0.9106415132964629
 40
1.0
 40
1.0
 40
1.0
 40
1.0
 10
95.5387073734455
 20
199.9482883485353
 30
0.0
 10
95.34713977026715
 20
199.9482892648416
 30
0.0
 10
94.96248601571257
 20
200.0426965669977
 30
0.0
 10
94.7789662918297
 20
200.2619735129589
 30
0.0
 10
94.79842998405718
 20
200.3767524416406
 30
0.0
 10
94.80459854917315
 20
200.3952115019015
 30
0.0
  0
SPLINE
  5
77
330
61
100
AcDbEntity
  8
DV1_デフォルト
  6
CONTINUOUS
 62
     7
100
AcDbSpline
210
0.0
220
0.0
230
1.0
 70
     8
 71
     3
 72
    10
 73
     6
 74
     0
 42
0.0000000099577434
 43
0.0000000001
 40
0.0
 40
0.0
 40
0.0
 40
0.0
 40
0.0830334063966773
 40
0.5433318136342842
 40
1.0
 40
1.0
 40
1.0
 40
1.0
 10
96.27419213203615
 20
200.3909238431906
 30
0.0
 10
96.27945755701458
 20
200.3738466515624
 30
0.0
 10
96.29718112231745
 20
200.2604535733422
 30
0.0
 10
96.11492990293983
 20
200.0426894219778
 30
0.0
 10
95.73027297420838
 20
199.9482874322384
 30
0.0
 10
95.5387073734455
 20
199.9482883485353
 30
0.0
  0
SPLINE
  5
78
330
61
100
AcDbEntity
  8
DV1_デフォルト
  6
CONTINUOUS
 62
     7
100
AcDbSpline
210
0.0
220
0.0
230
1.0
 70
     8
 71
     3
 72
    13
 73
     9
 74
     0
 42
0.0000000049300749
 43
0.0000000001
 40
0.0
 40
0.0
 40
0.0
 40
0.0
 40
0.0422935398133025
 40
0.2712643845513766
 40
0.4985414531068527
 40
0.7258187468085279
 40
0.9547893020468063
 40
1.0
 40
1.0
 40
1.0
 40
1.0
 10
94.80372174801107
 20
171.7071535260865
 30
0.0
 10
94.79816419282137
 20
171.7246297253277
 30
0.0
 10
94.77969671627831
 20
171.8384455561594
 30
0.0
 10
94.96206575546826
 20
172.0568604229592
 30
0.0
 10
95.53871479386854
 20
172.1985372649935
 30
0.0
 10
96.11535601714571
 20
172.0568526407521
 30
0.0
 10
96.29878578123495
 20
171.8371601308292
 30
0.0
 10
96.278839318664
 20
171.7221750274747
 30
0.0
 10
96.27250427833822
 20
171.7035338500028
 30
0.0
  0
LINE
  5
79
330
61
100
AcDbEntity
  8
DV1_デフォルト
  6
CONTINUOUS
 62
     7
100
AcDbLine
 10
98.2387073734
 20
202.5498578565
 30
0.0
 11
98.2387073734
 21
186.2998578565
 31
0.0
  0
LINE
  5
7A
330
61
100
AcDbEntity
  8
DV1_デフォルト
  6
CONTINUOUS
 62
     7
100
AcDbLine
 10
98.2387073734
 20
185.7998578565
 30
0.0
 11
98.2387073734
 21
169.5498578565
 31
0.0
  0
LINE
  5
7B
330
61
100
AcDbEntity
  8
DV1_デフォルト
  6
CONTINUOUS
 62
     7
100
AcDbLine
 10
98.3902955786
 20
185.9498578565
 30
0.0
 11
98.2387073734
 21
185.7998578565
 31
0.0
  0
SPLINE
  5
7C
330
61
100
AcDbEntity
  8
DV1_デフォルト
  6
CONTINUOUS
 62
     7
100
AcDbSpline
210
0.0
220
0.0
230
1.0
 70
     8
 71
     3
 72
    11
 73
     7
 74
     0
 42
0.0000000499994791
 43
0.0000000001
 40
0.0
 40
0.0
 40
0.0
 40
0.0
 40
0.1255291886487465
 40
0.1255291886487465
 40
0.1255291886487465
 40
1.0
 40
1.0
 40
1.0
 40
1.0
 10
98.39029557858206
 20
186.1498578565389
 30
0.0
 10
98.39034676944303
 20
186.1414889637877
 30
0.0
 10
98.39039153462619
 20
186.1331200292647
 30
0.0
 10
98.39042987373567
 20
186.1247510677701
 30
0.0
 10
98.3906969391932
 20
186.0664539252307
 30
0.0
 10
98.39065216773832
 20
186.0081545202204
 30
0.0
 10
98.39029557858206
 20
185.9498578565389
 30
0.0
  0
LINE
  5
7D
330
61
100
AcDbEntity
  8
DV1_デフォルト
  6
CONTINUOUS
 62
     7
100
AcDbLine
 10
98.2387073734
 20
186.2998578565
 30
0.0
 11
98.3902955786
 21
186.1498578565
 31
0.0
  0
LINE
  5
7E
330
61
100
AcDbEntity
  8
DV1_デフォルト
  6
CONTINUOUS
 62
     7
100
AcDbLine
 10
91.2387073734
 20
202.5498578565
 30
0.0
 11
91.2387073734
 21
186.2998578565
 31
0.0
  0
LINE
  5
7F
330
61
100
AcDbEntity
  8
DV1_デフォルト
  6
CONTINUOUS
 62
     7
100
AcDbLine
 10
91.2387073734
 20
185.7998578565
 30
0.0
 11
91.2387073734
 21
169.5498578565
 31
0.0
  0
LINE
  5
80
330
61
100
AcDbEntity
  8
DV1_デフォルト
  6
CONTINUOUS
 62
     7
100
AcDbLine
 10
91.2387073734
 20
185.7998578565
 30
0.0
 11
98.2387073734
 21
185.7998578565
 31
0.0
  0
LINE
  5
81
330
61
100
AcDbEntity
  8
DV1_デフォルト
  6
CONTINUOUS
 62
     7
100
AcDbLine
 10
91.0871191682
 20
186.1498578565
 30
0.0
 11
91.2387073734
 21
186.2998578565
 31
0.0
  0
LINE
  5
82
330
61
100
AcDbEntity
  8
DV1_デフォルト
  6
CONTINUOUS
 62
     7
100
AcDbLine
 10
91.2387073734
 20
186.2998578565
 30
0.0
 11
98.2387073734
 21
186.2998578565
 31
0.0
  0
SPLINE
  5
83
330
61
100
AcDbEntity
  8
DV1_デフォルト
  6
CONTINUOUS
 62
     7
100
AcDbSpline
210
0.0
220
0.0
230
1.0
 70
     8
 71
     3
 72
    11
 73
     7
 74
     0
 42
0.0000000499994791
 43
0.0000000001
 40
0.0
 40
0.0
 40
0.0
 40
0.0
 40
0.8744708113528832
 40
0.8744708113528832
 40
0.8744708113528832
 40
1.0
 40
1.0
 40
1.0
 40
1.0
 10
91.08711916822766
 20
185.9498578565389
 30
0.0
 10
91.0867625790714
 20
186.0081545202205
 30
0.0
 10
91.08671780761651
 20
186.0664539252309
 30
0.0
 10
91.08698487307406
 20
186.1247510677704
 30
0.0
 10
91.08702321218354
 20
186.1331200292649
 30
0.0
 10
91.08706797736671
 20
186.1414889637878
 30
0.0
 10
91.08711916822766
 20
186.1498578565389
 30
0.0
  0
LINE
  5
84
330
61
100
AcDbEntity
  8
DV1_デフォルト
  6
CONTINUOUS
 62
     7
100
AcDbLine
 10
91.0871191682
 20
186.1498578565
 30
0.0
 11
98.3902955786
 21
186.1498578565
 31
0.0
  0
LINE
  5
85
330
61
100
AcDbEntity
  8
DV1_デフォルト
  6
CONTINUOUS
 62
     7
100
AcDbLine
 10
91.2387073734
 20
185.7998578565
 30
0.0
 11
91.0871191682
 21
185.9498578565
 31
0.0
  0
LINE
  5
86
330
61
100
AcDbEntity
  8
DV1_デフォルト
  6
CONTINUOUS
 62
     7
100
AcDbLine
 10
91.0871191682
 20
185.9498578565
 30
0.0
 11
98.3902955786
 21
185.9498578565
 31
0.0
  0
LINE
  5
87
330
61
100
AcDbEntity
  8
DV1_デフォルト
  6
CONTINUOUS
 62
     7
100
AcDbLine
 10
98.4387073734
 20
170.2498578565
 30
0.0
 11
98.9387073734
 21
170.2498578565
 31
0.0
  0
LINE
  5
88
330
61
100
AcDbEntity
  8
DV1_デフォルト
  6
CONTINUOUS
 62
     7
100
AcDbLine
 10
98.9387073734
 20
201.8498578565
 30
0.0
 11
98.4387073734
 21
201.8498578565
 31
0.0
  0
LINE
  5
89
330
61
100
AcDbEntity
  8
DV1_デフォルト
  6
CONTINUOUS
 62
     7
100
AcDbLine
 10
90.5387073734
 20
170.3998578565
 30
0.0
 11
91.0387073734
 21
170.3998578565
 31
0.0
  0
LINE
  5
8A
330
61
100
AcDbEntity
  8
DV1_デフォルト
  6
CONTINUOUS
 62
     7
100
AcDbLine
 10
91.0387073734
 20
201.6998578565
 30
0.0
 11
90.5387073734
 21
201.6998578565
 31
0.0
  0
SPLINE
  5
8B
330
61
100
AcDbEntity
  8
DV1_デフォルト
  6
CONTINUOUS
 62
     7
100
AcDbSpline
210
0.0
220
0.0
230
1.0
 70
     8
 71
     3
 72
     9
 73
     5
 74
     0
 42
0.0000000501273132
 43
0.0000000001
 40
0.0
 40
0.0
 40
0.0
 40
0.0
 40
0.5120295639367577
 40
1.0
 40
1.0
 40
1.0
 40
1.0
 10
96.15705308355248
 20
200.1368594311585
 30
0.0
 10
96.1854684830964
 20
200.1642511586326
 30
0.0
 10
96.22752709882042
 20
200.2206561216948
 30
0.0
 10
96.2397563771571
 20
200.2801048743192
 30
0.0
 10
96.2385486150286
 20
200.3090505097143
 30
0.0
  0
SPLINE
  5
8C
330
61
100
AcDbEntity
  8
DV1_デフォルト
  6
CONTINUOUS
 62
     7
100
AcDbSpline
210
0.0
220
0.0
230
1.0
 70
     8
 71
     3
 72
     9
 73
     5
 74
     0
 42
0.0000000469423933
 43
0.0000000001
 40
0.0
 40
0.0
 40
0.0
 40
0.0
 40
0.6324690982536599
 40
1.0
 40
1.0
 40
1.0
 40
1.0
 10
94.8387075443685
 20
200.3019133820276
 30
0.0
 10
94.83864801802352
 20
200.2626362845261
 30
0.0
 10
94.85962193971869
 20
200.2008259399501
 30
0.0
 10
94.91212160966353
 20
200.1434408289426
 30
0.0
 10
94.93522975469665
 20
200.1232278930689
 30
0.0
  0
SPLINE
  5
8D
330
61
100
AcDbEntity
  8
DV1_デフォルト
  6
CONTINUOUS
 62
     7
100
AcDbSpline
210
0.0
220
0.0
230
1.0
 70
     8
 71
     3
 72
     9
 73
     5
 74
     0
 42
0.0000000628386068
 43
0.0000000001
 40
0.0
 40
0.0
 40
0.0
 40
0.0
 40
0.2157869622951382
 40
1.0
 40
1.0
 40
1.0
 40
1.0
 10
96.23854861502859
 20
171.8053660117772
 30
0.0
 10
96.23811642904047
 20
171.815722129877
 30
0.0
 10
96.23185571954095
 20
171.8636593220839
 30
0.0
 10
96.20579185797503
 20
171.910390455707
 30
0.0
 10
96.17423598576173
 20
171.9451141696973
 30
0.0
  0
SPLINE
  5
8E
330
61
100
AcDbEntity
  8
DV1_デフォルト
  6
CONTINUOUS
 62
     7
100
AcDbSpline
210
0.0
220
0.0
230
1.0
 70
     8
 71
     3
 72
    10
 73
     6
 74
     0
 42
0.0000000470554209
 43
0.0000000001
 40
0.0
 40
0.0
 40
0.0
 40
0.0
 40
0.3640561061603412
 40
0.9983762114247152
 40
1.0
 40
1.0
 40
1.0
 40
1.0
 10
94.9353222527369
 20
171.9765009004402
 30
0.0
 10
94.91247047163606
 20
171.9565066076174
 30
0.0
 10
94.86004539024533
 20
171.8993373737913
 30
0.0
 10
94.8388016725763
 20
171.8377716798633
 30
0.0
 10
94.8387076968676
 20
171.7984162241584
 30
0.0
 10
94.83870754436852
 20
171.7983157345522
 30
0.0
  0
LINE
  5
8F
330
61
100
AcDbEntity
  8
DV1_デフォルト
  6
CONTINUOUS
 62
     7
100
AcDbLine
 10
98.2387073734
 20
169.5498578565
 30
0.0
 11
98.4387073734
 21
169.7498578565
 31
0.0
  0
LINE
  5
90
330
61
100
AcDbEntity
  8
DV1_デフォルト
  6
CONTINUOUS
 62
     7
100
AcDbLine
 10
98.4387073734
 20
202.3498578565
 30
0.0
 11
98.2387073734
 21
202.5498578565
 31
0.0
  0
LINE
  5
91
330
61
100
AcDbEntity
  8
DV1_デフォルト
  6
CONTINUOUS
 62
     7
100
AcDbLine
 10
91.2387073734
 20
169.5498578565
 30
0.0
 11
98.2387073734
 21
169.5498578565
 31
0.0
  0
LINE
  5
92
330
61
100
AcDbEntity
  8
DV1_デフォルト
  6
CONTINUOUS
 62
     7
100
AcDbLine
 10
98.2387073734
 20
202.5498578565
 30
0.0
 11
91.2387073734
 21
202.5498578565
 31
0.0
  0
LINE
  5
93
330
61
100
AcDbEntity
  8
DV1_デフォルト
  6
CONTINUOUS
 62
     7
100
AcDbLine
 10
91.2387073734
 20
202.5498578565
 30
0.0
 11
91.0387073734
 21
202.3498578566
 31
0.0
  0
LINE
  5
94
330
61
100
AcDbEntity
  8
DV1_デフォルト
  6
CONTINUOUS
 62
     7
100
AcDbLine
 10
91.0387073734
 20
169.7498578565
 30
0.0
 11
91.2387073734
 21
169.5498578565
 31
0.0
  0
ELLIPSE
  5
95
330
61
100
AcDbEntity
  8
DV1_デフォルト
  6
CONTINUOUS
 62
     7
100
AcDbEllipse
 10
95.5387073734
 20
200.7289884507
 30
0.0
 11
-0.9999999999999974
 21
1.673491136019440E-15
 31
0.0
210
0.0
220
0.0
230
1.0
 40
0.5
 41
0.0000000000000033
 42
3.192125761129673
  0
ELLIPSE
  5
96
330
61
100
AcDbEntity
  8
DV1_デフォルト
  6
CONTINUOUS
 62
     7
100
AcDbEllipse
 10
95.5387073734
 20
200.7289884507
 30
0.0
 11
-0.9999999999999974
 21
1.673491136019440E-15
 31
0.0
210
0.0
220
0.0
230
1.0
 40
0.5
 41
6.232652199639425
 42
6.283185307179586
  0
LINE
  5
97
330
61
100
AcDbEntity
  8
DV1_デフォルト
  6
CONTINUOUS
 62
     7
100
AcDbLine
 10
96.5374308476
 20
200.7542442524
 30
0.0
 11
96.5096946719
 21
201.0284462963
 31
0.0
  0
LINE
  5
98
330
61
100
AcDbEntity
  8
DV1_デフォルト
  6
CONTINUOUS
 62
     7
100
AcDbLine
 10
94.567720075
 20
201.0284462963
 30
0.0
 11
94.5399838992
 21
200.7542442524
 31
0.0
  0
SPLINE
  5
99
330
61
100
AcDbEntity
  8
DV1_デフォルト
  6
CONTINUOUS
 62
     7
100
AcDbSpline
210
0.0
220
0.0
230
1.0
 70
     8
 71
     3
 72
    27
 73
    23
 74
     0
 42
0.0000000041323633
 43
0.0000000001
 40
0.0
 40
0.0
 40
0.0
 40
0.0
 40
0.0168856562272718
 40
0.0623678604960385
 40
0.1082213720191847
 40
0.1562729333370012
 40
0.2076441244546197
 40
0.2620777054124308
 40
0.3179786852611352
 40
0.3736296672444264
 40
0.4287597865577802
 40
0.4835046855598596
 40
0.5381026338260907
 40
0.5928002297511682
 40
0.6477984667978832
 40
0.7034024587959284
 40
0.7599436301038216
 40
0.8176668201417102
 40
0.869222215988659
 40
0.9174644475257018
 40
0.9629289941390705
 40
1.0
 40
1.0
 40
1.0
 40
1.0
 10
96.50827949725206
 20
201.0256446317635
 30
0.0
 10
96.5074333422671
 20
201.0387848720097
 30
0.0
 10
96.50448655312937
 20
201.0801592184104
 30
0.0
 10
96.47880685255792
 20
201.155599409298
 30
0.0
 10
96.42963380691712
 20
201.24053903348
 30
0.0
 10
96.3599212228496
 20
201.3187158540352
 30
0.0
 10
96.27041985229289
 20
201.38922136522
 30
0.0
 10
96.16076016447143
 20
201.4510701971026
 30
0.0
 10
96.03370840531541
 20
201.5019541083898
 30
0.0
 10
95.89387675359258
 20
201.5402108005281
 30
0.0
 10
95.74603208771131
 20
201.5651405431026
 30
0.0
 10
95.59383347908236
 20
201.5766547539959
 30
0.0
 10
95.44062386342515
 20
201.5747710193194
 30
0.0
 10
95.28969197676702
 20
201.5595379895109
 30
0.0
 10
95.14418518396842
 20
201.5310046621834
 30
0.0
 10
95.00702898717769
 20
201.4891095388647
 30
0.0
 10
94.88091491233577
 20
201.4334249699197
 30
0.0
 10
94.77349515945792
 20
201.3660027767701
 30
0.0
 10
94.68759766064753
 20
201.2889921475058
 30
0.0
 10
94.62539555660534
 20
201.206870152462
 30
0.0
 10
94.58402170650271
 20
201.1209727423881
 30
0.0
 10
94.57484703082821
 20
201.0672291516479
 30
0.0
 10
94.57033379279073
 20
201.0386676354011
 30
0.0
  0
LINE
  5
9A
330
61
100
AcDbEntity
  8
DV1_デフォルト
  6
CONTINUOUS
 62
     7
100
AcDbLine
 10
94.8387073734
 20
200.3719170293
 30
0.0
 11
94.8387073734
 21
200.3016563306
 31
0.0
  0
LINE
  5
9B
330
61
100
AcDbEntity
  8
DV1_デフォルト
  6
CONTINUOUS
 62
     7
100
AcDbLine
 10
96.2387073734
 20
200.3016563412
 30
0.0
 11
96.2387073734
 21
200.3719170293
 31
0.0
  0
LINE
  5
9C
330
61
100
AcDbEntity
  8
DV1_デフォルト
  6
CONTINUOUS
 62
     7
100
AcDbLine
 10
124.3398352807
 20
175.1613317778
 30
0.0
 11
124.3398352807
 21
196.9383839373
 31
0.0
  0
LINE
  5
9D
330
61
100
AcDbEntity
  8
DV1_デフォルト
  6
CONTINUOUS
 62
     7
100
AcDbLine
 10
124.1398352807
 20
174.9611248284
 30
0.0
 11
124.1398352807
 21
197.1385908868
 31
0.0
  0
LINE
  5
9E
330
61
100
AcDbEntity
  8
DV1_デフォルト
  6
CONTINUOUS
 62
     7
100
AcDbLine
 10
123.8175564997
 20
197.1498578667
 30
0.0
 11
123.8175564997
 21
197.1385908868
 31
0.0
  0
LINE
  5
9F
330
61
100
AcDbEntity
  8
DV1_デフォルト
  6
CONTINUOUS
 62
     7
100
AcDbLine
 10
123.8175564997
 20
174.9611248284
 30
0.0
 11
123.8175564997
 21
174.9498578485
 31
0.0
  0
LINE
  5
A0
330
61
100
AcDbEntity
  8
DV1_デフォルト
  6
CONTINUOUS
 62
     7
100
AcDbLine
 10
123.8175564997
 20
197.1385908868
 30
0.0
 11
124.1398352807
 21
197.1385908868
 31
0.0
  0
LINE
  5
A1
330
61
100
AcDbEntity
  8
DV1_デフォルト
  6
CONTINUOUS
 62
     7
100
AcDbLine
 10
124.1398352807
 20
197.1385908868
 30
0.0
 11
124.3398352807
 21
196.9383839373
 31
0.0
  0
LINE
  5
A2
330
61
100
AcDbEntity
  8
DV1_デフォルト
  6
CONTINUOUS
 62
     7
100
AcDbLine
 10
124.3398352807
 20
175.1613317778
 30
0.0
 11
124.1398352807
 21
174.9611248284
 31
0.0
  0
LINE
  5
A3
330
61
100
AcDbEntity
  8
DV1_デフォルト
  6
CONTINUOUS
 62
     7
100
AcDbLine
 10
124.1398352807
 20
174.9611248284
 30
0.0
 11
123.8175564997
 21
174.9611248284
 31
0.0
  0
LINE
  5
A4
330
61
100
AcDbEntity
  8
DV1_デフォルト
  6
CONTINUOUS
 62
     7
100
AcDbLine
 10
122.238707373
 20
174.9498578485
 30
0.0
 11
123.8175564997
 21
174.9498578485
 31
0.0
  0
LINE
  5
A5
330
61
100
AcDbEntity
  8
DV1_デフォルト
  6
CONTINUOUS
 62
     7
100
AcDbLine
 10
123.8175564997
 20
197.1498578667
 30
0.0
 11
122.238707373
 21
197.1498578667
 31
0.0
  0
ELLIPSE
  5
A6
330
61
100
AcDbEntity
  8
DV1_デフォルト
  6
CONTINUOUS
 62
     7
100
AcDbEllipse
 10
107.7387073734
 20
169.8005299319
 30
0.0
 11
0.9999999999999957
 21
6.123233995736739E-17
 31
0.0
210
0.0
220
0.0
230
1.0
 40
0.1736481777
 41
2.346193823405658
 42
6.283185307179586
  0
ELLIPSE
  5
A7
330
61
100
AcDbEntity
  8
DV1_デフォルト
  6
CONTINUOUS
 62
     7
100
AcDbEllipse
 10
107.7387073734
 20
169.8005299319
 30
0.0
 11
0.9999999999999957
 21
6.123233995736739E-17
 31
0.0
210
0.0
220
0.0
230
1.0
 40
0.1736481777
 41
0.0
 42
0.7953988301841551
  0
ELLIPSE
  5
A8
330
61
100
AcDbEntity
  8
DV1_デフォルト
  6
CONTINUOUS
 62
     7
100
AcDbEllipse
 10
107.7387073734
 20
169.4879212758
 30
0.0
 11
0.9722283730519005
 21
5.953181825491243E-17
 31
0.0
210
0.0
220
0.0
230
1.0
 40
0.1736481777
 41
6.267758083356371
 42
6.283185307179586
  0
ELLIPSE
  5
A9
330
61
100
AcDbEntity
  8
DV1_デフォルト
  6
CONTINUOUS
 62
     7
100
AcDbEllipse
 10
107.7387073734
 20
169.8005299319
 30
0.0
 11
-0.700000000000001
 21
-4.286263797015742E-17
 31
0.0
210
0.0
220
0.0
230
1.0
 40
0.1736481777
 41
0.0
 42
3.141592653589793
  0
LINE
  5
AA
330
61
100
AcDbEntity
  8
DV1_デフォルト
  6
CONTINUOUS
 62
     7
100
AcDbLine
 10
106.7388263707
 20
169.7978511289
 30
0.0
 11
106.7665946929
 21
169.4853168675
 31
0.0
  0
LINE
  5
AB
330
61
100
AcDbEntity
  8
DV1_デフォルト
  6
CONTINUOUS
 62
     7
100
AcDbLine
 10
108.710820054
 20
169.4853168675
 30
0.0
 11
108.7385883762
 21
169.7978511289
 31
0.0
  0
SPLINE
  5
AC
330
61
100
AcDbEntity
  8
DV1_デフォルト
  6
CONTINUOUS
 62
     7
100
AcDbSpline
210
0.0
220
0.0
230
1.0
 70
     8
 71
     3
 72
    29
 73
    25
 74
     0
 42
0.0000000045016112
 43
0.0000000001
 40
0.0
 40
0.0
 40
0.0
 40
0.0
 40
0.0248932549060756
 40
0.0537242465325452
 40
0.0822639405620684
 40
0.1136311844919809
 40
0.1526447980145376
 40
0.2088639826650335
 40
0.2647973896693627
 40
0.3234400222493676
 40
0.379224530058354
 40
0.4338403161791476
 40
0.4879610145801656
 40
0.5419257153632674
 40
0.5959527866228638
 40
0.6502454741001251
 40
0.7051557436776699
 40
0.7613443989163262
 40
0.8204364772830308
 40
0.8745083589021003
 40
0.9094904388893749
 40
0.9404094853072466
 40
0.9709240424738691
 40
1.0
 40
1.0
 40
1.0
 40
1.0
 10
106.7688842294807
 20
169.4851884961942
 30
0.0
 10
106.7714427965476
 20
169.4634370706186
 30
0.0
 10
106.7765535264492
 20
169.4237024669231
 30
0.0
 10
106.8091872123301
 20
169.3676949895624
 30
0.0
 10
106.850830798723
 20
169.3240456232813
 30
0.0
 10
106.899938609066
 20
169.2904923818209
 30
0.0
 10
106.9626402599498
 20
169.2611633945354
 30
0.0
 10
107.0443900146568
 20
169.2356191410234
 30
0.0
 10
107.1532361365371
 20
169.2126028762616
 30
0.0
 10
107.2794594092652
 20
169.194495451147
 30
0.0
 10
107.4196464989373
 20
169.1813188528358
 30
0.0
 10
107.5662874165041
 20
169.1732489462063
 30
0.0
 10
107.7167933585554
 20
169.1700986068669
 30
0.0
 10
107.8674471259382
 20
169.1718304739091
 30
0.0
 10
108.0141776713629
 20
169.1783879694582
 30
0.0
 10
108.1530963420932
 20
169.1896770546676
 30
0.0
 10
108.2809884598763
 20
169.205671610016
 30
0.0
 10
108.3961694539484
 20
169.2267286817764
 30
0.0
 10
108.4930857409619
 20
169.2530583092129
 30
0.0
 10
108.5668758466419
 20
169.2837076743503
 30
0.0
 10
108.6263808648796
 20
169.3233773962253
 30
0.0
 10
108.6718297262884
 20
169.3715435914768
 30
0.0
 10
108.7051432361425
 20
169.4353424255995
 30
0.0
 10
108.7095217137591
 20
169.4795390784301
 30
0.0
 10
108.711696806879
 20
169.5050876060155
 30
0.0
  0
LINE
  5
AD
330
61
100
AcDbEntity
  8
DV1_デフォルト
  6
CONTINUOUS
 62
     7
100
AcDbLine
 10
108.4387073734
 20
169.8005299319
 30
0.0
 11
108.4387073734
 21
169.9498578653
 31
0.0
  0
LINE
  5
AE
330
61
100
AcDbEntity
  8
DV1_デフォルト
  6
CONTINUOUS
 62
     7
100
AcDbLine
 10
107.0387073734
 20
169.9498578653
 30
0.0
 11
107.0387073734
 21
169.8005299319
 31
0.0
  0
LINE
  5
AF
330
61
100
AcDbEntity
  8
DV1_デフォルト
  6
CONTINUOUS
 62
     7
100
AcDbLine
 10
117.7387074053
 20
201.0498578264
 30
0.0
 11
117.7387074053
 21
171.0498578867
 31
0.0
  0
LINE
  5
B0
330
61
100
AcDbEntity
  8
DV1_デフォルト
  6
CONTINUOUS
 62
     7
100
AcDbLine
 10
118.2387073734
 20
200.5498578582
 30
0.0
 11
118.2387073734
 21
171.5498578548
 31
0.0
  0
LINE
  5
B1
330
61
100
AcDbEntity
  8
DV1_デフォルト
  6
CONTINUOUS
 62
     7
100
AcDbLine
 10
119.2887074398
 20
198.0498578565
 30
0.0
 11
119.2887074398
 21
174.0498578566
 31
0.0
  0
LINE
  5
B2
330
61
100
AcDbEntity
  8
DV1_デフォルト
  6
CONTINUOUS
 62
     7
100
AcDbLine
 10
119.9887074398
 20
198.7498578565
 30
0.0
 11
119.9887074398
 21
173.3498578565
 31
0.0
  0
LINE
  5
B3
330
61
100
AcDbEntity
  8
DV1_デフォルト
  6
CONTINUOUS
 62
     7
100
AcDbLine
 10
121.538707373
 20
198.7498578565
 30
0.0
 11
121.538707373
 21
173.3498578565
 31
0.0
  0
LINE
  5
B4
330
61
100
AcDbEntity
  8
DV1_デフォルト
  6
CONTINUOUS
 62
     7
100
AcDbLine
 10
122.238707373
 20
198.0498578565
 30
0.0
 11
122.238707373
 21
174.0498578566
 31
0.0
  0
CIRCLE
  5
B5
330
61
100
AcDbEntity
  8
DV1_デフォルト
  6
CONTINUOUS
 62
     7
100
AcDbCircle
 10
115.0387073731
 20
186.0498578565
 30
0.0
 40
0.6750000000000002
  0
ARC
  5
B6
330
61
100
AcDbEntity
  8
DV1_デフォルト
  6
CONTINUOUS
 62
     7
100
AcDbCircle
 10
115.0386809286
 20
216.0342063626
 30
0.0
 40
14.99954541562481
100
AcDbArc
 50
267.4210529115
 51
272.5793575304
  0
ARC
  5
B7
330
61
100
AcDbEntity
  8
DV1_デフォルト
  6
CONTINUOUS
 62
     7
100
AcDbCircle
 10
115.0386809286
 20
156.0655093504
 30
0.0
 40
14.99954541562481
100
AcDbArc
 50
87.4206424696
 51
92.5789470885
  0
LINE
  5
B8
330
61
100
AcDbEntity
  8
DV1_デフォルト
  6
CONTINUOUS
 62
     7
100
AcDbLine
 10
115.712682329
 20
171.0498578867
 30
0.0
 11
117.7387074053
 21
171.0498578867
 31
0.0
  0
LINE
  5
B9
330
61
100
AcDbEntity
  8
DV1_デフォルト
  6
CONTINUOUS
 62
     7
100
AcDbLine
 10
113.7387073734
 20
171.0498578867
 30
0.0
 11
114.3723447441
 21
171.0498578867
 31
0.0
  0
LINE
  5
BA
330
61
100
AcDbEntity
  8
DV1_デフォルト
  6
CONTINUOUS
 62
     7
100
AcDbLine
 10
114.3723447441
 20
201.0498578264
 30
0.0
 11
113.7387073734
 21
201.0498578264
 31
0.0
  0
LINE
  5
BB
330
61
100
AcDbEntity
  8
DV1_デフォルト
  6
CONTINUOUS
 62
     7
100
AcDbLine
 10
117.7387074053
 20
201.0498578264
 30
0.0
 11
115.712682329
 21
201.0498578264
 31
0.0
  0
LINE
  5
BC
330
61
100
AcDbEntity
  8
DV1_デフォルト
  6
CONTINUOUS
 62
     7
100
AcDbLine
 10
117.7387074053
 20
171.0498578867
 30
0.0
 11
118.2387073734
 21
171.5498578548
 31
0.0
  0
LINE
  5
BD
330
61
100
AcDbEntity
  8
DV1_デフォルト
  6
CONTINUOUS
 62
     7
100
AcDbLine
 10
118.2387073734
 20
200.5498578582
 30
0.0
 11
117.7387074053
 21
201.0498578264
 31
0.0
  0
LINE
  5
BE
330
61
100
AcDbEntity
  8
DV1_デフォルト
  6
CONTINUOUS
 62
     7
100
AcDbLine
 10
118.2387073734
 20
174.0498578566
 30
0.0
 11
119.2887074398
 21
174.0498578566
 31
0.0
  0
LINE
  5
BF
330
61
100
AcDbEntity
  8
DV1_デフォルト
  6
CONTINUOUS
 62
     7
100
AcDbLine
 10
119.2887074398
 20
198.0498578565
 30
0.0
 11
118.2387073734
 21
198.0498578565
 31
0.0
  0
LINE
  5
C0
330
61
100
AcDbEntity
  8
DV1_デフォルト
  6
CONTINUOUS
 62
     7
100
AcDbLine
 10
119.9887074398
 20
198.7498578565
 30
0.0
 11
119.2887074398
 21
198.0498578565
 31
0.0
  0
LINE
  5
C1
330
61
100
AcDbEntity
  8
DV1_デフォルト
  6
CONTINUOUS
 62
     7
100
AcDbLine
 10
119.2887074398
 20
174.0498578566
 30
0.0
 11
119.9887074398
 21
173.3498578565
 31
0.0
  0
LINE
  5
C2
330
61
100
AcDbEntity
  8
DV1_デフォルト
  6
CONTINUOUS
 62
     7
100
AcDbLine
 10
119.9887074398
 20
173.3498578565
 30
0.0
 11
121.538707373
 21
173.3498578565
 31
0.0
  0
LINE
  5
C3
330
61
100
AcDbEntity
  8
DV1_デフォルト
  6
CONTINUOUS
 62
     7
100
AcDbLine
 10
121.538707373
 20
198.7498578565
 30
0.0
 11
119.9887074398
 21
198.7498578565
 31
0.0
  0
LINE
  5
C4
330
61
100
AcDbEntity
  8
DV1_デフォルト
  6
CONTINUOUS
 62
     7
100
AcDbLine
 10
121.538707373
 20
173.3498578565
 30
0.0
 11
122.238707373
 21
174.0498578566
 31
0.0
  0
LINE
  5
C5
330
61
100
AcDbEntity
  8
DV1_デフォルト
  6
CONTINUOUS
 62
     7
100
AcDbLine
 10
122.238707373
 20
198.0498578565
 30
0.0
 11
121.538707373
 21
198.7498578565
 31
0.0
  0
ARC
  5
C6
330
61
100
AcDbEntity
  8
DV1_デフォルト
  6
CONTINUOUS
 62
     7
100
AcDbCircle
 10
115.0387073731
 20
186.0498578565
 30
0.0
 40
0.8500000000000001
100
AcDbArc
 50
345.0
 51
285.0
  0
ELLIPSE
  5
C7
330
61
100
AcDbEntity
  8
DV1_デフォルト
  6
CONTINUOUS
 62
     7
100
AcDbEllipse
 10
107.7387073734
 20
191.6931902214
 30
0.0
 11
-0.9999999999999974
 21
1.208183199188028E-14
 31
0.0
210
0.0
220
0.0
230
1.0
 40
0.9396926208
 41
0.0000000000000129
 42
3.384342884167289
  0
ELLIPSE
  5
C8
330
61
100
AcDbEntity
  8
DV1_デフォルト
  6
CONTINUOUS
 62
     7
100
AcDbEllipse
 10
107.7387073734
 20
191.6931902214
 30
0.0
 11
-0.9999999999999974
 21
1.208183199188028E-14
 31
0.0
210
0.0
220
0.0
230
1.0
 40
0.9396926208
 41
6.040435076602172
 42
6.283185307179586
  0
ELLIPSE
  5
C9
330
61
100
AcDbEntity
  8
DV1_デフォルト
  6
CONTINUOUS
 62
     7
100
AcDbEllipse
 10
107.7387073734
 20
191.8017580683
 30
0.0
 11
0.9722283730519005
 21
9.268935562433159E-16
 31
0.0
210
0.0
220
0.0
230
1.0
 40
0.9396926208
 41
0.0631466058482367
 42
0.2427502305774735
  0
ELLIPSE
  5
CA
330
61
100
AcDbEntity
  8
DV1_デフォルト
  6
CONTINUOUS
 62
     7
100
AcDbEllipse
 10
107.7387073734
 20
191.8017580683
 30
0.0
 11
0.9722283730519005
 21
9.268935562433159E-16
 31
0.0
210
0.0
220
0.0
230
1.0
 40
0.9396926208
 41
2.898842423012379
 42
2.946474350908685
  0
LINE
  5
CB
330
61
100
AcDbEntity
  8
DV1_デフォルト
  6
CONTINUOUS
 62
     7
100
AcDbLine
 10
108.7093879386
 20
191.9190670755
 30
0.0
 11
108.6824305601
 21
192.0213619547
 31
0.0
  0
LINE
  5
CC
330
61
100
AcDbEntity
  8
DV1_デフォルト
  6
CONTINUOUS
 62
     7
100
AcDbLine
 10
106.7949841868
 20
192.0213619547
 30
0.0
 11
106.7680268083
 21
191.9190670755
 31
0.0
  0
SPLINE
  5
CD
330
61
100
AcDbEntity
  8
DV1_デフォルト
  6
CONTINUOUS
 62
     7
100
AcDbSpline
210
0.0
220
0.0
230
1.0
 70
     8
 71
     3
 72
    26
 73
    22
 74
     0
 42
0.0000000036373458
 43
0.0000000001
 40
0.0
 40
0.0
 40
0.0
 40
0.0
 40
0.0103492257269936
 40
0.0649326412792853
 40
0.1195353366162176
 40
0.1741787965295509
 40
0.2289120326341929
 40
0.2837681777334397
 40
0.3387623985916211
 40
0.3938937934105097
 40
0.4491495820929919
 40
0.5045095898250193
 40
0.5599494991486851
 40
0.615440728787534
 40
0.6709455088827859
 40
0.7264301340281106
 40
0.7818576735024062
 40
0.8371905153182276
 40
0.8923954223769585
 40
0.9474503233889848
 40
1.0
 40
1.0
 40
1.0
 40
1.0
 10
108.7087533250163
 20
191.8552577015383
 30
0.0
 10
108.7083572467122
 20
191.8654270972761
 30
0.0
 10
108.7060639768962
 20
191.9201374543338
 30
0.0
 10
108.6840708890203
 20
192.0290604042435
 30
0.0
 10
108.6348425918457
 20
192.1667325064676
 30
0.0
 10
108.5621422401904
 20
192.2965974320602
 30
0.0
 10
108.4692866023727
 20
192.4135652290167
 30
0.0
 10
108.3581207673191
 20
192.5153008687221
 30
0.0
 10
108.2314437077353
 20
192.5991485308751
 30
0.0
 10
108.092310909656
 20
192.6630277642393
 30
0.0
 10
107.9441506902012
 20
192.7052738232466
 30
0.0
 10
107.7906387441827
 20
192.7247530953255
 30
0.0
 10
107.6356225024467
 20
192.720888776834
 30
0.0
 10
107.483024817052
 20
192.6936904834795
 30
0.0
 10
107.336744482127
 20
192.6437772571365
 30
0.0
 10
107.2005233169
 20
192.5723402174623
 30
0.0
 10
107.0779393716694
 20
192.4812479736552
 30
0.0
 10
106.971925303308
 20
192.3725341341167
 30
0.0
 10
106.8860861667852
 20
192.2501155773664
 30
0.0
 10
106.820272988803
 20
192.1150403538138
 30
0.0
 10
106.7976678517521
 20
192.0281865212649
 30
0.0
 10
106.7852099411828
 20
191.9779323774025
 30
0.0
  0
ELLIPSE
  5
CE
330
61
100
AcDbEntity
  8
DV1_デフォルト
  6
CONTINUOUS
 62
     7
100
AcDbEllipse
 10
83.7387073734
 20
200.1660719382
 30
0.0
 11
0.6767949192431135
 21
-1.693281739400294E-15
 31
0.0
210
0.0
220
0.0
230
1.0
 40
0.5
 41
0.280071143956463
 42
2.821684133854544
  0
ELLIPSE
  5
CF
330
61
100
AcDbEntity
  8
DV1_デフォルト
  6
CONTINUOUS
 62
     7
100
AcDbEllipse
 10
83.7387073734
 20
200.1660719382
 30
0.0
 11
-0.6767949192431135
 21
1.693281739400294E-15
 31
0.0
210
0.0
220
0.0
230
1.0
 40
0.5
 41
0.2800711439563867
 42
0.4681235668049884
  0
ELLIPSE
  5
D0
330
61
100
AcDbEntity
  8
DV1_デフォルト
  6
CONTINUOUS
 62
     7
100
AcDbEllipse
 10
83.7387073734
 20
200.1660719382
 30
0.0
 11
-0.6767949192431135
 21
1.693281739400294E-15
 31
0.0
210
0.0
220
0.0
230
1.0
 40
0.5
 41
-4.097516989648154
 42
-4.049332734348953
  0
ELLIPSE
  5
D1
330
61
100
AcDbEntity
  8
DV1_デフォルト
  6
CONTINUOUS
 62
     7
100
AcDbEllipse
 10
83.7387073734
 20
200.1660719382
 30
0.0
 11
-0.6767949192431135
 21
1.693281739400294E-15
 31
0.0
210
0.0
220
0.0
230
1.0
 40
0.5
 41
-3.552265540134356
 42
-3.461501173325109
  0
LINE
  5
D2
330
61
100
AcDbEntity
  8
DV1_デフォルト
  6
CONTINUOUS
 62
     7
100
AcDbLine
 10
83.0981288871
 20
200.2724723646
 30
0.0
 11
84.3872528081
 21
200.2596318378
 31
0.0
  0
LINE
  5
D3
330
61
100
AcDbEntity
  8
DV1_デフォルト
  6
CONTINUOUS
 62
     7
100
AcDbLine
 10
84.3811645548
 20
200.0596527989
 30
0.0
 11
83.0882832438
 21
200.0725307517
 31
0.0
  0
ELLIPSE
  5
D4
330
61
100
AcDbEntity
  8
DV1_デフォルト
  6
CONTINUOUS
 62
     7
100
AcDbEllipse
 10
83.7387073734
 20
169.9974914839
 30
0.0
 11
-0.6767949192431135
 21
3.428005215377100E-15
 31
0.0
210
0.0
220
0.0
230
1.0
 40
0.1736481777
 41
0.6324966055069742
 42
2.185668264659309
  0
ELLIPSE
  5
D5
330
61
100
AcDbEntity
  8
DV1_デフォルト
  6
CONTINUOUS
 62
     7
100
AcDbEllipse
 10
83.7387073734
 20
169.9974914839
 30
0.0
 11
-0.6767949192431135
 21
3.428005215377100E-15
 31
0.0
210
0.0
220
0.0
230
1.0
 40
0.1736481777
 41
-4.049326853780485
 42
-3.835185866236588
  0
ARC
  5
D6
330
61
100
AcDbEntity
  8
DV1_デフォルト
  6
CONTINUOUS
 62
     7
100
AcDbCircle
 10
115.0387073731
 20
186.0498578565
 30
0.0
 40
0.6767949192431121
100
AcDbArc
 50
207.5495153976
 51
210.1131301982
  0
ARC
  5
D7
330
61
100
AcDbEntity
  8
DV1_デフォルト
  6
CONTINUOUS
 62
     7
100
AcDbCircle
 10
115.0387073731
 20
186.0498578565
 30
0.0
 40
0.6767949192431121
100
AcDbArc
 50
342.4314809478
 51
353.1732128744
  0
LINE
  5
D8
330
61
100
AcDbEntity
  8
DV1_デフォルト
  6
CONTINUOUS
 62
     7
100
AcDbLine
 10
115.7107038454
 20
185.9694084694
 30
0.0
 11
114.4386532445
 21
185.7368300535
 31
0.0
  0
LINE
  5
D9
330
61
100
AcDbEntity
  8
DV1_デフォルト
  6
CONTINUOUS
 62
     7
100
AcDbLine
 10
114.3667109007
 20
186.1303072437
 30
0.0
 11
115.6387615016
 21
186.3628856596
 31
0.0
  0
LINE
  5
DA
330
61
100
AcDbEntity
  8
DV1_デフォルト
  6
CONTINUOUS
 62
     7
100
AcDbLine
 10
90.5387073734
 20
202.3498578565
 30
0.0
 11
90.5387073734
 21
169.7498578565
 31
0.0
  0
LINE
  5
DB
330
61
100
AcDbEntity
  8
DV1_デフォルト
  6
CONTINUOUS
 62
     7
100
AcDbLine
 10
71.2387073734
 20
201.8498578565
 30
0.0
 11
71.2387073734
 21
170.2498578565
 31
0.0
  0
LINE
  5
DC
330
61
100
AcDbEntity
  8
DV1_デフォルト
  6
CONTINUOUS
 62
     7
100
AcDbLine
 10
71.4387073734
 20
202.0498578565
 30
0.0
 11
71.4387073734
 21
170.0498578565
 31
0.0
  0
LINE
  5
DD
330
61
100
AcDbEntity
  8
DV1_デフォルト
  6
CONTINUOUS
 62
     7
100
AcDbLine
 10
78.7387073734
 20
202.0498578565
 30
0.0
 11
78.7387073734
 21
170.0498578565
 31
0.0
  0
LINE
  5
DE
330
61
100
AcDbEntity
  8
DV1_デフォルト
  6
CONTINUOUS
 62
     7
100
AcDbLine
 10
79.2387073735
 20
202.5498578565
 30
0.0
 11
79.2387073735
 21
169.5498578565
 31
0.0
  0
LINE
  5
DF
330
61
100
AcDbEntity
  8
DV1_デフォルト
  6
CONTINUOUS
 62
     7
100
AcDbLine
 10
90.3387073734
 20
202.5498578565
 30
0.0
 11
90.3387073734
 21
169.5498578565
 31
0.0
  0
ARC
  5
E0
330
61
100
AcDbEntity
  8
DV1_デフォルト
  6
CONTINUOUS
 62
     7
100
AcDbCircle
 10
87.8387073734
 20
218.5841055269
 30
0.0
 40
16.05902255318551
100
AcDbArc
 50
266.8169777711
 51
273.183022659
  0
SPLINE
  5
E1
330
61
100
AcDbEntity
  8
DV1_デフォルト
  6
CONTINUOUS
 62
     7
100
AcDbSpline
210
0.0
220
0.0
230
1.0
 70
    11
 71
     3
 72
    15
 73
    11
 74
     0
 42
0.0000000022074297
 43
0.0000000001
 40
0.0
 40
0.0
 40
0.0
 40
0.0
 40
0.124506551245146
 40
0.2499994084853771
 40
0.3755055203383981
 40
0.5001143325258889
 40
0.624620723150109
 40
0.7500693732697162
 40
0.8755505352120331
 40
1.0
 40
1.0
 40
1.0
 40
1.0
 10
83.73870737344548
 20
199.8804773045848
 30
0.0
 10
83.51527665541485
 20
199.880497124187
 30
0.0
 10
83.06673888216028
 20
199.9922923524848
 30
0.0
 10
82.77378785998567
 20
200.344198943002
 30
0.0
 10
83.06701070089106
 20
200.6672638239741
 30
0.0
 10
83.73946217017668
 20
200.8027545134477
 30
0.0
 10
84.41174252956861
 20
200.6670249959796
 30
0.0
 10
84.70331831669114
 20
200.3438339916152
 30
0.0
 10
84.41063715843976
 20
199.9920911679347
 30
0.0
 10
83.96203564812681
 20
199.8804574940699
 30
0.0
 10
83.73870737344548
 20
199.8804773045848
 30
0.0
  0
ARC
  5
E2
330
61
100
AcDbEntity
  8
DV1_デフォルト
  6
CONTINUOUS
 62
     7
100
AcDbCircle
 10
83.7387073733
 20
218.5838407079
 30
0.0
 40
16.05875814271674
100
AcDbArc
 50
266.8169249239
 51
273.1830748126
  0
SPLINE
  5
E3
330
61
100
AcDbEntity
  8
DV1_デフォルト
  6
CONTINUOUS
 62
     7
100
AcDbSpline
210
0.0
220
0.0
230
1.0
 70
    11
 71
     3
 72
    15
 73
    11
 74
     0
 42
0.0000000025255395
 43
0.0000000001
 40
0.0
 40
0.0
 40
0.0
 40
0.0
 40
0.1245065512451457
 40
0.2499994084853779
 40
0.3755055203383973
 40
0.5001143325258874
 40
0.6246207231501087
 40
0.7500693732697131
 40
0.8755505352120329
 40
1.0
 40
1.0
 40
1.0
 40
1.0
 10
83.73870737344548
 20
169.671187140113
 30
0.0
 10
83.51527665541484
 20
169.6711914872942
 30
0.0
 10
83.06673888216025
 20
169.6943194562404
 30
0.0
 10
82.77378785998572
 20
169.7950570272473
 30
0.0
 10
83.06701070089103
 20
169.9287638158753
 30
0.0
 10
83.73946217017668
 20
169.9993054258237
 30
0.0
 10
84.41174252956861
 20
169.9286490305008
 30
0.0
 10
84.70331831669112
 20
169.7949302567794
 30
0.0
 10
84.41063715843977
 20
169.6942763506384
 30
0.0
 10
83.96203564812681
 20
169.6711827949251
 30
0.0
 10
83.73870737344548
 20
169.671187140113
 30
0.0
  0
SPLINE
  5
E4
330
61
100
AcDbEntity
  8
DV1_デフォルト
  6
CONTINUOUS
 62
     7
100
AcDbSpline
210
0.0
220
0.0
230
1.0
 70
     8
 71
     3
 72
     9
 73
     5
 74
     0
 42
0.0000000183417605
 43
0.0000000001
 40
0.0
 40
0.0
 40
0.0
 40
0.0
 40
0.838972406246915
 40
1.0
 40
1.0
 40
1.0
 40
1.0
 10
83.73870737344548
 20
169.8950911422481
 30
0.0
 10
83.91495737384788
 20
169.895090598296
 30
0.0
 10
84.12503158704897
 20
169.9034348712996
 30
0.0
 10
84.26181776344133
 20
169.9245053766705
 30
0.0
 10
84.28179256858212
 20
169.9282051577352
 30
0.0
  0
SPLINE
  5
E5
330
61
100
AcDbEntity
  8
DV1_デフォルト
  6
CONTINUOUS
 62
     7
100
AcDbSpline
210
0.0
220
0.0
230
1.0
 70
     8
 71
     3
 72
     9
 73
     5
 74
     0
 42
0.0000000181709076
 43
0.0000000001
 40
0.0
 40
0.0
 40
0.0
 40
0.0
 40
0.171799000922581
 40
1.0
 40
1.0
 40
1.0
 40
1.0
 10
83.1906051340005
 20
169.9291511397935
 30
0.0
 10
83.2118298532038
 20
169.9250941971987
 30
0.0
 10
83.34942743169415
 20
169.9035551434026
 30
0.0
 10
83.56235996926289
 20
169.8950916865007
 30
0.0
 10
83.73870737344548
 20
169.8950911422481
 30
0.0
  0
SPLINE
  5
E6
330
61
100
AcDbEntity
  8
DV1_デフォルト
  6
CONTINUOUS
 62
     7
100
AcDbSpline
210
0.0
220
0.0
230
1.0
 70
     8
 71
     3
 72
    13
 73
     9
 74
     0
 42
0.0000000051251284
 43
0.0000000001
 40
0.0
 40
0.0
 40
0.0
 40
0.0
 40
0.0863641487300684
 40
0.294874291841223
 40
0.5034991074560142
 40
0.7123535238557948
 40
0.921018092583341
 40
1.0
 40
1.0
 40
1.0
 40
1.0
 10
84.3775902556502
 20
200.0630235212749
 30
0.0
 10
84.40112876439527
 20
200.0990354948998
 30
0.0
 10
84.44396150827404
 20
200.2265393640952
 30
0.0
 10
84.26805227402468
 20
200.4272571632204
 30
0.0
 10
83.73932159995697
 20
200.5221058636964
 30
0.0
 10
83.20994300624731
 20
200.4276429152785
 30
0.0
 10
83.03607899516125
 20
200.2297622892366
 30
0.0
 10
83.07414970726514
 20
200.1056181061509
 30
0.0
 10
83.09390828341546
 20
200.0724858112397
 30
0.0
  0
LINE
  5
E7
330
61
100
AcDbEntity
  8
DV1_デフォルト
  6
CONTINUOUS
 62
     7
100
AcDbLine
 10
71.4387073734
 20
202.0498578565
 30
0.0
 11
71.2387073734
 21
201.8498578565
 31
0.0
  0
LINE
  5
E8
330
61
100
AcDbEntity
  8
DV1_デフォルト
  6
CONTINUOUS
 62
     7
100
AcDbLine
 10
71.2387073734
 20
170.2498578565
 30
0.0
 11
71.4387073734
 21
170.0498578565
 31
0.0
  0
LINE
  5
E9
330
61
100
AcDbEntity
  8
DV1_デフォルト
  6
CONTINUOUS
 62
     7
100
AcDbLine
 10
71.4387073734
 20
170.0498578565
 30
0.0
 11
78.7387073734
 21
170.0498578565
 31
0.0
  0
LINE
  5
EA
330
61
100
AcDbEntity
  8
DV1_デフォルト
  6
CONTINUOUS
 62
     7
100
AcDbLine
 10
78.7387073734
 20
202.0498578565
 30
0.0
 11
71.4387073734
 21
202.0498578565
 31
0.0
  0
LINE
  5
EB
330
61
100
AcDbEntity
  8
DV1_デフォルト
  6
CONTINUOUS
 62
     7
100
AcDbLine
 10
79.2387073735
 20
202.5498578565
 30
0.0
 11
78.7387073734
 21
202.0498578565
 31
0.0
  0
LINE
  5
EC
330
61
100
AcDbEntity
  8
DV1_デフォルト
  6
CONTINUOUS
 62
     7
100
AcDbLine
 10
78.7387073734
 20
170.0498578565
 30
0.0
 11
79.2387073735
 21
169.5498578565
 31
0.0
  0
LINE
  5
ED
330
61
100
AcDbEntity
  8
DV1_デフォルト
  6
CONTINUOUS
 62
     7
100
AcDbLine
 10
90.3387073734
 20
169.5498578565
 30
0.0
 11
90.5387073734
 21
169.7498578565
 31
0.0
  0
LINE
  5
EE
330
61
100
AcDbEntity
  8
DV1_デフォルト
  6
CONTINUOUS
 62
     7
100
AcDbLine
 10
90.5387073734
 20
202.3498578565
 30
0.0
 11
90.3387073734
 21
202.5498578565
 31
0.0
  0
LINE
  5
EF
330
61
100
AcDbEntity
  8
DV1_デフォルト
  6
CONTINUOUS
 62
     7
100
AcDbLine
 10
79.2387073735
 20
169.5498578565
 30
0.0
 11
90.3387073734
 21
169.5498578565
 31
0.0
  0
LINE
  5
F0
330
61
100
AcDbEntity
  8
DV1_デフォルト
  6
CONTINUOUS
 62
     7
100
AcDbLine
 10
82.8470345284
 20
202.5498578565
 30
0.0
 11
79.2387073735
 21
202.5498578565
 31
0.0
  0
LINE
  5
F1
330
61
100
AcDbEntity
  8
DV1_デフォルト
  6
CONTINUOUS
 62
     7
100
AcDbLine
 10
86.9470643325
 20
202.5498578565
 30
0.0
 11
84.6303166603
 21
202.5498578565
 31
0.0
  0
LINE
  5
F2
330
61
100
AcDbEntity
  8
DV1_デフォルト
  6
CONTINUOUS
 62
     7
100
AcDbLine
 10
90.3387073734
 20
202.5498578565
 30
0.0
 11
88.7303951044
 21
202.5498578565
 31
0.0
  0
LINE
  5
F3
330
61
100
AcDbEntity
  8
DV1_デフォルト
  6
CONTINUOUS
 62
     7
100
AcDbLine
 10
83.0981288871
 20
200.0724326826
 30
0.0
 11
83.0981288871
 21
200.2724723646
 31
0.0
  0
LINE
  5
F4
330
61
100
AcDbEntity
  8
DV1_デフォルト
  6
CONTINUOUS
 62
     7
100
AcDbLine
 10
84.3872528081
 20
200.2596318378
 30
0.0
 11
84.3872528081
 21
200.0713218681
 31
0.0
  0
LINE
  5
F5
330
61
100
AcDbEntity
  8
DV1_デフォルト
  6
CONTINUOUS
 62
     7
100
AcDbLine
 10
84.1291191755
 20
169.9014921517
 30
0.0
 11
84.2818963197
 21
169.9295893407
 31
0.0
  0
LINE
  5
F6
330
61
100
AcDbEntity
  8
DV1_デフォルト
  6
CONTINUOUS
 62
     7
100
AcDbLine
 10
83.1955298988
 20
169.9296164452
 30
0.0
 11
83.3511453921
 21
169.9011445842
 31
0.0
  0
LINE
  5
F7
330
61
100
AcDbEntity
  8
DV1_デフォルト
  6
CONTINUOUS
 62
     7
100
AcDbLine
 10
84.1291191755
 20
169.9014921517
 30
0.0
 11
84.2818963197
 21
169.9295893407
 31
0.0
  0
LINE
  5
F8
330
61
100
AcDbEntity
  8
DV1_デフォルト
  6
CONTINUOUS
 62
     7
100
AcDbLine
 10
83.1955298988
 20
169.9296164452
 30
0.0
 11
83.3511453921
 21
169.9011445842
 31
0.0
  0
ARC
  5
F9
330
61
100
AcDbEntity
  8
DV1_デフォルト
  6
CONTINUOUS
 62
     7
100
AcDbCircle
 10
83.6374330981
 20
199.7114276943
 30
0.0
 40
0.7860786859459921
100
AcDbArc
 50
111.4108194338
 51
124.1950423285
  0
LINE
  5
FA
330
61
100
AcDbEntity
  8
DV1_デフォルト
  6
CONTINUOUS
 62
     7
100
AcDbLine
 10
84.2822160113
 20
200.3615762431
 30
0.0
 11
84.1346513762
 21
200.4405167002
 31
0.0
  0
ARC
  5
FB
330
61
100
AcDbEntity
  8
DV1_デフォルト
  6
CONTINUOUS
 62
     7
100
AcDbCircle
 10
83.6374330981
 20
199.7114276943
 30
0.0
 40
0.7860786859459921
100
AcDbArc
 50
111.4108194338
 51
124.1950423285
  0
LINE
  5
FC
330
61
100
AcDbEntity
  8
DV1_デフォルト
  6
CONTINUOUS
 62
     7
100
AcDbLine
 10
84.2822160113
 20
200.3615762431
 30
0.0
 11
84.1346513762
 21
200.4405167002
 31
0.0
  0
ELLIPSE
  5
FD
330
61
100
AcDbEntity
  8
DV1_デフォルト
  6
CONTINUOUS
 62
     7
100
AcDbEllipse
 10
95.5387073734
 20
171.3707272624
 30
0.0
 11
0.9999999999999974
 21
1.795955815934175E-15
 31
0.0
210
0.0
220
0.0
230
1.0
 40
0.5
 41
0.0
 42
3.192125761129954
  0
ELLIPSE
  5
FE
330
61
100
AcDbEntity
  8
DV1_デフォルト
  6
CONTINUOUS
 62
     7
100
AcDbEllipse
 10
95.5387073734
 20
171.3707272624
 30
0.0
 11
0.9999999999999974
 21
1.795955815934175E-15
 31
0.0
210
0.0
220
0.0
230
1.0
 40
0.5
 41
6.232652199639706
 42
6.283185307179583
  0
LINE
  5
FF
330
61
100
AcDbEntity
  8
DV1_デフォルト
  6
CONTINUOUS
 62
     7
100
AcDbLine
 10
94.5399838992
 20
171.3454714607
 30
0.0
 11
94.567720075
 21
171.0712694168
 31
0.0
  0
LINE
  5
100
330
61
100
AcDbEntity
  8
DV1_デフォルト
  6
CONTINUOUS
 62
     7
100
AcDbLine
 10
96.5096946719
 20
171.0712694168
 30
0.0
 11
96.5374308476
 21
171.3454714607
 31
0.0
  0
SPLINE
  5
101
330
61
100
AcDbEntity
  8
DV1_デフォルト
  6
CONTINUOUS
 62
     7
100
AcDbSpline
210
0.0
220
0.0
230
1.0
 70
     8
 71
     3
 72
    27
 73
    23
 74
     0
 42
0.0000000041021685
 43
0.0000000001
 40
0.0
 40
0.0
 40
0.0
 40
0.0
 40
0.0087256532822615
 40
0.056142754193036
 40
0.1034859022034829
 40
0.1529290259415206
 40
0.2058889197874888
 40
0.2622463441308749
 40
0.3202663227544806
 40
0.3780168588451383
 40
0.435217053005515
 40
0.4920367821866695
 40
0.548751286707986
 40
0.6056233536120723
 40
0.6629108452029872
 40
0.7209750558651067
 40
0.7801915907611023
 40
0.8407030390647069
 40
0.8922555034933065
 40
0.9404021631083681
 40
0.98642299309311
 40
1.0
 40
1.0
 40
1.0
 40
1.0
 10
94.56928929612698
 20
171.0763796141079
 30
0.0
 10
94.56916690933033
 20
171.0695302244482
 30
0.0
 10
94.56860138132862
 20
171.0317161284143
 30
0.0
 10
94.59317782648074
 20
170.9577467391206
 30
0.0
 10
94.64097610355621
 20
170.8678863539451
 30
0.0
 10
94.71227110042229
 20
170.7856241884546
 30
0.0
 10
94.80457775086043
 20
170.7117787905623
 30
0.0
 10
94.91896073345404
 20
170.6472606715822
 30
0.0
 10
95.05236548304617
 20
170.5946453242947
 30
0.0
 10
95.19963155284324
 20
170.5558369789194
 30
0.0
 10
95.3552844585087
 20
170.5316361966269
 30
0.0
 10
95.51513719266154
 20
170.522140438186
 30
0.0
 10
95.67534278232296
 20
170.5273247152805
 30
0.0
 10
95.8321522814188
 20
170.5471242826052
 30
0.0
 10
95.98201866983925
 20
170.5814992206197
 30
0.0
 10
96.12168405420206
 20
170.6306130079824
 30
0.0
 10
96.24804159867902
 20
170.6951566615693
 30
0.0
 10
96.35143884084921
 20
170.7720047486762
 30
0.0
 10
96.42967050813694
 20
170.8584041265655
 30
0.0
 10
96.48093574067788
 20
170.9482055608765
 30
0.0
 10
96.505467228227
 20
171.0244434560672
 30
0.0
 10
96.50808674037103
 20
171.0643665075005
 30
0.0
 10
96.50872306151292
 20
171.0750146835403
 30
0.0
  0
LINE
  5
102
330
61
100
AcDbEntity
  8
DV1_デフォルト
  6
CONTINUOUS
 62
     7
100
AcDbLine
 10
96.2387073734
 20
171.7277986838
 30
0.0
 11
96.2387073734
 21
171.7980593719
 31
0.0
  0
LINE
  5
103
330
61
100
AcDbEntity
  8
DV1_デフォルト
  6
CONTINUOUS
 62
     7
100
AcDbLine
 10
94.8387073734
 20
171.7980593825
 30
0.0
 11
94.8387073734
 21
171.7277986838
 31
0.0
  0
LINE
  5
104
330
61
100
AcDbEntity
  8
DV1_デフォルト
  6
CONTINUOUS
 62
     7
100
AcDbLine
 10
107.5721598719
 20
191.637471671
 30
0.0
 11
107.7721598719
 21
191.637471671
 31
0.0
  0
LINE
  5
105
330
61
100
AcDbEntity
  8
DV1_デフォルト
  6
CONTINUOUS
 62
     7
100
AcDbLine
 10
107.9721598719
 20
191.2908533159
 30
0.0
 11
107.9721598719
 21
191.6772236464
 31
0.0
  0
LINE
  5
106
330
61
100
AcDbEntity
  8
DV1_デフォルト
  6
CONTINUOUS
 62
     7
100
AcDbLine
 10
107.5721598719
 20
191.2908533159
 30
0.0
 11
107.9721598719
 21
191.2908533159
 31
0.0
  0
LINE
  5
107
330
61
100
AcDbEntity
  8
DV1_デフォルト
  6
CONTINUOUS
 62
     7
100
AcDbLine
 10
107.5721598719
 20
192.4499643074
 30
0.0
 11
107.9721598719
 21
192.4499643074
 31
0.0
  0
LINE
  5
108
330
61
100
AcDbEntity
  8
DV1_デフォルト
  6
CONTINUOUS
 62
     7
100
AcDbLine
 10
107.5721598719
 20
191.2908533159
 30
0.0
 11
107.5721598719
 21
191.6772236464
 31
0.0
  0
LINE
  5
109
330
61
100
AcDbEntity
  8
DV1_デフォルト
  6
CONTINUOUS
 62
     7
100
AcDbLine
 10
107.9721598719
 20
192.0635939769
 30
0.0
 11
107.9721598719
 21
192.4499643074
 31
0.0
  0
LINE
  5
10A
330
61
100
AcDbEntity
  8
DV1_デフォルト
  6
CONTINUOUS
 62
     7
100
AcDbLine
 10
107.9721598719
 20
191.9083025498
 30
0.0
 11
107.9721598719
 21
192.0635939769
 31
0.0
  0
LINE
  5
10B
330
61
100
AcDbEntity
  8
DV1_デフォルト
  6
CONTINUOUS
 62
     7
100
AcDbLine
 10
107.9721598719
 20
191.9083025498
 30
0.0
 11
107.9721598719
 21
191.6772236464
 31
0.0
  0
LINE
  5
10C
330
61
100
AcDbEntity
  8
DV1_デフォルト
  6
CONTINUOUS
 62
     7
100
AcDbLine
 10
107.5721598719
 20
192.0635939769
 30
0.0
 11
107.5721598719
 21
192.4499643074
 31
0.0
  0
LINE
  5
10D
330
61
100
AcDbEntity
  8
DV1_デフォルト
  6
CONTINUOUS
 62
     7
100
AcDbLine
 10
107.5721598719
 20
191.9083025498
 30
0.0
 11
107.5721598719
 21
191.6772236464
 31
0.0
  0
LINE
  5
10E
330
61
100
AcDbEntity
  8
DV1_デフォルト
  6
CONTINUOUS
 62
     7
100
AcDbLine
 10
107.7721598719
 20
191.637471671
 30
0.0
 11
107.9721598719
 21
191.637471671
 31
0.0
  0
LINE
  5
10F
330
61
100
AcDbEntity
  8
DV1_デフォルト
  6
CONTINUOUS
 62
     7
100
AcDbLine
 10
107.5721598719
 20
191.5219322193
 30
0.0
 11
107.7721598719
 21
191.637471671
 31
0.0
  0
LINE
  5
110
330
61
100
AcDbEntity
  8
DV1_デフォルト
  6
CONTINUOUS
 62
     7
100
AcDbLine
 10
107.7721598719
 20
191.637471671
 30
0.0
 11
107.5721598719
 21
191.9083025498
 31
0.0
  0
LINE
  5
111
330
61
100
AcDbEntity
  8
DV1_デフォルト
  6
CONTINUOUS
 62
     7
100
AcDbLine
 10
107.5721598719
 20
191.9083025498
 30
0.0
 11
107.7721598719
 21
191.8306568363
 31
0.0
  0
LINE
  5
112
330
61
100
AcDbEntity
  8
DV1_デフォルト
  6
CONTINUOUS
 62
     7
100
AcDbLine
 10
107.7721598719
 20
191.5219322193
 30
0.0
 11
107.7721598719
 21
191.637471671
 31
0.0
  0
LINE
  5
113
330
61
100
AcDbEntity
  8
DV1_デフォルト
  6
CONTINUOUS
 62
     7
100
AcDbLine
 10
107.7721598719
 20
191.637471671
 30
0.0
 11
107.9721598719
 21
191.5219322193
 31
0.0
  0
LINE
  5
114
330
61
100
AcDbEntity
  8
DV1_デフォルト
  6
CONTINUOUS
 62
     7
100
AcDbLine
 10
107.9721598719
 20
191.9083025498
 30
0.0
 11
108.3721598719
 21
192.0635939769
 31
0.0
  0
LINE
  5
115
330
61
100
AcDbEntity
  8
DV1_デフォルト
  6
CONTINUOUS
 62
     7
100
AcDbLine
 10
108.3721598719
 20
191.6772236464
 30
0.0
 11
108.3721598719
 21
192.0635939769
 31
0.0
  0
LINE
  5
116
330
61
100
AcDbEntity
  8
DV1_デフォルト
  6
CONTINUOUS
 62
     7
100
AcDbLine
 10
108.3721598719
 20
192.0635939769
 30
0.0
 11
107.9721598719
 21
192.0635939769
 31
0.0
  0
LINE
  5
117
330
61
100
AcDbEntity
  8
DV1_デフォルト
  6
CONTINUOUS
 62
     7
100
AcDbLine
 10
107.5721598719
 20
191.6772236464
 30
0.0
 11
107.1721598719
 21
191.6772236464
 31
0.0
  0
LINE
  5
118
330
61
100
AcDbEntity
  8
DV1_デフォルト
  6
CONTINUOUS
 62
     7
100
AcDbLine
 10
108.3721598719
 20
191.6772236464
 30
0.0
 11
107.9721598719
 21
191.6772236464
 31
0.0
  0
LINE
  5
119
330
61
100
AcDbEntity
  8
DV1_デフォルト
  6
CONTINUOUS
 62
     7
100
AcDbLine
 10
107.9721598719
 20
191.9083025498
 30
0.0
 11
107.5721598719
 21
191.9083025498
 31
0.0
  0
LINE
  5
11A
330
61
100
AcDbEntity
  8
DV1_デフォルト
  6
CONTINUOUS
 62
     7
100
AcDbLine
 10
107.5721598719
 20
191.9083025498
 30
0.0
 11
107.5721598719
 21
192.0635939769
 31
0.0
  0
LINE
  5
11B
330
61
100
AcDbEntity
  8
DV1_デフォルト
  6
CONTINUOUS
 62
     7
100
AcDbLine
 10
107.7721598719
 20
191.8306568363
 30
0.0
 11
107.9721598719
 21
191.9083025498
 31
0.0
  0
LINE
  5
11C
330
61
100
AcDbEntity
  8
DV1_デフォルト
  6
CONTINUOUS
 62
     7
100
AcDbLine
 10
107.9721598719
 20
191.9083025498
 30
0.0
 11
107.7721598719
 21
191.637471671
 31
0.0
  0
LINE
  5
11D
330
61
100
AcDbEntity
  8
DV1_デフォルト
  6
CONTINUOUS
 62
     7
100
AcDbLine
 10
107.7721598719
 20
191.637471671
 30
0.0
 11
107.7721598719
 21
191.8306568363
 31
0.0
  0
LINE
  5
11E
330
61
100
AcDbEntity
  8
DV1_デフォルト
  6
CONTINUOUS
 62
     7
100
AcDbLine
 10
107.5721598719
 20
192.0635939769
 30
0.0
 11
107.1721598719
 21
192.0635939769
 31
0.0
  0
LINE
  5
11F
330
61
100
AcDbEntity
  8
DV1_デフォルト
  6
CONTINUOUS
 62
     7
100
AcDbLine
 10
107.1721598719
 20
192.0635939769
 30
0.0
 11
107.5721598719
 21
191.9083025498
 31
0.0
  0
LINE
  5
120
330
61
100
AcDbEntity
  8
DV1_デフォルト
  6
CONTINUOUS
 62
     7
100
AcDbLine
 10
107.1721598719
 20
191.6772236464
 30
0.0
 11
107.1721598719
 21
192.0635939769
 31
0.0
  0
LINE
  5
121
330
61
100
AcDbEntity
  8
DV1_デフォルト
  6
CONTINUOUS
 62
     7
100
AcDbLine
 10
107.9721598719
 20
191.5219322193
 30
0.0
 11
107.5721598719
 21
191.5219322193
 31
0.0
  0
LINE
  5
123
330
61
100
AcDbEntity
  8
DV1_ﾃﾞﾌｫﾙﾄ
  6
CONTINUOUS
 62
     7
100
AcDbLine
 10
95.3677780989
 20
170.6334104876
 30
0.0
 11
95.3677780989
 21
170.7938875687
 31
0.0
  0
LINE
  5
124
330
61
100
AcDbEntity
  8
DV1_ﾃﾞﾌｫﾙﾄ
  6
CONTINUOUS
 62
     7
100
AcDbLine
 10
95.3677780989
 20
170.7938875687
 30
0.0
 11
95.0379304153
 21
170.7938875687
 31
0.0
  0
LINE
  5
125
330
61
100
AcDbEntity
  8
DV1_ﾃﾞﾌｫﾙﾄ
  6
CONTINUOUS
 62
     7
100
AcDbLine
 10
95.0379304153
 20
170.7938875687
 30
0.0
 11
95.0379304153
 21
171.0185554822
 31
0.0
  0
LINE
  5
126
330
61
100
AcDbEntity
  8
DV1_ﾃﾞﾌｫﾙﾄ
  6
CONTINUOUS
 62
     7
100
AcDbLine
 10
95.0379304153
 20
171.0185554822
 30
0.0
 11
95.3677780989
 21
171.0185554822
 31
0.0
  0
LINE
  5
127
330
61
100
AcDbEntity
  8
DV1_ﾃﾞﾌｫﾙﾄ
  6
CONTINUOUS
 62
     7
100
AcDbLine
 10
95.3677780989
 20
171.0185554822
 30
0.0
 11
95.3677780989
 21
171.2432233958
 31
0.0
  0
LINE
  5
128
330
61
100
AcDbEntity
  8
DV1_ﾃﾞﾌｫﾙﾄ
  6
CONTINUOUS
 62
     7
100
AcDbLine
 10
95.3677780989
 20
171.2432233958
 30
0.0
 11
95.7288515314
 21
171.2432233958
 31
0.0
  0
LINE
  5
129
330
61
100
AcDbEntity
  8
DV1_ﾃﾞﾌｫﾙﾄ
  6
CONTINUOUS
 62
     7
100
AcDbLine
 10
95.7288515314
 20
171.2432233958
 30
0.0
 11
95.7288515314
 21
171.0185554822
 31
0.0
  0
LINE
  5
12A
330
61
100
AcDbEntity
  8
DV1_ﾃﾞﾌｫﾙﾄ
  6
CONTINUOUS
 62
     7
100
AcDbLine
 10
95.7288515314
 20
171.0185554822
 30
0.0
 11
96.0810314426
 21
171.0185554822
 31
0.0
  0
LINE
  5
12B
330
61
100
AcDbEntity
  8
DV1_ﾃﾞﾌｫﾙﾄ
  6
CONTINUOUS
 62
     7
100
AcDbLine
 10
96.0810314426
 20
171.0185554822
 30
0.0
 11
96.0810314426
 21
170.7938875687
 31
0.0
  0
LINE
  5
12C
330
61
100
AcDbEntity
  8
DV1_ﾃﾞﾌｫﾙﾄ
  6
CONTINUOUS
 62
     7
100
AcDbLine
 10
96.0810314426
 20
170.7938875687
 30
0.0
 11
95.7288515314
 21
170.7938875687
 31
0.0
  0
LINE
  5
12D
330
61
100
AcDbEntity
  8
DV1_ﾃﾞﾌｫﾙﾄ
  6
CONTINUOUS
 62
     7
100
AcDbLine
 10
95.7288515314
 20
170.7938875687
 30
0.0
 11
95.7288515314
 21
170.6334104876
 31
0.0
  0
LINE
  5
12E
330
61
100
AcDbEntity
  8
DV1_ﾃﾞﾌｫﾙﾄ
  6
CONTINUOUS
 62
     7
100
AcDbLine
 10
95.7288515314
 20
170.6334104876
 30
0.0
 11
95.3677780989
 21
170.6334104876
 31
0.0
  0
LINE
  5
12F
330
61
100
AcDbEntity
  8
DV1_ﾃﾞﾌｫﾙﾄ
  6
CONTINUOUS
 62
     7
100
AcDbLine
 10
95.3632482938
 20
201.4299227301
 30
0.0
 11
95.3632482938
 21
201.2694456489
 31
0.0
  0
LINE
  5
130
330
61
100
AcDbEntity
  8
DV1_ﾃﾞﾌｫﾙﾄ
  6
CONTINUOUS
 62
     7
100
AcDbLine
 10
95.3632482938
 20
201.2694456489
 30
0.0
 11
95.0334006103
 21
201.2694456489
 31
0.0
  0
LINE
  5
131
330
61
100
AcDbEntity
  8
DV1_ﾃﾞﾌｫﾙﾄ
  6
CONTINUOUS
 62
     7
100
AcDbLine
 10
95.0334006103
 20
201.2694456489
 30
0.0
 11
95.0334006103
 21
201.0447777354
 31
0.0
  0
LINE
  5
132
330
61
100
AcDbEntity
  8
DV1_ﾃﾞﾌｫﾙﾄ
  6
CONTINUOUS
 62
     7
100
AcDbLine
 10
95.0334006103
 20
201.0447777354
 30
0.0
 11
95.3632482938
 21
201.0447777354
 31
0.0
  0
LINE
  5
133
330
61
100
AcDbEntity
  8
DV1_ﾃﾞﾌｫﾙﾄ
  6
CONTINUOUS
 62
     7
100
AcDbLine
 10
95.3632482938
 20
201.0447777354
 30
0.0
 11
95.3632482938
 21
200.8201098218
 31
0.0
  0
LINE
  5
134
330
61
100
AcDbEntity
  8
DV1_ﾃﾞﾌｫﾙﾄ
  6
CONTINUOUS
 62
     7
100
AcDbLine
 10
95.3632482938
 20
200.8201098218
 30
0.0
 11
95.7243217263
 21
200.8201098218
 31
0.0
  0
LINE
  5
135
330
61
100
AcDbEntity
  8
DV1_ﾃﾞﾌｫﾙﾄ
  6
CONTINUOUS
 62
     7
100
AcDbLine
 10
95.7243217263
 20
200.8201098218
 30
0.0
 11
95.7243217263
 21
201.0447777354
 31
0.0
  0
LINE
  5
136
330
61
100
AcDbEntity
  8
DV1_ﾃﾞﾌｫﾙﾄ
  6
CONTINUOUS
 62
     7
100
AcDbLine
 10
95.7243217263
 20
201.0447777354
 30
0.0
 11
96.0765016375
 21
201.0447777354
 31
0.0
  0
LINE
  5
137
330
61
100
AcDbEntity
  8
DV1_ﾃﾞﾌｫﾙﾄ
  6
CONTINUOUS
 62
     7
100
AcDbLine
 10
96.0765016375
 20
201.0447777354
 30
0.0
 11
96.0765016375
 21
201.2694456489
 31
0.0
  0
LINE
  5
138
330
61
100
AcDbEntity
  8
DV1_ﾃﾞﾌｫﾙﾄ
  6
CONTINUOUS
 62
     7
100
AcDbLine
 10
96.0765016375
 20
201.2694456489
 30
0.0
 11
95.7243217263
 21
201.2694456489
 31
0.0
  0
LINE
  5
139
330
61
100
AcDbEntity
  8
DV1_ﾃﾞﾌｫﾙﾄ
  6
CONTINUOUS
 62
     7
100
AcDbLine
 10
95.7243217263
 20
201.2694456489
 30
0.0
 11
95.7243217263
 21
201.4299227301
 31
0.0
  0
LINE
  5
13A
330
61
100
AcDbEntity
  8
DV1_ﾃﾞﾌｫﾙﾄ
  6
CONTINUOUS
 62
     7
100
AcDbLine
 10
95.7243217263
 20
201.4299227301
 30
0.0
 11
95.3632482938
 21
201.4299227301
 31
0.0
  0
LINE
  5
13C
330
61
100
AcDbEntity
  8
DV1_デフォルト
  6
CENTER2
 62
     7
100
AcDbLine
 10
70.0610502757
 20
186.0498578565
 30
0.0
 11
135.7647073734
 21
186.0498578565
 31
0.0
  0
LINE
  5
13E
330
61
100
AcDbEntity
  8
デフォルト
  6
CENTER2
 62
     7
100
AcDbLine
 10
137.5324743264
 20
184.2820909036
 30
0.0
 11
133.9969404205
 21
187.8176248095
 31
0.0
  0
LINE
  5
13F
330
61
100
AcDbEntity
  8
デフォルト
  6
CENTER2
 62
     7
100
AcDbLine
 10
137.5324743264
 20
187.8176248095
 30
0.0
 11
133.9969404205
 21
184.2820909036
 31
0.0
  0
LINE
  5
140
330
61
100
AcDbEntity
  8
デフォルト
  6
CENTER2
 62
     7
100
AcDbLine
 10
119.4887073734
 20
198.2498578565
 30
0.0
 11
122.0387073734
 21
198.2498578565
 31
0.0
  0
LINE
  5
141
330
61
100
AcDbEntity
  8
デフォルト
  6
CENTER2
 62
     7
100
AcDbLine
 10
119.4887073734
 20
173.8498578565
 30
0.0
 11
122.0387073734
 21
173.8498578565
 31
0.0
  0
LINE
  5
142
330
61
100
AcDbEntity
  8
DV1_デフォルト
  6
CENTER2
 62
     7
100
AcDbLine
 10
71.2387073734
 20
201.2998578565
 30
0.0
 11
72.9518070074
 21
201.2998578565
 31
0.0
  0
LINE
  5
143
330
61
100
AcDbEntity
  8
DV1_デフォルト
  6
CENTER2
 62
     7
100
AcDbLine
 10
71.2387073734
 20
170.7998578565
 30
0.0
 11
72.9518070074
 21
170.7998578565
 31
0.0
  0
ENDBLK
  5
145
330
61
100
AcDbEntity
  8
0
100
AcDbBlockEnd
  0
BLOCK
  5
150
330
146
100
AcDbEntity
  8
0
100
AcDbBlockBegin
  2
GDIMGGROUP
 70
     0
 10
0.0
 20
0.0
 30
0.0
  3
GDIMGGROUP
  1

  0
LWPOLYLINE
  5
148
330
146
100
AcDbEntity
  8
DEFAULT
  6
CONTINUOUS
 62
   136
100
AcDbPolyline
 90
        3
 70
     0
 43
0.0
 10
60.1544230117
 20
198.0998579374
 10
59.6210896918
 20
201.2998578565
 10
59.087756372
 20
198.0998579374
  0
LWPOLYLINE
  5
149
330
146
100
AcDbEntity
  8
DEFAULT
  6
CONTINUOUS
 62
   136
100
AcDbPolyline
 90
        3
 70
     0
 43
0.0
 10
60.1544230117
 20
173.999857433
 10
59.6210896918
 20
170.7998575138
 10
59.087756372
 20
173.999857433
  0
LINE
  5
14A
330
146
100
AcDbEntity
  8
DEFAULT
  6
CONTINUOUS
 62
   136
100
AcDbLine
 10
69.9587074058
 20
201.2998578565
 30
0.0
 11
58.0210897322
 21
201.2998578565
 31
0.0
  0
LINE
  5
14B
330
146
100
AcDbEntity
  8
DEFAULT
  6
CONTINUOUS
 62
   136
100
AcDbLine
 10
69.9587074058
 20
170.7998578565
 30
0.0
 11
58.0210897322
 21
170.7998578565
 31
0.0
  0
LINE
  5
14C
330
146
100
AcDbEntity
  8
DEFAULT
  6
CONTINUOUS
 62
   136
100
AcDbLine
 10
59.6210896918
 20
201.2998578565
 30
0.0
 11
59.6210896918
 21
170.7998575138
 31
0.0
  0
TEXT
  5
14D
330
146
100
AcDbEntity
  8
DEFAULT
  6
CONTINUOUS
 62
   136
100
AcDbText
 10
58.8210896918
 20
177.6270934575
 30
0.0
 40
3.2
  1
30.5
 50
90.0
  7
SEACAD_SEANSI_TTF
 11
55.6210896918
 21
177.6270934575
 31
0.0
100
AcDbText
 73
     3
  0
TEXT
  5
14E
330
146
100
AcDbEntity
  8
DEFAULT
  6
CONTINUOUS
 62
   136
100
AcDbText
 10
58.8210896918
 20
173.859938986
 30
0.0
 40
3.2
  1
M
 50
90.0
  7
SEACAD_SEANSI_TTF
 11
55.6210896918
 21
173.859938986
 31
0.0
100
AcDbText
 73
     3
  0
TEXT
  5
14F
330
146
100
AcDbEntity
  8
DEFAULT
  6
CONTINUOUS
 62
   136
100
AcDbText
 10
58.8210896918
 20
185.9470934575
 30
0.0
 40
3.2
  1
 P=0.5
 50
90.0
  7
SEACAD_SEANSI_TTF
 11
55.6210896918
 21
185.9470934575
 31
0.0
100
AcDbText
 73
     3
  0
ENDBLK
  5
151
330
146
100
AcDbEntity
  8
0
100
AcDbBlockEnd
  0
BLOCK
  5
15C
330
152
100
AcDbEntity
  8
0
100
AcDbBlockBegin
  2
GDIMGGROUP1
 70
     0
 10
0.0
 20
0.0
 30
0.0
  3
GDIMGGROUP1
  1

  0
LWPOLYLINE
  5
154
330
152
100
AcDbEntity
  8
DEFAULT
  6
CONTINUOUS
 62
   136
100
AcDbPolyline
 90
        3
 70
     0
 43
0.0
 10
53.2439057513
 20
199.3498579374
 10
52.7105724314
 20
202.5498578565
 10
52.1772391115
 20
199.3498579374
  0
LWPOLYLINE
  5
155
330
152
100
AcDbEntity
  8
DEFAULT
  6
CONTINUOUS
 62
   136
100
AcDbPolyline
 90
        3
 70
     0
 43
0.0
 10
53.2439057513
 20
172.7498579545
 10
52.7105724314
 20
169.5498580354
 10
52.1772391115
 20
172.7498579545
  0
LINE
  5
156
330
152
100
AcDbEntity
  8
DEFAULT
  6
CONTINUOUS
 62
   136
100
AcDbLine
 10
77.9587074058
 20
202.5498578565
 30
0.0
 11
51.1105724718
 21
202.5498578565
 31
0.0
  0
LINE
  5
157
330
152
100
AcDbEntity
  8
DEFAULT
  6
CONTINUOUS
 62
   136
100
AcDbLine
 10
77.9587074058
 20
169.5498578565
 30
0.0
 11
51.1105724718
 21
169.5498578565
 31
0.0
  0
LINE
  5
158
330
152
100
AcDbEntity
  8
DEFAULT
  6
CONTINUOUS
 62
   136
100
AcDbLine
 10
52.7105724314
 20
202.5498578565
 30
0.0
 11
52.7105724314
 21
169.5498580354
 31
0.0
  0
TEXT
  5
15A
330
152
100
AcDbEntity
  8
DEFAULT
  6
CONTINUOUS
 62
   136
100
AcDbText
 10
51.9105724314
 20
181.7238331278
 30
0.0
 40
3.2
  1
O
 50
90.0
  7
SEACAD_SEMECA1_TTF
 11
48.7105724314
 21
181.7238331278
 31
0.0
100
AcDbText
 73
     3
  0
TEXT
  5
15B
330
152
100
AcDbEntity
  8
DEFAULT
  6
CONTINUOUS
 62
   136
100
AcDbText
 10
51.9105724314
 20
185.6929559348
 30
0.0
 40
3.2
  1
33
 50
90.0
  7
SEACAD_SEANSI_TTF
 11
48.7105724314
 21
185.6929559348
 31
0.0
100
AcDbText
 73
     3
  0
ENDBLK
  5
15D
330
152
100
AcDbEntity
  8
0
100
AcDbBlockEnd
  0
BLOCK
  5
167
330
15E
100
AcDbEntity
  8
0
100
AcDbBlockBegin
  2
GDIMGGROUP2
 70
     0
 10
0.0
 20
0.0
 30
0.0
  3
GDIMGGROUP2
  1

  0
LWPOLYLINE
  5
160
330
15E
100
AcDbEntity
  8
DEFAULT
  6
CONTINUOUS
 62
   136
100
AcDbPolyline
 90
        3
 70
     0
 43
0.0
 10
144.1191105801
 20
193.9498579475
 10
144.6524438999
 20
197.1498578667
 10
145.1857772198
 20
193.9498579475
  0
LWPOLYLINE
  5
161
330
15E
100
AcDbEntity
  8
DEFAULT
  6
CONTINUOUS
 62
   136
100
AcDbPolyline
 90
        3
 70
     0
 43
0.0
 10
144.1191105801
 20
178.1498582448
 10
144.6524438999
 20
174.9498583256
 10
145.1857772198
 20
178.1498582448
  0
LINE
  5
162
330
15E
100
AcDbEntity
  8
DEFAULT
  6
CONTINUOUS
 62
   136
100
AcDbLine
 10
125.0975564673
 20
197.1498578667
 30
0.0
 11
146.2524438595
 21
197.1498578667
 31
0.0
  0
LINE
  5
163
330
15E
100
AcDbEntity
  8
DEFAULT
  6
CONTINUOUS
 62
   136
100
AcDbLine
 10
125.0975564673
 20
174.9498578464
 30
0.0
 11
146.2524438595
 21
174.9498578464
 31
0.0
  0
LINE
  5
164
330
15E
100
AcDbEntity
  8
DEFAULT
  6
CONTINUOUS
 62
   136
100
AcDbLine
 10
144.6524438999
 20
197.1498578667
 30
0.0
 11
144.6524438999
 21
174.9498583256
 31
0.0
  0
TEXT
  5
165
330
15E
100
AcDbEntity
  8
DEFAULT
  6
CONTINUOUS
 62
   136
100
AcDbText
 10
143.8524438999
 20
180.0652966926
 30
0.0
 40
3.2
  1
O
 50
90.0
  7
SEACAD_SEMECA1_TTF
 11
140.6524438999
 21
180.0652966926
 31
0.0
100
AcDbText
 73
     3
  0
TEXT
  5
166
330
15E
100
AcDbEntity
  8
DEFAULT
  6
CONTINUOUS
 62
   136
100
AcDbText
 10
143.8524438999
 20
184.0344194996
 30
0.0
 40
3.2
  1
22.2
 50
90.0
  7
SEACAD_SEANSI_TTF
 11
140.6524438999
 21
184.0344194996
 31
0.0
100
AcDbText
 73
     3
  0
ENDBLK
  5
168
330
15E
100
AcDbEntity
  8
0
100
AcDbBlockEnd
  0
BLOCK
  5
171
330
169
100
AcDbEntity
  8
0
100
AcDbBlockBegin
  2
GDIMGGROUP3
 70
     0
 10
0.0
 20
0.0
 30
0.0
  3
GDIMGGROUP3
  1

  0
LWPOLYLINE
  5
16B
330
169
100
AcDbEntity
  8
DEFAULT
  6
CONTINUOUS
 62
   136
100
AcDbPolyline
 90
        3
 70
     0
 43
0.0
 10
150.9897402019
 20
195.5498579374
 10
151.5230735217
 20
198.7498578565
 10
152.0564068416
 20
195.5498579374
  0
LWPOLYLINE
  5
16C
330
169
100
AcDbEntity
  8
DEFAULT
  6
CONTINUOUS
 62
   136
100
AcDbPolyline
 90
        3
 70
     0
 43
0.0
 10
150.9897402019
 20
176.5498580827
 10
151.5230735217
 20
173.3498581635
 10
152.0564068416
 20
176.5498580827
  0
LINE
  5
16D
330
169
100
AcDbEntity
  8
DEFAULT
  6
CONTINUOUS
 62
   136
100
AcDbLine
 10
122.8187073407
 20
198.7498578565
 30
0.0
 11
153.1230734813
 21
198.7498578565
 31
0.0
  0
LINE
  5
16E
330
169
100
AcDbEntity
  8
DEFAULT
  6
CONTINUOUS
 62
   136
100
AcDbLine
 10
122.8187073407
 20
173.3498578565
 30
0.0
 11
153.1230734813
 21
173.3498578565
 31
0.0
  0
LINE
  5
16F
330
169
100
AcDbEntity
  8
DEFAULT
  6
CONTINUOUS
 62
   136
100
AcDbLine
 10
151.5230735217
 20
198.7498578565
 30
0.0
 11
151.5230735217
 21
173.3498581635
 31
0.0
  0
TEXT
  5
170
330
169
100
AcDbEntity
  8
DEFAULT
  6
CONTINUOUS
 62
   136
100
AcDbText
 10
150.7230735217
 20
174.3776628881
 30
0.0
 40
3.2
  1
1-32UN-2A
 50
90.0
  7
SEACAD_SEANSI_TTF
 11
147.5230735217
 21
174.3776628881
 31
0.0
100
AcDbText
 73
     3
  0
ENDBLK
  5
172
330
169
100
AcDbEntity
  8
0
100
AcDbBlockEnd
  0
BLOCK
  5
17B
330
173
100
AcDbEntity
  8
0
100
AcDbBlockBegin
  2
GDIMGGROUP4
 70
     0
 10
0.0
 20
0.0
 30
0.0
  3
GDIMGGROUP4
  1

  0
LWPOLYLINE
  5
175
330
173
100
AcDbEntity
  8
DEFAULT
  6
CONTINUOUS
 62
   136
100
AcDbPolyline
 90
        3
 70
     0
 43
0.0
 10
115.0387074543
 20
161.1813861613
 10
118.2387073734
 20
160.6480528414
 10
115.0387074543
 20
160.1147195216
  0
LWPOLYLINE
  5
176
330
173
100
AcDbEntity
  8
DEFAULT
  6
CONTINUOUS
 62
   136
100
AcDbPolyline
 90
        3
 70
     0
 43
0.0
 10
125.4387072922
 20
161.1813861613
 10
122.238707373
 20
160.6480528414
 10
125.4387072922
 20
160.1147195216
  0
LINE
  5
177
330
173
100
AcDbEntity
  8
DEFAULT
  6
CONTINUOUS
 62
   136
100
AcDbLine
 10
118.2387073734
 20
170.2698578872
 30
0.0
 11
118.2387073734
 21
159.0480528818
 31
0.0
  0
LINE
  5
178
330
173
100
AcDbEntity
  8
DEFAULT
  6
CONTINUOUS
 62
   136
100
AcDbLine
 10
122.238707373
 20
172.7698578889
 30
0.0
 11
122.238707373
 21
159.0480528818
 31
0.0
  0
LINE
  5
179
330
173
100
AcDbEntity
  8
DEFAULT
  6
CONTINUOUS
 62
   136
100
AcDbLine
 10
111.8387075351
 20
160.6480528414
 30
0.0
 11
128.6387074018
 21
160.6480528414
 31
0.0
  0
TEXT
  5
17A
330
173
100
AcDbEntity
  8
DEFAULT
  6
CONTINUOUS
 62
   136
100
AcDbText
 10
119.0679757611
 20
161.4480528414
 30
0.0
 40
3.2
  1
4
  7
SEACAD_SEANSI_TTF
 11
119.0679757611
 21
164.6480528414
 31
0.0
100
AcDbText
 73
     3
  0
ENDBLK
  5
17C
330
173
100
AcDbEntity
  8
0
100
AcDbBlockEnd
  0
BLOCK
  5
185
330
17D
100
AcDbEntity
  8
0
100
AcDbBlockBegin
  2
GDIMGGROUP5
 70
     0
 10
0.0
 20
0.0
 30
0.0
  3
GDIMGGROUP5
  1

  0
LWPOLYLINE
  5
17F
330
17D
100
AcDbEntity
  8
DEFAULT
  6
CONTINUOUS
 62
   136
100
AcDbPolyline
 90
        3
 70
     0
 43
0.0
 10
115.0387074543
 20
153.4036300812
 10
118.2387073734
 20
152.8702967614
 10
115.0387074543
 20
152.3369634415
  0
LWPOLYLINE
  5
180
330
17D
100
AcDbEntity
  8
DEFAULT
  6
CONTINUOUS
 62
   136
100
AcDbPolyline
 90
        3
 70
     0
 43
0.0
 10
127.5398351999
 20
153.4036300812
 10
124.3398352807
 20
152.8702967614
 10
127.5398351999
 20
152.3369634415
  0
LINE
  5
181
330
17D
100
AcDbEntity
  8
DEFAULT
  6
CONTINUOUS
 62
   136
100
AcDbLine
 10
118.2387073734
 20
170.2698578872
 30
0.0
 11
118.2387073734
 21
151.2702968018
 31
0.0
  0
LINE
  5
182
330
17D
100
AcDbEntity
  8
DEFAULT
  6
CONTINUOUS
 62
   136
100
AcDbLine
 10
124.3398352807
 20
173.8813318102
 30
0.0
 11
124.3398352807
 21
151.2702968018
 31
0.0
  0
LINE
  5
183
330
17D
100
AcDbEntity
  8
DEFAULT
  6
CONTINUOUS
 62
   136
100
AcDbLine
 10
111.8387075351
 20
152.8702967614
 30
0.0
 11
130.7398353913
 21
152.8702967614
 31
0.0
  0
TEXT
  5
184
330
17D
100
AcDbEntity
  8
DEFAULT
  6
CONTINUOUS
 62
   136
100
AcDbText
 10
118.4600029377
 20
153.6702967614
 30
0.0
 40
3.2
  1
6.1
  7
SEACAD_SEANSI_TTF
 11
118.4600029377
 21
156.8702967614
 31
0.0
100
AcDbText
 73
     3
  0
ENDBLK
  5
186
330
17D
100
AcDbEntity
  8
0
100
AcDbBlockEnd
  0
BLOCK
  5
18F
330
187
100
AcDbEntity
  8
0
100
AcDbBlockBegin
  2
GDIMGGROUP6
 70
     0
 10
0.0
 20
0.0
 30
0.0
  3
GDIMGGROUP6
  1

  0
LWPOLYLINE
  5
189
330
187
100
AcDbEntity
  8
DEFAULT
  6
CONTINUOUS
 62
   136
100
AcDbPolyline
 90
        3
 70
     0
 43
0.0
 10
121.4387072926
 20
144.9202015732
 10
118.2387073734
 20
144.3868682533
 10
121.4387072926
 20
143.8535349335
  0
LWPOLYLINE
  5
18A
330
187
100
AcDbEntity
  8
DEFAULT
  6
CONTINUOUS
 62
   136
100
AcDbPolyline
 90
        3
 70
     0
 43
0.0
 10
132.5647081924
 20
144.9202015732
 10
135.7647081116
 20
144.3868682533
 10
132.5647081924
 20
143.8535349335
  0
LINE
  5
18B
330
187
100
AcDbEntity
  8
DEFAULT
  6
CONTINUOUS
 62
   136
100
AcDbLine
 10
118.2387073734
 20
170.2698578872
 30
0.0
 11
118.2387073734
 21
142.7868682938
 31
0.0
  0
LINE
  5
18C
330
187
100
AcDbEntity
  8
DEFAULT
  6
CONTINUOUS
 62
   136
100
AcDbLine
 10
135.7647073734
 20
184.7698578889
 30
0.0
 11
135.7647073734
 21
142.7868682938
 31
0.0
  0
LINE
  5
18D
330
187
100
AcDbEntity
  8
DEFAULT
  6
CONTINUOUS
 62
   136
100
AcDbLine
 10
118.2387073734
 20
144.3868682533
 30
0.0
 11
135.7647081116
 21
144.3868682533
 31
0.0
  0
TEXT
  5
18E
330
187
100
AcDbEntity
  8
DEFAULT
  6
CONTINUOUS
 62
   136
100
AcDbText
 10
120.6602443279
 20
145.1868682533
 30
0.0
 40
3.2
  1
17.526
  7
SEACAD_SEANSI_TTF
 11
120.6602443279
 21
148.3868682533
 31
0.0
100
AcDbText
 73
     3
  0
ENDBLK
  5
190
330
187
100
AcDbEntity
  8
0
100
AcDbBlockEnd
  0
BLOCK
  5
199
330
191
100
AcDbEntity
  8
0
100
AcDbBlockBegin
  2
GDIMGGROUP7
 70
     0
 10
0.0
 20
0.0
 30
0.0
  3
GDIMGGROUP7
  1

  0
LWPOLYLINE
  5
193
330
191
100
AcDbEntity
  8
DEFAULT
  6
CONTINUOUS
 62
   136
100
AcDbPolyline
 90
        3
 70
     0
 43
0.0
 10
115.0387074543
 20
144.9202015732
 10
118.2387073734
 20
144.3868682533
 10
115.0387074543
 20
143.8535349335
  0
LWPOLYLINE
  5
194
330
191
100
AcDbEntity
  8
DEFAULT
  6
CONTINUOUS
 62
   136
100
AcDbPolyline
 90
        3
 70
     0
 43
0.0
 10
74.4387089019
 20
144.9202015732
 10
71.2387089828
 20
144.3868682533
 10
74.4387089019
 20
143.8535349335
  0
LINE
  5
195
330
191
100
AcDbEntity
  8
DEFAULT
  6
CONTINUOUS
 62
   136
100
AcDbLine
 10
118.2387073734
 20
170.2698578872
 30
0.0
 11
118.2387073734
 21
142.7868682938
 31
0.0
  0
LINE
  5
196
330
191
100
AcDbEntity
  8
DEFAULT
  6
CONTINUOUS
 62
   136
100
AcDbLine
 10
71.2387073734
 20
168.9698578889
 30
0.0
 11
71.2387073734
 21
142.7868682938
 31
0.0
  0
LINE
  5
197
330
191
100
AcDbEntity
  8
DEFAULT
  6
CONTINUOUS
 62
   136
100
AcDbLine
 10
118.2387073734
 20
144.3868682533
 30
0.0
 11
71.2387089828
 21
144.3868682533
 31
0.0
  0
TEXT
  5
198
330
191
100
AcDbEntity
  8
DEFAULT
  6
CONTINUOUS
 62
   136
100
AcDbText
 10
92.3972447635
 20
145.1868682533
 30
0.0
 40
3.2
  1
47
  7
SEACAD_SEANSI_TTF
 11
92.3972447635
 21
148.3868682533
 31
0.0
100
AcDbText
 73
     3
  0
ENDBLK
  5
19A
330
191
100
AcDbEntity
  8
0
100
AcDbBlockEnd
  0
ENDSEC
  0
SECTION
  2
ENTITIES
  0
TEXT
  5
5E
330
1F
100
AcDbEntity
  8
DEFAULT
  6
CONTINUOUS
 62
     7
100
AcDbText
 10
144.7065551267
 20
127.5464209846
 30
0.0
 40
3.2
  1
FL-CC1618-5MX
  7
SEACAD_SEANSI_TTF
 11
144.7065551267
 21
130.7464209846
 31
0.0
100
AcDbText
 73
     3
  0
LWPOLYLINE
  5
60
330
1F
100
AcDbEntity
  8
DEFAULT
  6
CONTINUOUS
 62
     7
100
AcDbPolyline
 90
        5
 70
     0
 43
0.0
 10
142.7900175708
 20
132.6320371126
 10
142.7900175708
 20
125.8429186778
 10
180.6393528452
 20
125.8429186778
 10
180.6393528452
 20
132.6320371126
 10
142.7900175708
 20
132.6320371126
  0
INSERT
  5
62
330
1F
100
AcDbEntity
  8
DEFAULT
100
AcDbBlockReference
  2
SE
 10
0.0
 20
0.0
 30
0.0
  0
INSERT
  5
147
330
1F
100
AcDbEntity
  8
DEFAULT
100
AcDbBlockReference
  2
GDIMGGROUP
 10
0.0
 20
0.0
 30
0.0
  0
INSERT
  5
153
330
1F
100
AcDbEntity
  8
DEFAULT
100
AcDbBlockReference
  2
GDIMGGROUP1
 10
0.0
 20
0.0
 30
0.0
  0
INSERT
  5
15F
330
1F
100
AcDbEntity
  8
DEFAULT
100
AcDbBlockReference
  2
GDIMGGROUP2
 10
0.0
 20
0.0
 30
0.0
  0
INSERT
  5
16A
330
1F
100
AcDbEntity
  8
DEFAULT
100
AcDbBlockReference
  2
GDIMGGROUP3
 10
0.0
 20
0.0
 30
0.0
  0
INSERT
  5
174
330
1F
100
AcDbEntity
  8
DEFAULT
100
AcDbBlockReference
  2
GDIMGGROUP4
 10
0.0
 20
0.0
 30
0.0
  0
INSERT
  5
17E
330
1F
100
AcDbEntity
  8
DEFAULT
100
AcDbBlockReference
  2
GDIMGGROUP5
 10
0.0
 20
0.0
 30
0.0
  0
INSERT
  5
188
330
1F
100
AcDbEntity
  8
DEFAULT
100
AcDbBlockReference
  2
GDIMGGROUP6
 10
0.0
 20
0.0
 30
0.0
  0
INSERT
  5
192
330
1F
100
AcDbEntity
  8
DEFAULT
100
AcDbBlockReference
  2
GDIMGGROUP7
 10
0.0
 20
0.0
 30
0.0
  0
ENDSEC
  0
SECTION
  2
OBJECTS
  0
DICTIONARY
  5
C
330
0
100
AcDbDictionary
  3
ACAD_GROUP
350
D
  3
ACAD_LAYOUT
350
1A
  3
ACAD_MLEADERSTYLE
350
1BD
  3
ACAD_MLINESTYLE
350
17
  3
ACAD_PLOTSETTINGS
350
19
  3
ACAD_SCALELIST
350
3B
  3
ACAD_VISUALSTYLE
350
2A
  3
ACDBHEADERROUNDTRIPXREC
350
19B
  3
ACDBVARIABLEDICTIONARY
350
1BB
  0
DICTIONARY
  5
D
102
{ACAD_REACTORS
330
C
102
}
330
C
100
AcDbDictionary
  0
DICTIONARY
  5
1A
102
{ACAD_REACTORS
330
C
102
}
330
C
100
AcDbDictionary
  0
DICTIONARY
  5
1BD
102
{ACAD_REACTORS
330
C
102
}
330
C
100
AcDbDictionary
  0
DICTIONARY
  5
17
102
{ACAD_REACTORS
330
C
102
}
330
C
100
AcDbDictionary
  3
STANDARD
350
18
  0
DICTIONARY
  5
19
102
{ACAD_REACTORS
330
C
102
}
330
C
100
AcDbDictionary
  0
DICTIONARY
  5
3B
102
{ACAD_REACTORS
330
C
102
}
330
C
100
AcDbDictionary
  3
A0
350
3C
  3
A1
350
3D
  3
A2
350
3E
  3
A3
350
3F
  3
A4
350
40
  3
A5
350
41
  3
A6
350
42
  3
A7
350
43
  3
A8
350
44
  3
A9
350
45
  3
B0
350
46
  3
B1
350
47
  3
B2
350
48
  3
B3
350
49
  3
B4
350
4A
  3
B5
350
4B
  3
B6
350
4C
  3
B7
350
4D
  3
B8
350
4E
  3
B9
350
4F
  3
C0
350
50
  3
C1
350
51
  3
C2
350
52
  3
C3
350
53
  3
C4
350
54
  3
C5
350
55
  3
C6
350
56
  3
C7
350
57
  3
C8
350
58
  3
C9
350
59
  3
D0
350
5A
  3
D1
350
5B
  3
D2
350
5C
  0
DICTIONARY
  5
2A
102
{ACAD_REACTORS
330
C
102
}
330
C
100
AcDbDictionary
  3
2DWIREFRAME
350
2F
  3
3D_HIDDEN
350
31
  3
3DWIREFRAME
350
30
  3
BASIC
350
32
  3
BRIGHTEN
350
36
  3
COLORCHANGE
350
3A
  3
CONCEPTUAL
350
34
  3
DIM
350
35
  3
FACEPATTERN
350
39
  3
FLAT
350
2B
  3
FLATWITHEDGES
350
2C
  3
GOURAUD
350
2D
  3
GOURAUDWITHEDGES
350
2E
  3
LINEPATTERN
350
38
  3
REALISTIC
350
33
  3
THICKEN
350
37
  0
DICTIONARY
  5
19B
102
{ACAD_REACTORS
330
C
102
}
330
C
100
AcDbDictionary
  3
CEPSNTYPE
350
1A4
  3
DIMSTYLEDATA
350
1BA
  3
FINGERPRINTGUID
350
1A5
  3
HYPERLINKBASE
350
19E
  3
INSUNITS
350
1A3
  3
LAYOUTDICT
350
1A0
  3
LWETCUNION
350
1A2
  3
PLOTSETDICT
350
1A1
  3
PSVPSCALE
350
1A7
  3
PUCSBASE
350
1AA
  3
PUCSORGBACK
350
1B0
  3
PUCSORGBOTTOM
350
1AC
  3
PUCSORGFRONT
350
1AF
  3
PUCSORGLEFT
350
1AD
  3
PUCSORGRIGHT
350
1AE
  3
PUCSORGTOP
350
1AB
  3
PUCSORTHOREF
350
1A8
  3
PUCSORTHOVIEW
350
1A9
  3
STYLESHEET
350
19F
  3
TSTACKALIGN
350
19C
  3
TSTACKSIZE
350
19D
  3
UCSBASE
350
1B3
  3
UCSORGBACK
350
1B9
  3
UCSORGBOTTOM
350
1B5
  3
UCSORGFRONT
350
1B8
  3
UCSORGLEFT
350
1B6
  3
UCSORGRIGHT
350
1B7
  3
UCSORGTOP
350
1B4
  3
UCSORTHOREF
350
1B1
  3
UCSORTHOVIEW
350
1B2
  3
VERSIONGUID
350
1A6
  0
DICTIONARY
  5
1BB
102
{ACAD_REACTORS
330
C
102
}
330
C
100
AcDbDictionary
  3
CANNOSCALE
350
1C0
  3
PSOLHEIGHT
350
1BF
  3
PSOLWIDTH
350
1BE
  0
MLINESTYLE
  5
18
102
{ACAD_REACTORS
330
17
102
}
330
17
100
AcDbMlineStyle
  2
Standard
 70
     0
  3

 62
   256
 51
90.0
 52
90.0
 71
     2
 49
0.5
 62
   256
  6
BYLAYER
 49
-0.5
 62
   256
  6
BYLAYER
  0
ACAD_PROXY_OBJECT
  5
3C
102
{ACAD_REACTORS
330
3B
102
}
330
3B
100
AcDbProxyObject
 90
      499
 91
      502
 93
       41
310
903313A31580
  0
ACAD_PROXY_OBJECT
  5
3D
102
{ACAD_REACTORS
330
3B
102
}
330
3B
100
AcDbProxyObject
 90
      499
 91
      502
 93
      105
310
903313A324000000000000004000
  0
ACAD_PROXY_OBJECT
  5
3E
102
{ACAD_REACTORS
330
3B
102
}
330
3B
100
AcDbProxyObject
 90
      499
 91
      502
 93
      105
310
903313A344000000000000104000
  0
ACAD_PROXY_OBJECT
  5
3F
102
{ACAD_REACTORS
330
3B
102
}
330
3B
100
AcDbProxyObject
 90
      499
 91
      502
 93
      105
310
903313A354000000000000144000
  0
ACAD_PROXY_OBJECT
  5
40
102
{ACAD_REACTORS
330
3B
102
}
330
3B
100
AcDbProxyObject
 90
      499
 91
      502
 93
      105
310
903313A384000000000000204000
  0
ACAD_PROXY_OBJECT
  5
41
102
{ACAD_REACTORS
330
3B
102
}
330
3B
100
AcDbProxyObject
 90
      499
 91
      502
 93
      113
310
904313A31304000000000000244000
  0
ACAD_PROXY_OBJECT
  5
42
102
{ACAD_REACTORS
330
3B
102
}
330
3B
100
AcDbProxyObject
 90
      499
 91
      502
 93
      113
310
904313A31364000000000000304000
  0
ACAD_PROXY_OBJECT
  5
43
102
{ACAD_REACTORS
330
3B
102
}
330
3B
100
AcDbProxyObject
 90
      499
 91
      502
 93
      113
310
904313A32304000000000000344000
  0
ACAD_PROXY_OBJECT
  5
44
102
{ACAD_REACTORS
330
3B
102
}
330
3B
100
AcDbProxyObject
 90
      499
 91
      502
 93
      113
310
904313A333040000000000003E4000
  0
ACAD_PROXY_OBJECT
  5
45
102
{ACAD_REACTORS
330
3B
102
}
330
3B
100
AcDbProxyObject
 90
      499
 91
      502
 93
      113
310
904313A34304000000000000444000
  0
ACAD_PROXY_OBJECT
  5
46
102
{ACAD_REACTORS
330
3B
102
}
330
3B
100
AcDbProxyObject
 90
      499
 91
      502
 93
      113
310
904313A35304000000000000494000
  0
ACAD_PROXY_OBJECT
  5
47
102
{ACAD_REACTORS
330
3B
102
}
330
3B
100
AcDbProxyObject
 90
      499
 91
      502
 93
      121
310
905313A3130304000000000000594000
  0
ACAD_PROXY_OBJECT
  5
48
102
{ACAD_REACTORS
330
3B
102
}
330
3B
100
AcDbProxyObject
 90
      499
 91
      502
 93
      105
310
903323A310000000000000010100
  0
ACAD_PROXY_OBJECT
  5
49
102
{ACAD_REACTORS
330
3B
102
}
330
3B
100
AcDbProxyObject
 90
      499
 91
      502
 93
      105
310
903343A310000000000000410100
  0
ACAD_PROXY_OBJECT
  5
4A
102
{ACAD_REACTORS
330
3B
102
}
330
3B
100
AcDbProxyObject
 90
      499
 91
      502
 93
      105
310
903383A310000000000000810100
  0
ACAD_PROXY_OBJECT
  5
4B
102
{ACAD_REACTORS
330
3B
102
}
330
3B
100
AcDbProxyObject
 90
      499
 91
      502
 93
      113
310
90431303A310000000000000910100
  0
ACAD_PROXY_OBJECT
  5
4C
102
{ACAD_REACTORS
330
3B
102
}
330
3B
100
AcDbProxyObject
 90
      499
 91
      502
 93
      121
310
9053130303A310000000000001650100
  0
ACAD_PROXY_OBJECT
  5
4D
102
{ACAD_REACTORS
330
3B
102
}
330
3B
100
AcDbProxyObject
 90
      499
 91
      502
 93
      257
310
90E312F31323822203D2031272D3022000000000000200FC000000000000284000
  0
ACAD_PROXY_OBJECT
  5
4E
102
{ACAD_REACTORS
330
3B
102
}
330
3B
100
AcDbProxyObject
 90
      499
 91
      502
 93
      249
310
90D312F363422203D2031272D3022000000000000240FC000000000000284000
  0
ACAD_PROXY_OBJECT
  5
4F
102
{ACAD_REACTORS
330
3B
102
}
330
3B
100
AcDbProxyObject
 90
      499
 91
      502
 93
      249
310
90D312F333222203D2031272D3022000000000000280FC000000000000284000
  0
ACAD_PROXY_OBJECT
  5
50
102
{ACAD_REACTORS
330
3B
102
}
330
3B
100
AcDbProxyObject
 90
      499
 91
      502
 93
      249
310
90D312F313622203D2031272D30220000000000002C0FC000000000000284000
  0
ACAD_PROXY_OBJECT
  5
51
102
{ACAD_REACTORS
330
3B
102
}
330
3B
100
AcDbProxyObject
 90
      499
 91
      502
 93
      249
310
90D332F333222203D2031272D30220000000000002E0FC000000000000284000
  0
ACAD_PROXY_OBJECT
  5
52
102
{ACAD_REACTORS
330
3B
102
}
330
3B
100
AcDbProxyObject
 90
      499
 91
      502
 93
      241
310
90C312F3822203D2031272D3022000000000000300FC000000000000284000
  0
ACAD_PROXY_OBJECT
  5
53
102
{ACAD_REACTORS
330
3B
102
}
330
3B
100
AcDbProxyObject
 90
      499
 91
      502
 93
      249
310
90D332F313622203D2031272D3022000000000000320FC000000000000284000
  0
ACAD_PROXY_OBJECT
  5
54
102
{ACAD_REACTORS
330
3B
102
}
330
3B
100
AcDbProxyObject
 90
      499
 91
      502
 93
      241
310
90C312F3422203D2031272D3022000000000000340FC000000000000284000
  0
ACAD_PROXY_OBJECT
  5
55
102
{ACAD_REACTORS
330
3B
102
}
330
3B
100
AcDbProxyObject
 90
      499
 91
      502
 93
      241
310
90C332F3822203D2031272D3022000000000000360FC000000000000284000
  0
ACAD_PROXY_OBJECT
  5
56
102
{ACAD_REACTORS
330
3B
102
}
330
3B
100
AcDbProxyObject
 90
      499
 91
      502
 93
      241
310
90C312F3222203D2031272D3022000000000000380FC000000000000284000
  0
ACAD_PROXY_OBJECT
  5
57
102
{ACAD_REACTORS
330
3B
102
}
330
3B
100
AcDbProxyObject
 90
      499
 91
      502
 93
      241
310
90C332F3422203D2031272D30220000000000003A0FC000000000000284000
  0
ACAD_PROXY_OBJECT
  5
58
102
{ACAD_REACTORS
330
3B
102
}
330
3B
100
AcDbProxyObject
 90
      499
 91
      502
 93
      161
310
90A3122203D2031272D30224000000000000284000
  0
ACAD_PROXY_OBJECT
  5
59
102
{ACAD_REACTORS
330
3B
102
}
330
3B
100
AcDbProxyObject
 90
      499
 91
      502
 93
      257
310
90E312D312F3222203D2031272D30220000000000003E0FC000000000000284000
  0
ACAD_PROXY_OBJECT
  5
5A
102
{ACAD_REACTORS
330
3B
102
}
330
3B
100
AcDbProxyObject
 90
      499
 91
      502
 93
      225
310
90A3322203D2031272D302200000000000002100000000000000284000
  0
ACAD_PROXY_OBJECT
  5
5B
102
{ACAD_REACTORS
330
3B
102
}
330
3B
100
AcDbProxyObject
 90
      499
 91
      502
 93
      225
310
90A3622203D2031272D302200000000000006100000000000000284000
  0
ACAD_PROXY_OBJECT
  5
5C
102
{ACAD_REACTORS
330
3B
102
}
330
3B
100
AcDbProxyObject
 90
      499
 91
      502
 93
      249
310
90D31272D3022203D2031272D30220000000000000A100000000000000284000
  0
ACAD_PROXY_OBJECT
  5
2F
102
{ACAD_REACTORS
330
2A
102
}
330
2A
100
AcDbProxyObject
 90
      499
 91
      501
 93
      436
310
42CC9915DA5C99599C985B595049028333333333333E3BF0000000000000FB0107901411070040501600405405064090741402480A0340
1001
ACAD
1000
AcDbSavedByObjectVersion
1070
     0
  0
ACAD_PROXY_OBJECT
  5
31
102
{ACAD_REACTORS
330
2A
102
}
330
2A
100
AcDbProxyObject
 90
      499
 91
      501
 93
      500
310
424CD108121A5919195B90640502408333333333333E3BF0000000000000FB01079024090700405020000000000001110200405405064090740C02480A0340
1001
ACAD
1000
AcDbSavedByObjectVersion
1070
     0
  0
ACAD_PROXY_OBJECT
  5
30
102
{ACAD_REACTORS
330
2A
102
}
330
2A
100
AcDbProxyObject
 90
      499
 91
      501
 93
      436
310
42CCD915DA5C99599C985B595059028333333333333E3BF0000000000000FB0107901411070040501600405405064090741402480A0340
1001
ACAD
1000
AcDbSavedByObjectVersion
1070
     0
  0
ACAD_PROXY_OBJECT
  5
32
102
{ACAD_REACTORS
330
2A
102
}
330
2A
100
AcDbProxyObject
 90
      499
 91
      501
 93
      388
310
4150985CDA58D07406404333333333333E3BF0000000000000FB0107A41107004050150841D405064090741402480A0350
1001
ACAD
1000
AcDbSavedByObjectVersion
1070
     0
  0
ACAD_PROXY_OBJECT
  5
36
102
{ACAD_REACTORS
330
2A
102
}
330
2A
100
AcDbProxyObject
 90
      499
 91
      501
 93
      428
310
42109C9A59DA1D195B90C409028333333333333E3BF0000000000000FB010790141107004050150841D405064090741402480A029950
1001
ACAD
1000
AcDbSavedByObjectVersion
1070
     0
  0
ACAD_PROXY_OBJECT
  5
3A
102
{ACAD_REACTORS
330
2A
102
}
330
2A
100
AcDbProxyObject
 90
      499
 91
      501
 93
      452
310
42D0DBDB1BDC90DA185B99D95104090240C333333333333E3BF0000000000000FB0108901411070040501508421405064090741402480A0350
1001
ACAD
1000
AcDbSavedByObjectVersion
1070
     0
  0
ACAD_PROXY_OBJECT
  5
34
102
{ACAD_REACTORS
330
2A
102
}
330
2A
100
AcDbProxyObject
 90
      499
 91
      501
 93
      500
310
4290DBDB98D95C1D1D585B10940D028333333333333E3BF0000000000000FB0107902409070040501000000000000111010841D405064090740C02480A0340
1001
ACAD
1000
AcDbSavedByObjectVersion
1070
     0
  0
ACAD_PROXY_OBJECT
  5
35
102
{ACAD_REACTORS
330
2A
102
}
330
2A
100
AcDbProxyObject
 90
      499
 91
      501
 93
      412
310
40D11A5B50B409028333333333333E3BF0000000000000FB010790141107004050150841D405064090741402480A02677FFFFFD0
1001
ACAD
1000
AcDbSavedByObjectVersion
1070
     0
  0
ACAD_PROXY_OBJECT
  5
39
102
{ACAD_REACTORS
330
2A
102
}
330
2A
100
AcDbProxyObject
 90
      499
 91
      501
 93
      444
310
42D19858D95C185D1D195C9B90F409028333333333333E3BF0000000000000FB010790141107004050150841D405064090741402480A0350
1001
ACAD
1000
AcDbSavedByObjectVersion
1070
     0
  0
ACAD_PROXY_OBJECT
  5
2B
102
{ACAD_REACTORS
330
2A
102
}
330
2A
100
AcDbProxyObject
 90
      499
 91
      501
 93
      388
310
41119B185D240901404333333333333E3BF0000000000000F9010740A41107004050150841D405064090741402480A1B50
1001
ACAD
1000
AcDbSavedByObjectVersion
1070
     0
  0
ACAD_PROXY_OBJECT
  5
2C
102
{ACAD_REACTORS
330
2A
102
}
330
2A
100
AcDbProxyObject
 90
      499
 91
      501
 93
      476
310
43519B185D15DA5D1A115919D95CD0140901404333333333333E3BF0000000000000F9010740901411070040501600405405064090741402480A1B50
1001
ACAD
1000
AcDbSavedByObjectVersion
1070
     0
  0
ACAD_PROXY_OBJECT
  5
2D
102
{ACAD_REACTORS
330
2A
102
}
330
2A
100
AcDbProxyObject
 90
      499
 91
      501
 93
      412
310
41D1DBDD5C985D5910240902404333333333333E3BF0000000000000F9010740A411070040501641D405064090741402480A1B50
1001
ACAD
1000
AcDbSavedByObjectVersion
1070
     0
  0
ACAD_PROXY_OBJECT
  5
2E
102
{ACAD_REACTORS
330
2A
102
}
330
2A
100
AcDbProxyObject
 90
      499
 91
      501
 93
      500
310
4411DBDD5C985D5915DA5D1A115919D95CD0340902404333333333333E3BF0000000000000F9010740901411070040501600405405064090741402480A1B50
1001
ACAD
1000
AcDbSavedByObjectVersion
1070
     0
  0
ACAD_PROXY_OBJECT
  5
38
102
{ACAD_REACTORS
330
2A
102
}
330
2A
100
AcDbProxyObject
 90
      499
 91
      501
 93
      444
310
42D31A5B995C185D1D195C9B90E409028333333333333E3BF0000000000000FB010790141107004050750841D405064090741402483A0350
1001
ACAD
1000
AcDbSavedByObjectVersion
1070
     0
  0
ACAD_PROXY_OBJECT
  5
33
102
{ACAD_REACTORS
330
2A
102
}
330
2A
100
AcDbProxyObject
 90
      499
 91
      501
 93
      420
310
425499585B1A5CDD1A58D08409028333333333333E3BF0000000000000FB01079019070040501508421405064090741402480A1B40
1001
ACAD
1000
AcDbSavedByObjectVersion
1070
     0
  0
ACAD_PROXY_OBJECT
  5
37
102
{ACAD_REACTORS
330
2A
102
}
330
2A
100
AcDbProxyObject
 90
      499
 91
      501
 93
      412
310
41D51A1A58DAD95B90D409028333333333333E3BF0000000000000FB010790141107004050150C41D405064090741402480A0350
1001
ACAD
1000
AcDbSavedByObjectVersion
1070
     0
  0
ACAD_PROXY_OBJECT
  5
1A4
102
{ACAD_REACTORS
330
19B
102
}
330
19B
100
AcDbProxyObject
 90
      499
 91
      504
 93
       58
310
4196800000000000
  0
ACAD_PROXY_OBJECT
  5
1BA
102
{ACAD_REACTORS
330
19B
102
}
330
19B
100
AcDbProxyObject
 90
      499
 91
      504
 93
      306
310
497A00C180099114D51653117A80C040099ECB811500550044400000000000003A80C040099F40
  0
ACAD_PROXY_OBJECT
  5
1A5
102
{ACAD_REACTORS
330
19B
102
}
330
19B
100
AcDbProxyObject
 90
      499
 91
      504
 93
      354
310
4AC0400980099ECE4D504D90508D504B4D8D91514B4D10CE4D0B5090508C8B4CD0D0D18D50CCD0CE0CD14CDF40
  0
ACAD_PROXY_OBJECT
  5
19E
102
{ACAD_REACTORS
330
19B
102
}
330
19B
100
AcDbProxyObject
 90
      499
 91
      504
 93
       50
310
41404000000980
  0
ACAD_PROXY_OBJECT
  5
1A3
102
{ACAD_REACTORS
330
19B
102
}
330
19B
100
AcDbProxyObject
 90
      499
 91
      504
 93
       58
310
4196800100000000
  0
ACAD_PROXY_OBJECT
  5
1A0
102
{ACAD_REACTORS
330
19B
102
}
330
19B
100
AcDbProxyObject
 90
      499
 91
      504
 93
       90
310
429500468000000000000000
  0
ACAD_PROXY_OBJECT
  5
1A2
102
{ACAD_REACTORS
330
19B
102
}
330
19B
100
AcDbProxyObject
 90
      499
 91
      504
 93
       58
310
419680074A800000
  0
ACAD_PROXY_OBJECT
  5
1A1
102
{ACAD_REACTORS
330
19B
102
}
330
19B
100
AcDbProxyObject
 90
      499
 91
      504
 93
       90
310
429500464000000000000000
  0
ACAD_PROXY_OBJECT
  5
1A7
102
{ACAD_REACTORS
330
19B
102
}
330
19B
100
AcDbProxyObject
 90
      499
 91
      504
 93
       90
310
428A00000000000000000000
  0
ACAD_PROXY_OBJECT
  5
1AA
102
{ACAD_REACTORS
330
19B
102
}
330
19B
100
AcDbProxyObject
 90
      499
 91
      504
 93
       90
310
429500400000000000000000
  0
ACAD_PROXY_OBJECT
  5
1B0
102
{ACAD_REACTORS
330
19B
102
}
330
19B
100
AcDbProxyObject
 90
      499
 91
      504
 93
      218
310
46828000000000000000000000000000000000000000000000000000
  0
ACAD_PROXY_OBJECT
  5
1AC
102
{ACAD_REACTORS
330
19B
102
}
330
19B
100
AcDbProxyObject
 90
      499
 91
      504
 93
      218
310
46828000000000000000000000000000000000000000000000000000
  0
ACAD_PROXY_OBJECT
  5
1AF
102
{ACAD_REACTORS
330
19B
102
}
330
19B
100
AcDbProxyObject
 90
      499
 91
      504
 93
      218
310
46828000000000000000000000000000000000000000000000000000
  0
ACAD_PROXY_OBJECT
  5
1AD
102
{ACAD_REACTORS
330
19B
102
}
330
19B
100
AcDbProxyObject
 90
      499
 91
      504
 93
      218
310
46828000000000000000000000000000000000000000000000000000
  0
ACAD_PROXY_OBJECT
  5
1AE
102
{ACAD_REACTORS
330
19B
102
}
330
19B
100
AcDbProxyObject
 90
      499
 91
      504
 93
      218
310
46828000000000000000000000000000000000000000000000000000
  0
ACAD_PROXY_OBJECT
  5
1AB
102
{ACAD_REACTORS
330
19B
102
}
330
19B
100
AcDbProxyObject
 90
      499
 91
      504
 93
      218
310
46828000000000000000000000000000000000000000000000000000
  0
ACAD_PROXY_OBJECT
  5
1A8
102
{ACAD_REACTORS
330
19B
102
}
330
19B
100
AcDbProxyObject
 90
      499
 91
      504
 93
       90
310
429500400000000000000000
  0
ACAD_PROXY_OBJECT
  5
1A9
102
{ACAD_REACTORS
330
19B
102
}
330
19B
100
AcDbProxyObject
 90
      499
 91
      504
 93
       42
310
411180000000
  0
ACAD_PROXY_OBJECT
  5
19F
102
{ACAD_REACTORS
330
19B
102
}
330
19B
100
AcDbProxyObject
 90
      499
 91
      504
 93
       50
310
41404000000980
  0
ACAD_PROXY_OBJECT
  5
19C
102
{ACAD_REACTORS
330
19B
102
}
330
19B
100
AcDbProxyObject
 90
      499
 91
      504
 93
       58
310
4196800040000000
  0
ACAD_PROXY_OBJECT
  5
19D
102
{ACAD_REACTORS
330
19B
102
}
330
19B
100
AcDbProxyObject
 90
      499
 91
      504
 93
       58
310
4196801180000000
  0
ACAD_PROXY_OBJECT
  5
1B3
102
{ACAD_REACTORS
330
19B
102
}
330
19B
100
AcDbProxyObject
 90
      499
 91
      504
 93
       90
310
429500400000000000000000
  0
ACAD_PROXY_OBJECT
  5
1B9
102
{ACAD_REACTORS
330
19B
102
}
330
19B
100
AcDbProxyObject
 90
      499
 91
      504
 93
      218
310
46828000000000000000000000000000000000000000000000000000
  0
ACAD_PROXY_OBJECT
  5
1B5
102
{ACAD_REACTORS
330
19B
102
}
330
19B
100
AcDbProxyObject
 90
      499
 91
      504
 93
      218
310
46828000000000000000000000000000000000000000000000000000
  0
ACAD_PROXY_OBJECT
  5
1B8
102
{ACAD_REACTORS
330
19B
102
}
330
19B
100
AcDbProxyObject
 90
      499
 91
      504
 93
      218
310
46828000000000000000000000000000000000000000000000000000
  0
ACAD_PROXY_OBJECT
  5
1B6
102
{ACAD_REACTORS
330
19B
102
}
330
19B
100
AcDbProxyObject
 90
      499
 91
      504
 93
      218
310
46828000000000000000000000000000000000000000000000000000
  0
ACAD_PROXY_OBJECT
  5
1B7
102
{ACAD_REACTORS
330
19B
102
}
330
19B
100
AcDbProxyObject
 90
      499
 91
      504
 93
      218
310
46828000000000000000000000000000000000000000000000000000
  0
ACAD_PROXY_OBJECT
  5
1B4
102
{ACAD_REACTORS
330
19B
102
}
330
19B
100
AcDbProxyObject
 90
      499
 91
      504
 93
      218
310
46828000000000000000000000000000000000000000000000000000
  0
ACAD_PROXY_OBJECT
  5
1B1
102
{ACAD_REACTORS
330
19B
102
}
330
19B
100
AcDbProxyObject
 90
      499
 91
      504
 93
       90
310
429500400000000000000000
  0
ACAD_PROXY_OBJECT
  5
1B2
102
{ACAD_REACTORS
330
19B
102
}
330
19B
100
AcDbProxyObject
 90
      499
 91
      504
 93
       42
310
411180000000
  0
ACAD_PROXY_OBJECT
  5
1A6
102
{ACAD_REACTORS
330
19B
102
}
330
19B
100
AcDbProxyObject
 90
      499
 91
      504
 93
      354
310
4AC0400980099ED19051508C50CCCC8B514C0C4E4B4C4C510D4B4E4C8E508B4C0C10CC11118C8D4D9150CD1F40
  0
DICTIONARYVAR
  5
1C0
102
{ACAD_REACTORS
330
1BB
102
}
330
1BB
100
DictionaryVariables
280
     0
  1
1:1
  0
DICTIONARYVAR
  5
1BF
102
{ACAD_REACTORS
330
1BB
102
}
330
1BB
100
DictionaryVariables
280
     0
  1
80.000000
  0
DICTIONARYVAR
  5
1BE
102
{ACAD_REACTORS
330
1BB
102
}
330
1BB
100
DictionaryVariables
280
     0
  1
5.000000
  0
ENDSEC
  0
EOF
