  0
SECTION
  2
HEADER
  9
$ACADVER
  1
AC1012
  9
$DWGCODEPAGE
  3
ansi_932
  9
$INSBASE
 10
0.0
 20
0.0
 30
0.0
  9
$EXTMIN
 10
0.0
 20
0.0
 30
0.0
  9
$EXTMAX
 10
297.0
 20
210.0
 30
0.0
  9
$LIMMIN
 10
0.0
 20
0.0
  9
$LIMMAX
 10
297.0
 20
210.0
  9
$ORTHOMODE
 70
     0
  9
$REGENMODE
 70
     1
  9
$FILLMODE
 70
     1
  9
$QTEXTMODE
 70
     0
  9
$MIRRTEXT
 70
     1
  9
$DRAGMODE
 70
     2
  9
$LTSCALE
 40
1.0
  9
$OSMODE
 70
    37
  9
$ATTMODE
 70
     1
  9
$TEXTSIZE
 40
2.5
  9
$TRACEWID
 40
1.0
  9
$TEXTSTYLE
  7
STANDARD
  9
$CLAYER
  8
0
  9
$CELTYPE
  6
BYLAYER
  9
$CECOLOR
 62
   256
  9
$CELTSCALE
 40
1.0
  9
$DELOBJ
 70
     1
  9
$DISPSILH
 70
     0
  9
$DIMSCALE
 40
1.0
  9
$DIMASZ
 40
2.5
  9
$DIMEXO
 40
0.625
  9
$DIMDLI
 40
3.75
  9
$DIMRND
 40
0.0
  9
$DIMDLE
 40
0.0
  9
$DIMEXE
 40
1.25
  9
$DIMTP
 40
0.0
  9
$DIMTM
 40
0.0
  9
$DIMTXT
 40
2.5
  9
$DIMCEN
 40
2.5
  9
$DIMTSZ
 40
0.0
  9
$DIMTOL
 70
     0
  9
$DIMLIM
 70
     0
  9
$DIMTIH
 70
     0
  9
$DIMTOH
 70
     0
  9
$DIMSE1
 70
     0
  9
$DIMSE2
 70
     0
  9
$DIMTAD
 70
     1
  9
$DIMZIN
 70
     8
  9
$DIMBLK
  1

  9
$DIMASO
 70
     1
  9
$DIMSHO
 70
     1
  9
$DIMPOST
  1

  9
$DIMAPOST
  1

  9
$DIMALT
 70
     0
  9
$DIMALTD
 70
     3
  9
$DIMALTF
 40
0.0393700787
  9
$DIMLFAC
 40
1.0
  9
$DIMTOFL
 70
     1
  9
$DIMTVP
 40
0.0
  9
$DIMTIX
 70
     0
  9
$DIMSOXD
 70
     0
  9
$DIMSAH
 70
     0
  9
$DIMBLK1
  1

  9
$DIMBLK2
  1

  9
$DIMSTYLE
  2
ISO-25
  9
$DIMCLRD
 70
     0
  9
$DIMCLRE
 70
     0
  9
$DIMCLRT
 70
     0
  9
$DIMTFAC
 40
1.0
  9
$DIMGAP
 40
0.625
  9
$DIMJUST
 70
     0
  9
$DIMSD1
 70
     0
  9
$DIMSD2
 70
     0
  9
$DIMTOLJ
 70
     0
  9
$DIMTZIN
 70
     8
  9
$DIMALTZ
 70
     0
  9
$DIMALTTZ
 70
     0
  9
$DIMFIT
 70
     3
  9
$DIMUPT
 70
     0
  9
$DIMUNIT
 70
     2
  9
$DIMDEC
 70
     2
  9
$DIMTDEC
 70
     2
  9
$DIMALTU
 70
     2
  9
$DIMALTTD
 70
     3
  9
$DIMTXSTY
  7
STANDARD
  9
$DIMAUNIT
 70
     0
  9
$LUNITS
 70
     2
  9
$LUPREC
 70
     4
  9
$SKETCHINC
 40
1.0
  9
$FILLETRAD
 40
10.0
  9
$AUNITS
 70
     0
  9
$AUPREC
 70
     0
  9
$MENU
  1
.
  9
$ELEVATION
 40
0.0
  9
$PELEVATION
 40
0.0
  9
$THICKNESS
 40
0.0
  9
$LIMCHECK
 70
     0
  9
$CHAMFERA
 40
10.0
  9
$CHAMFERB
 40
10.0
  9
$CHAMFERC
 40
20.0
  9
$CHAMFERD
 40
0.0
  9
$SKPOLY
 70
     0
  9
$TDCREATE
 40
2457578.588253403
  9
$TDUPDATE
 40
2457578.588253414
  9
$TDINDWG
 40
0.0000000116
  9
$TDUSRTIMER
 40
0.0000000116
  9
$USRTIMER
 70
     1
  9
$ANGBASE
 50
0.0
  9
$ANGDIR
 70
     0
  9
$PDMODE
 70
     0
  9
$PDSIZE
 40
0.0
  9
$PLINEWID
 40
0.0
  9
$COORDS
 70
     1
  9
$SPLFRAME
 70
     0
  9
$SPLINETYPE
 70
     6
  9
$SPLINESEGS
 70
     8
  9
$ATTDIA
 70
     0
  9
$ATTREQ
 70
     1
  9
$HANDLING
 70
     1
  9
$HANDSEED
  5
179
  9
$SURFTAB1
 70
     6
  9
$SURFTAB2
 70
     6
  9
$SURFTYPE
 70
     6
  9
$SURFU
 70
     6
  9
$SURFV
 70
     6
  9
$UCSNAME
  2

  9
$UCSORG
 10
0.0
 20
0.0
 30
0.0
  9
$UCSXDIR
 10
1.0
 20
0.0
 30
0.0
  9
$UCSYDIR
 10
0.0
 20
1.0
 30
0.0
  9
$PUCSNAME
  2

  9
$PUCSORG
 10
0.0
 20
0.0
 30
0.0
  9
$PUCSXDIR
 10
1.0
 20
0.0
 30
0.0
  9
$PUCSYDIR
 10
0.0
 20
1.0
 30
0.0
  9
$USERI1
 70
     0
  9
$USERI2
 70
     0
  9
$USERI3
 70
     0
  9
$USERI4
 70
     0
  9
$USERI5
 70
     0
  9
$USERR1
 40
0.0
  9
$USERR2
 40
0.0
  9
$USERR3
 40
0.0
  9
$USERR4
 40
0.0
  9
$USERR5
 40
0.0
  9
$WORLDVIEW
 70
     1
  9
$SHADEDGE
 70
     3
  9
$SHADEDIF
 70
    70
  9
$TILEMODE
 70
     1
  9
$MAXACTVP
 70
    64
  9
$PINSBASE
 10
0.0
 20
0.0
 30
0.0
  9
$PLIMCHECK
 70
     0
  9
$PEXTMIN
 10
0.0
 20
0.0
 30
0.0
  9
$PEXTMAX
 10
297.0
 20
210.0
 30
0.0
  9
$PLIMMIN
 10
0.0
 20
0.0
  9
$PLIMMAX
 10
297.0
 20
210.0
  9
$UNITMODE
 70
     0
  9
$VISRETAIN
 70
     1
  9
$PLINEGEN
 70
     0
  9
$PSLTSCALE
 70
     1
  9
$TREEDEPTH
 70
  3020
  9
$PICKSTYLE
 70
     1
  9
$CMLSTYLE
  2
STANDARD
  9
$CMLJUST
 70
     0
  9
$CMLSCALE
 40
20.0
  9
$SAVEIMAGES
 70
     1
  0
ENDSEC
  0
SECTION
  2
CLASSES
  0
CLASS
  1
ACDBDICTIONARYWDFLT
  2
AcDbDictionaryWithDefault
  3
ObjectDBX Classes
 90
    32768
280
     0
281
     0
  0
CLASS
  1
VISUALSTYLE
  2
AcDbVisualStyle
  3
ObjectDBX Classes
 90
     4095
280
     0
281
     0
  0
CLASS
  1
SCALE
  2
AcDbScale
  3
ObjectDBX Classes
 90
     1153
280
     0
281
     0
  0
CLASS
  1
DICTIONARYVAR
  2
AcDbDictionaryVar
  3
ObjectDBX Classes
 90
        0
280
     0
281
     0
  0
CLASS
  1
XRECORD
  2
AcDbXrecord
  3
AutoCAD 2000
 90
    32768
280
     0
281
     0
  0
CLASS
  1
LWPOLYLINE
  2
AcDbPolyline
  3
AutoCAD 2000
 90
    32768
280
     0
281
     1
  0
CLASS
  1
HATCH
  2
AcDbHatch
  3
AutoCAD 2000
 90
    32768
280
     0
281
     1
  0
CLASS
  1
ACDBPLACEHOLDER
  2
AcDbPlaceHolder
  3
ObjectDBX Classes
 90
        0
280
     0
281
     0
  0
CLASS
  1
LAYOUT
  2
AcDbLayout
  3
ObjectDBX Classes
 90
        0
280
     0
281
     0
  0
ENDSEC
  0
SECTION
  2
TABLES
  0
TABLE
  2
VPORT
  5
8
330
0
100
AcDbSymbolTable
 70
     1
  0
VPORT
  5
29
330
8
100
AcDbSymbolTableRecord
100
AcDbViewportTableRecord
  2
*ACTIVE
 70
     0
 10
0.0
 20
0.0
 11
1.0
 21
1.0
 12
344.1869158879
 22
148.5
 13
0.0
 23
0.0
 14
10.0
 24
10.0
 15
10.0
 25
10.0
 16
0.0
 26
0.0
 36
1.0
 17
0.0
 27
0.0
 37
0.0
 40
297.0
 41
1.9729729729
 42
50.0
 43
0.0
 44
0.0
 50
0.0
 51
0.0
 71
     0
 72
   100
 73
     1
 74
     3
 75
     0
 76
     0
 77
     0
 78
     0
  0
ENDTAB
  0
TABLE
  2
LTYPE
  5
5
330
0
100
AcDbSymbolTable
 70
     2
  0
LTYPE
  5
14
330
5
100
AcDbSymbolTableRecord
100
AcDbLinetypeTableRecord
  2
BYBLOCK
 70
     0
  3

 72
    65
 73
     0
 40
0.0
  0
LTYPE
  5
15
330
5
100
AcDbSymbolTableRecord
100
AcDbLinetypeTableRecord
  2
BYLAYER
 70
     0
  3

 72
    65
 73
     0
 40
0.0
  0
LTYPE
  5
16
330
5
100
AcDbSymbolTableRecord
100
AcDbLinetypeTableRecord
  2
CONTINUOUS
 70
     0
  3
Solid line
 72
    65
 73
     0
 40
0.0
  0
LTYPE
  5
D6
330
5
100
AcDbSymbolTableRecord
100
AcDbLinetypeTableRecord
  2
DASHDOT2
 70
     0
  3
Dash dot (.5x) _._._._._._._._._._._._._._._.
 72
    65
 73
     4
 40
12.7
 49
6.35
 74
     4
 75
     0
340
0
 46
0.0
 50
0.0
 44
0.0
 45
0.0
 49
-3.175
 74
     4
 75
     0
340
0
 46
0.0
 50
0.0
 44
0.0
 45
0.0
 49
0.0
 74
     4
 75
     0
340
0
 46
0.0
 50
0.0
 44
0.0
 45
0.0
 49
-3.175
 74
     4
 75
     0
340
0
 46
0.0
 50
0.0
 44
0.0
 45
0.0
  0
ENDTAB
  0
TABLE
  2
LAYER
  5
2
330
0
100
AcDbSymbolTable
 70
    10
  0
LAYER
  5
10
330
2
100
AcDbSymbolTableRecord
100
AcDbLayerTableRecord
  2
0
 70
     0
 62
     7
  6
CONTINUOUS
  0
LAYER
  5
5F
330
2
100
AcDbSymbolTableRecord
100
AcDbLayerTableRecord
  2
DEFAULT
 70
     0
 62
     7
  6
CONTINUOUS
  0
LAYER
  5
62
330
2
100
AcDbSymbolTableRecord
100
AcDbLayerTableRecord
  2
KOKUIN_001_SEP-0
 70
     0
 62
     7
  6
CONTINUOUS
  0
LAYER
  5
84
330
2
100
AcDbSymbolTableRecord
100
AcDbLayerTableRecord
  2
SRF243038_001_SE
 70
     0
 62
     7
  6
CONTINUOUS
  0
LAYER
  5
92
330
2
100
AcDbSymbolTableRecord
100
AcDbLayerTableRecord
  2
SRF243041_001_SE
 70
     0
 62
     7
  6
CONTINUOUS
  0
LAYER
  5
AE
330
2
100
AcDbSymbolTableRecord
100
AcDbLayerTableRecord
  2
ST17_20_001_SEP-
 70
     0
 62
     7
  6
CONTINUOUS
  0
LAYER
  5
B1
330
2
100
AcDbSymbolTableRecord
100
AcDbLayerTableRecord
  2
SCALE_001_SEP-00
 70
     0
 62
     7
  6
CONTINUOUS
  0
LAYER
  5
C5
330
2
100
AcDbSymbolTableRecord
100
AcDbLayerTableRecord
  2
STOP_SCALE_001_S
 70
     0
 62
     7
  6
CONTINUOUS
  0
LAYER
  5
CE
330
2
100
AcDbSymbolTableRecord
100
AcDbLayerTableRecord
  2
USHIROWAKU_001_S
 70
     0
 62
     7
  6
CONTINUOUS
  0
LAYER
  5
D5
330
2
100
AcDbSymbolTableRecord
100
AcDbLayerTableRecord
  2
DV1_デフォルト
 70
     0
 62
     7
  6
CONTINUOUS
  0
ENDTAB
  0
TABLE
  2
STYLE
  5
3
330
0
100
AcDbSymbolTable
 70
     3
  0
STYLE
  5
11
330
3
100
AcDbSymbolTableRecord
100
AcDbTextStyleTableRecord
  2
STANDARD
 70
     0
 40
0.0
 41
1.0
 50
0.0
 71
     0
 42
2.5
  3
txt
  4

  0
STYLE
  5
5D
330
3
100
AcDbSymbolTableRecord
100
AcDbTextStyleTableRecord
  2
SEACAD_SEANSI_TTF
 70
     0
 40
0.0
 41
1.0
 50
0.0
 71
     0
 42
0.2
  3
seansi.ttf
  4

  0
STYLE
  5
F1
330
3
100
AcDbSymbolTableRecord
100
AcDbTextStyleTableRecord
  2
SEACAD_SEMECA1_TTF
 70
     0
 40
0.0
 41
1.0
 50
0.0
 71
     0
 42
0.2
  3
semeca1.ttf
  4

  0
ENDTAB
  0
TABLE
  2
VIEW
  5
6
330
0
100
AcDbSymbolTable
 70
     0
  0
ENDTAB
  0
TABLE
  2
UCS
  5
7
330
0
100
AcDbSymbolTable
 70
     0
  0
ENDTAB
  0
TABLE
  2
APPID
  5
9
330
0
100
AcDbSymbolTable
 70
     1
  0
APPID
  5
12
330
9
100
AcDbSymbolTableRecord
100
AcDbRegAppTableRecord
  2
ACAD
 70
     0
  0
ENDTAB
  0
TABLE
  2
DIMSTYLE
  5
A
330
0
100
AcDbSymbolTable
 70
     1
  0
DIMSTYLE
105
27
330
A
100
AcDbSymbolTableRecord
100
AcDbDimStyleTableRecord
  2
ISO-25
 70
     0
  3

  4

  5

  6

  7

 40
1.0
 41
2.5
 42
0.625
 43
3.75
 44
1.25
 45
0.0
 46
0.0
 47
0.0
 48
0.0
140
2.5
141
2.5
142
0.0
143
0.0393700787
144
1.0
145
0.0
146
1.0
147
0.625
 71
     0
 72
     0
 73
     0
 74
     0
 75
     0
 76
     0
 77
     1
 78
     8
170
     0
171
     3
172
     1
173
     0
174
     0
175
     0
176
     0
177
     0
178
     0
270
     2
271
     2
272
     2
273
     2
274
     3
340
11
275
     0
280
     0
281
     0
282
     0
283
     0
284
     8
285
     0
286
     0
287
     3
288
     0
  0
ENDTAB
  0
TABLE
  2
BLOCK_RECORD
  5
1
330
0
100
AcDbSymbolTable
 70
    10
  0
BLOCK_RECORD
  5
1F
330
1
100
AcDbSymbolTableRecord
100
AcDbBlockTableRecord
  2
*MODEL_SPACE
  0
BLOCK_RECORD
  5
1B
330
1
100
AcDbSymbolTableRecord
100
AcDbBlockTableRecord
  2
*PAPER_SPACE
  0
BLOCK_RECORD
  5
60
330
1
100
AcDbSymbolTableRecord
100
AcDbBlockTableRecord
  2
SE
  0
BLOCK_RECORD
  5
E0
330
1
100
AcDbSymbolTableRecord
100
AcDbBlockTableRecord
  2
GDIMGGROUP
  0
BLOCK_RECORD
  5
EA
330
1
100
AcDbSymbolTableRecord
100
AcDbBlockTableRecord
  2
GDIMGGROUP1
  0
BLOCK_RECORD
  5
F6
330
1
100
AcDbSymbolTableRecord
100
AcDbBlockTableRecord
  2
GDIMGGROUP2
  0
BLOCK_RECORD
  5
100
330
1
100
AcDbSymbolTableRecord
100
AcDbBlockTableRecord
  2
GDIMGGROUP3
  0
BLOCK_RECORD
  5
10A
330
1
100
AcDbSymbolTableRecord
100
AcDbBlockTableRecord
  2
GDIMGGROUP4
  0
BLOCK_RECORD
  5
115
330
1
100
AcDbSymbolTableRecord
100
AcDbBlockTableRecord
  2
GDIMGGROUP5
  0
BLOCK_RECORD
  5
11F
330
1
100
AcDbSymbolTableRecord
100
AcDbBlockTableRecord
  2
GDIMGGROUP6
  0
BLOCK_RECORD
  5
129
330
1
100
AcDbSymbolTableRecord
100
AcDbBlockTableRecord
  2
GDIMGGROUP7
  0
ENDTAB
  0
ENDSEC
  0
SECTION
  2
BLOCKS
  0
BLOCK
  5
20
330
1F
100
AcDbEntity
  8
0
100
AcDbBlockBegin
  2
*MODEL_SPACE
 70
     0
 10
0.0
 20
0.0
 30
0.0
  3
*MODEL_SPACE
  1

  0
ENDBLK
  5
21
330
1F
100
AcDbEntity
  8
0
100
AcDbBlockEnd
  0
BLOCK
  5
1C
330
1B
100
AcDbEntity
 67
     1
  8
0
100
AcDbBlockBegin
  2
*PAPER_SPACE
 70
     0
 10
0.0
 20
0.0
 30
0.0
  3
*PAPER_SPACE
  1

  0
ENDBLK
  5
1D
330
1B
100
AcDbEntity
 67
     1
  8
0
100
AcDbBlockEnd
  0
BLOCK
  5
DE
330
60
100
AcDbEntity
  8
0
100
AcDbBlockBegin
  2
SE
 70
     0
 10
0.0
 20
0.0
 30
0.0
  3
SE
  1

  0
LINE
  5
63
330
60
100
AcDbEntity
  8
KOKUIN_001_SEP-0
  6
CONTINUOUS
 62
     7
100
AcDbLine
 10
154.149413731
 20
132.5599015887
 30
0.0
 11
154.149413731
 21
90.9599015887
 31
0.0
  0
LINE
  5
64
330
60
100
AcDbEntity
  8
KOKUIN_001_SEP-0
  6
CONTINUOUS
 62
     7
100
AcDbLine
 10
142.149413731
 20
132.5599015887
 30
0.0
 11
142.149413731
 21
90.9599015887
 31
0.0
  0
LINE
  5
65
330
60
100
AcDbEntity
  8
KOKUIN_001_SEP-0
  6
CONTINUOUS
 62
     7
100
AcDbLine
 10
142.349413731
 20
132.7599015887
 30
0.0
 11
142.349413731
 21
112.0099015887
 31
0.0
  0
LINE
  5
66
330
60
100
AcDbEntity
  8
KOKUIN_001_SEP-0
  6
CONTINUOUS
 62
     7
100
AcDbLine
 10
142.349413731
 20
111.5099015887
 30
0.0
 11
142.349413731
 21
90.7599015887
 31
0.0
  0
LINE
  5
67
330
60
100
AcDbEntity
  8
KOKUIN_001_SEP-0
  6
CONTINUOUS
 62
     7
100
AcDbLine
 10
153.949413731
 20
132.7599015887
 30
0.0
 11
153.949413731
 21
112.0099015887
 31
0.0
  0
LINE
  5
68
330
60
100
AcDbEntity
  8
KOKUIN_001_SEP-0
  6
CONTINUOUS
 62
     7
100
AcDbLine
 10
153.949413731
 20
111.5099015887
 30
0.0
 11
153.949413731
 21
90.7599015887
 31
0.0
  0
LINE
  5
69
330
60
100
AcDbEntity
  8
KOKUIN_001_SEP-0
  6
CONTINUOUS
 62
     7
100
AcDbLine
 10
142.198165407
 20
111.6599015887
 30
0.0
 11
142.349413731
 21
111.5099015887
 31
0.0
  0
SPLINE
  5
6A
330
60
100
AcDbEntity
  8
KOKUIN_001_SEP-0
  6
CONTINUOUS
 62
     7
100
AcDbSpline
210
0.0
220
0.0
230
1.0
 70
     8
 71
     3
 72
    11
 73
     7
 74
     0
 42
0.0000000499996797
 43
0.0000000001
 40
0.0
 40
0.0
 40
0.0
 40
0.0
 40
0.1254224009687
 40
0.1254224009687
 40
0.1254224009687
 40
1.0
 40
1.0
 40
1.0
 40
1.0
 10
142.1981654069565
 20
111.859901588695
 30
0.0
 10
142.1981253006435
 20
111.8515399230807
 30
0.0
 10
142.1980902244308
 20
111.8431782318267
 30
0.0
 10
142.1980601785091
 20
111.8348165240104
 30
0.0
 10
142.1978506739596
 20
111.7765119114237
 30
0.0
 10
142.1978857531949
 20
111.7182059070155
 30
0.0
 10
142.1981654069565
 20
111.659901588695
 30
0.0
  0
LINE
  5
6B
330
60
100
AcDbEntity
  8
KOKUIN_001_SEP-0
  6
CONTINUOUS
 62
     7
100
AcDbLine
 10
142.349413731
 20
112.0099015887
 30
0.0
 11
142.198165407
 21
111.8599015887
 31
0.0
  0
LINE
  5
6C
330
60
100
AcDbEntity
  8
KOKUIN_001_SEP-0
  6
CONTINUOUS
 62
     7
100
AcDbLine
 10
154.1006620551
 20
111.8599015887
 30
0.0
 11
153.949413731
 21
112.0099015887
 31
0.0
  0
SPLINE
  5
6D
330
60
100
AcDbEntity
  8
KOKUIN_001_SEP-0
  6
CONTINUOUS
 62
     7
100
AcDbSpline
210
0.0
220
0.0
230
1.0
 70
     8
 71
     3
 72
    11
 73
     7
 74
     0
 42
0.0000000499996797
 43
0.0000000001
 40
0.0
 40
0.0
 40
0.0
 40
0.0
 40
0.8745775990312976
 40
0.8745775990312976
 40
0.8745775990312976
 40
1.0
 40
1.0
 40
1.0
 40
1.0
 10
154.1006620551063
 20
111.659901588695
 30
0.0
 10
154.100941708868
 20
111.7182059070155
 30
0.0
 10
154.1009767881032
 20
111.7765119114237
 30
0.0
 10
154.1007672835537
 20
111.8348165240104
 30
0.0
 10
154.100737237632
 20
111.8431782318267
 30
0.0
 10
154.1007021614193
 20
111.8515399230807
 30
0.0
 10
154.1006620551063
 20
111.859901588695
 30
0.0
  0
LINE
  5
6E
330
60
100
AcDbEntity
  8
KOKUIN_001_SEP-0
  6
CONTINUOUS
 62
     7
100
AcDbLine
 10
153.949413731
 20
111.5099015887
 30
0.0
 11
154.1006620551
 21
111.6599015887
 31
0.0
  0
LINE
  5
6F
330
60
100
AcDbEntity
  8
KOKUIN_001_SEP-0
  6
CONTINUOUS
 62
     7
100
AcDbLine
 10
142.349413731
 20
112.0099015887
 30
0.0
 11
153.949413731
 21
112.0099015887
 31
0.0
  0
LINE
  5
70
330
60
100
AcDbEntity
  8
KOKUIN_001_SEP-0
  6
CONTINUOUS
 62
     7
100
AcDbLine
 10
142.198165407
 20
111.8599015887
 30
0.0
 11
154.1006620551
 21
111.8599015887
 31
0.0
  0
LINE
  5
71
330
60
100
AcDbEntity
  8
KOKUIN_001_SEP-0
  6
CONTINUOUS
 62
     7
100
AcDbLine
 10
142.198165407
 20
111.6599015887
 30
0.0
 11
154.1006620551
 21
111.6599015887
 31
0.0
  0
LINE
  5
72
330
60
100
AcDbEntity
  8
KOKUIN_001_SEP-0
  6
CONTINUOUS
 62
     7
100
AcDbLine
 10
142.349413731
 20
111.5099015887
 30
0.0
 11
153.949413731
 21
111.5099015887
 31
0.0
  0
SPLINE
  5
73
330
60
100
AcDbEntity
  8
KOKUIN_001_SEP-0
  6
CONTINUOUS
 62
     7
100
AcDbSpline
210
0.0
220
0.0
230
1.0
 70
     8
 71
     3
 72
    14
 73
    10
 74
     0
 42
0.0000000073229798
 43
0.0000000001
 40
0.0
 40
0.0
 40
0.0
 40
0.0
 40
0.1086403212391512
 40
0.2511624961084006
 40
0.4974128208461013
 40
0.6230673532913944
 40
0.7487152535757413
 40
0.874358732225393
 40
1.0
 40
1.0
 40
1.0
 40
1.0
 10
151.1994137310314
 20
93.57336810922183
 30
0.0
 10
151.1930938301601
 20
93.60462447943891
 30
0.0
 10
151.1784830294934
 20
93.67688520062855
 30
0.0
 10
151.0187306763331
 20
93.80394647068715
 30
0.0
 10
150.7180873030993
 20
93.87143930768876
 30
0.0
 10
150.4335111685369
 20
93.83707096170683
 30
0.0
 10
150.2514450598884
 20
93.77447436468232
 30
0.0
 10
150.1242391760679
 20
93.68157413923848
 30
0.0
 10
150.1076888308387
 20
93.60943657433174
 30
0.0
 10
150.0994137310314
 20
93.57336810922183
 30
0.0
  0
SPLINE
  5
74
330
60
100
AcDbEntity
  8
KOKUIN_001_SEP-0
  6
CONTINUOUS
 62
     7
100
AcDbSpline
210
0.0
220
0.0
230
1.0
 70
     8
 71
     3
 72
    14
 73
    10
 74
     0
 42
0.0000000073813234
 43
0.0000000001
 40
0.0
 40
0.0
 40
0.0
 40
0.0
 40
0.1086068625976859
 40
0.2510270982141743
 40
0.4975360866556727
 40
0.6231598047857999
 40
0.748776888923163
 40
0.8743895502044692
 40
1.0
 40
1.0
 40
1.0
 40
1.0
 10
150.0994137310314
 20
93.57336810922183
 30
0.0
 10
150.105729744683
 20
93.54251744385347
 30
0.0
 10
150.1203281829522
 20
93.47121114864969
 30
0.0
 10
150.2800304240845
 20
93.34985870006452
 30
0.0
 10
150.580818724046
 20
93.29197624326753
 30
0.0
 10
150.8654748331776
 20
93.31593478162596
 30
0.0
 10
151.0474604421957
 20
93.37532291573535
 30
0.0
 10
151.1746015142358
 20
93.4656060706438
 30
0.0
 10
151.1911430406373
 20
93.53744764049993
 30
0.0
 10
151.1994137310314
 20
93.57336810922183
 30
0.0
  0
SPLINE
  5
75
330
60
100
AcDbEntity
  8
KOKUIN_001_SEP-0
  6
CONTINUOUS
 62
     7
100
AcDbSpline
210
0.0
220
0.0
230
1.0
 70
     8
 71
     3
 72
    14
 73
    10
 74
     0
 42
0.0000000073229479
 43
0.0000000001
 40
0.0
 40
0.0
 40
0.0
 40
0.0
 40
0.1086068625976842
 40
0.2510270982141753
 40
0.4975360866556734
 40
0.6231598047858009
 40
0.7487768889231636
 40
0.8743895502044694
 40
1.0
 40
1.0
 40
1.0
 40
1.0
 10
150.0994137310314
 20
129.9464350681683
 30
0.0
 10
150.105729744683
 20
129.9151890479581
 30
0.0
 10
150.1203281829522
 20
129.8429689543412
 30
0.0
 10
150.2800304240846
 20
129.7158631760581
 30
0.0
 10
150.580818724046
 20
129.6483340401059
 30
0.0
 10
150.8654748331776
 20
129.68276949859
 30
0.0
 10
151.0474604421957
 20
129.7453728430108
 30
0.0
 10
151.1746015142358
 20
129.8382575428444
 30
0.0
 10
151.1911430406373
 20
129.9103761046772
 30
0.0
 10
151.1994137310314
 20
129.9464350681683
 30
0.0
  0
SPLINE
  5
76
330
60
100
AcDbEntity
  8
KOKUIN_001_SEP-0
  6
CONTINUOUS
 62
     7
100
AcDbSpline
210
0.0
220
0.0
230
1.0
 70
     8
 71
     3
 72
    14
 73
    10
 74
     0
 42
0.0000000073813299
 43
0.0000000001
 40
0.0
 40
0.0
 40
0.0
 40
0.0
 40
0.1086403212391478
 40
0.2511624961084
 40
0.4974128208461006
 40
0.6230673532913937
 40
0.7487152535757393
 40
0.8743587322253912
 40
1.0
 40
1.0
 40
1.0
 40
1.0
 10
151.1994137310314
 20
129.9464350681683
 30
0.0
 10
151.1930938301601
 20
129.9772956137156
 30
0.0
 10
151.1784830294934
 20
130.0486412390094
 30
0.0
 10
151.0187306763331
 20
130.1699496308124
 30
0.0
 10
150.7180873030993
 20
130.2278015942454
 30
0.0
 10
150.4335111685369
 20
130.2039061045235
 30
0.0
 10
150.2514450598884
 20
130.1445241792488
 30
0.0
 10
150.1242391760679
 20
130.0542256398286
 30
0.0
 10
150.1076888308387
 20
129.9823650479717
 30
0.0
 10
150.0994137310314
 20
129.9464350681683
 30
0.0
  0
LINE
  5
77
330
60
100
AcDbEntity
  8
KOKUIN_001_SEP-0
  6
CONTINUOUS
 62
     7
100
AcDbLine
 10
156.649413731
 20
116.6656417119
 30
0.0
 11
156.649413731
 21
117.3340056739
 31
0.0
  0
LINE
  5
78
330
60
100
AcDbEntity
  8
KOKUIN_001_SEP-0
  6
CONTINUOUS
 62
     7
100
AcDbLine
 10
156.949413731
 20
117.2519874632
 30
0.0
 11
156.949413731
 21
116.7572737301
 31
0.0
  0
LINE
  5
79
330
60
100
AcDbEntity
  8
KOKUIN_001_SEP-0
  6
CONTINUOUS
 62
     7
100
AcDbLine
 10
156.349413731
 20
116.7653323157
 30
0.0
 11
156.349413731
 21
117.2466493027
 31
0.0
  0
LINE
  5
7A
330
60
100
AcDbEntity
  8
KOKUIN_001_SEP-0
  6
CONTINUOUS
 62
     7
100
AcDbLine
 10
154.149413731
 20
92.5099015887
 30
0.0
 11
154.649413731
 21
92.5099015887
 31
0.0
  0
LINE
  5
7B
330
60
100
AcDbEntity
  8
KOKUIN_001_SEP-0
  6
CONTINUOUS
 62
     7
100
AcDbLine
 10
154.649413731
 20
131.0099015887
 30
0.0
 11
154.149413731
 21
131.0099015887
 31
0.0
  0
LINE
  5
7C
330
60
100
AcDbEntity
  8
KOKUIN_001_SEP-0
  6
CONTINUOUS
 62
     7
100
AcDbLine
 10
141.6494158961
 20
91.6099015887
 30
0.0
 11
142.149413731
 21
91.6099015887
 31
0.0
  0
LINE
  5
7D
330
60
100
AcDbEntity
  8
KOKUIN_001_SEP-0
  6
CONTINUOUS
 62
     7
100
AcDbLine
 10
142.149413731
 20
131.9099015887
 30
0.0
 11
141.6494158961
 21
131.9099015887
 31
0.0
  0
LINE
  5
7E
330
60
100
AcDbEntity
  8
KOKUIN_001_SEP-0
  6
CONTINUOUS
 62
     7
100
AcDbLine
 10
142.349413731
 20
132.7599015887
 30
0.0
 11
142.149413731
 21
132.5599015887
 31
0.0
  0
LINE
  5
7F
330
60
100
AcDbEntity
  8
KOKUIN_001_SEP-0
  6
CONTINUOUS
 62
     7
100
AcDbLine
 10
142.149413731
 20
90.9599015887
 30
0.0
 11
142.349413731
 21
90.7599015887
 31
0.0
  0
LINE
  5
80
330
60
100
AcDbEntity
  8
KOKUIN_001_SEP-0
  6
CONTINUOUS
 62
     7
100
AcDbLine
 10
142.349413731
 20
90.7599015887
 30
0.0
 11
153.949413731
 21
90.7599015887
 31
0.0
  0
LINE
  5
81
330
60
100
AcDbEntity
  8
KOKUIN_001_SEP-0
  6
CONTINUOUS
 62
     7
100
AcDbLine
 10
153.949413731
 20
132.7599015887
 30
0.0
 11
142.349413731
 21
132.7599015887
 31
0.0
  0
LINE
  5
82
330
60
100
AcDbEntity
  8
KOKUIN_001_SEP-0
  6
CONTINUOUS
 62
     7
100
AcDbLine
 10
153.949413731
 20
90.7599015887
 30
0.0
 11
154.149413731
 21
90.9599015887
 31
0.0
  0
LINE
  5
83
330
60
100
AcDbEntity
  8
KOKUIN_001_SEP-0
  6
CONTINUOUS
 62
     7
100
AcDbLine
 10
154.149413731
 20
132.5599015887
 30
0.0
 11
153.949413731
 21
132.7599015887
 31
0.0
  0
LINE
  5
85
330
60
100
AcDbEntity
  8
SRF243038_001_SE
  6
CONTINUOUS
 62
     7
100
AcDbLine
 10
167.449413731
 20
130.7599015887
 30
0.0
 11
167.449413731
 21
92.7599015887
 31
0.0
  0
LINE
  5
86
330
60
100
AcDbEntity
  8
SRF243038_001_SE
  6
CONTINUOUS
 62
     7
100
AcDbLine
 10
165.449413731
 20
132.7599015887
 30
0.0
 11
165.449413731
 21
90.7599015887
 31
0.0
  0
LINE
  5
87
330
60
100
AcDbEntity
  8
SRF243038_001_SE
  6
CONTINUOUS
 62
     7
100
AcDbLine
 10
154.8463281583
 20
132.7599015887
 30
0.0
 11
154.8463281583
 21
90.7599015887
 31
0.0
  0
LINE
  5
88
330
60
100
AcDbEntity
  8
SRF243038_001_SE
  6
CONTINUOUS
 62
     7
100
AcDbLine
 10
154.649413731
 20
132.5629871614
 30
0.0
 11
154.649413731
 21
90.9568160159
 31
0.0
  0
SPLINE
  5
89
330
60
100
AcDbEntity
  8
SRF243038_001_SE
  6
CONTINUOUS
 62
     7
100
AcDbSpline
210
0.0
220
0.0
230
1.0
 70
     8
 71
     3
 72
    29
 73
    25
 74
     0
 42
0.0000000029224201
 43
0.0000000001
 40
0.3078219088599626
 40
0.3078219088599626
 40
0.3078219088599626
 40
0.3078219088599626
 40
0.3221722250053175
 40
0.3221722250053175
 40
0.3221722250053175
 40
0.3758614862358574
 40
0.3758614862358574
 40
0.3758614862358574
 40
0.429569919715303
 40
0.429569919715303
 40
0.429569919715303
 40
0.4832790128472875
 40
0.4832790128472875
 40
0.4832790128472875
 40
0.5369692020111952
 40
0.5369692020111952
 40
0.5369692020111952
 40
0.5906504377294777
 40
0.5906504377294777
 40
0.5906504377294777
 40
0.644346639012543
 40
0.644346639012543
 40
0.644346639012543
 40
0.6908993988834424
 40
0.6908993988834424
 40
0.6908993988834424
 40
0.6908993988834424
 10
156.1353031483908
 20
116.9952916136341
 30
0.0
 10
156.1411640741239
 20
117.0101914183433
 30
0.0
 10
156.1477087795687
 20
117.0248063584094
 30
0.0
 10
156.154909149716
 20
117.0390442578811
 30
0.0
 10
156.1818481802996
 20
117.0923130762149
 30
0.0
 10
156.2187072958456
 20
117.1417745357136
 30
0.0
 10
156.262436371623
 20
117.1833724957437
 30
0.0
 10
156.3061806168838
 20
117.2249848859795
 30
0.0
 10
156.3580064086685
 20
117.259877808063
 30
0.0
 10
156.4136241175214
 20
117.285196526215
 30
0.0
 10
156.4692421079343
 20
117.3105153725409
 30
0.0
 10
156.530186955736
 20
117.3269594282247
 30
0.0
 10
156.5914092890236
 20
117.3331839132484
 30
0.0
 10
156.652610505293
 20
117.3394062513012
 30
0.0
 10
156.7157771754897
 20
117.3355880461079
 30
0.0
 10
156.7756769680958
 20
117.3220413778466
 30
0.0
 10
156.8355673889615
 20
117.308496829056
 30
0.0
 10
156.8938433459418
 20
117.28485313494
 30
0.0
 10
156.9456833522183
 20
117.2530419090539
 30
0.0
 10
156.9975376802835
 20
117.2212218947108
 30
0.0
 10
157.0443825405154
 20
117.1803510008859
 30
0.0
 10
157.0823424732688
 20
117.1337741556326
 30
0.0
 10
157.1152520541238
 20
117.0933940931917
 30
0.0
 10
157.1422702910611
 20
117.0477583160851
 30
0.0
 10
157.1617717485805
 20
116.9997354679849
 30
0.0
  0
SPLINE
  5
8A
330
60
100
AcDbEntity
  8
SRF243038_001_SE
  6
CONTINUOUS
 62
     7
100
AcDbSpline
210
0.0
220
0.0
230
1.0
 70
     8
 71
     3
 72
    14
 73
    10
 74
     0
 42
0.000000005731448
 43
0.0000000001
 40
0.0
 40
0.0
 40
0.0
 40
0.0
 40
0.1256412677746059
 40
0.251284746424258
 40
0.3769326467086008
 40
0.5025871791538941
 40
0.7488375038915962
 40
0.8913596787605461
 40
1.0
 40
1.0
 40
1.0
 40
1.0
 10
157.1994137310314
 20
117.195101535848
 30
0.0
 10
157.1911386312242
 20
117.2646259994876
 30
0.0
 10
157.174588285995
 20
117.4036761501697
 30
0.0
 10
157.0473824021745
 20
117.580243800517
 30
0.0
 10
156.8653162935259
 20
117.6975856394848
 30
0.0
 10
156.5807401589636
 20
117.7522992321221
 30
0.0
 10
156.2800967857299
 20
117.6326660806533
 30
0.0
 10
156.1203444325695
 20
117.393619058051
 30
0.0
 10
156.1057336319028
 20
117.2550427212527
 30
0.0
 10
156.0994137310314
 20
117.195101535848
 30
0.0
  0
ARC
  5
8B
330
60
100
AcDbEntity
  8
SRF243038_001_SE
  6
CONTINUOUS
 62
     7
100
AcDbCircle
 10
156.649413731
 20
117.2119039645
 30
0.0
 40
0.5502565961503547
100
AcDbArc
 50
181.7498343916
 51
358.2501656084
  0
LINE
  5
8C
330
60
100
AcDbEntity
  8
SRF243038_001_SE
  6
CONTINUOUS
 62
     7
100
AcDbLine
 10
165.449413731
 20
90.7599015887
 30
0.0
 11
167.449413731
 21
92.7599015887
 31
0.0
  0
LINE
  5
8D
330
60
100
AcDbEntity
  8
SRF243038_001_SE
  6
CONTINUOUS
 62
     7
100
AcDbLine
 10
167.449413731
 20
130.7599015887
 30
0.0
 11
165.449413731
 21
132.7599015887
 31
0.0
  0
LINE
  5
8E
330
60
100
AcDbEntity
  8
SRF243038_001_SE
  6
CONTINUOUS
 62
     7
100
AcDbLine
 10
154.8463281583
 20
90.7599015887
 30
0.0
 11
165.449413731
 21
90.7599015887
 31
0.0
  0
LINE
  5
8F
330
60
100
AcDbEntity
  8
SRF243038_001_SE
  6
CONTINUOUS
 62
     7
100
AcDbLine
 10
165.449413731
 20
132.7599015887
 30
0.0
 11
154.8463281583
 21
132.7599015887
 31
0.0
  0
LINE
  5
90
330
60
100
AcDbEntity
  8
SRF243038_001_SE
  6
CONTINUOUS
 62
     7
100
AcDbLine
 10
154.8463281583
 20
132.7599015887
 30
0.0
 11
154.649413731
 21
132.5629871614
 31
0.0
  0
LINE
  5
91
330
60
100
AcDbEntity
  8
SRF243038_001_SE
  6
CONTINUOUS
 62
     7
100
AcDbLine
 10
154.649413731
 20
90.9568160159
 30
0.0
 11
154.8463281583
 21
90.7599015887
 31
0.0
  0
LINE
  5
93
330
60
100
AcDbEntity
  8
SRF243041_001_SE
  6
CONTINUOUS
 62
     7
100
AcDbLine
 10
176.149413731
 20
123.7599015887
 30
0.0
 11
176.149413731
 21
99.7599015887
 31
0.0
  0
LINE
  5
94
330
60
100
AcDbEntity
  8
SRF243041_001_SE
  6
CONTINUOUS
 62
     7
100
AcDbLine
 10
175.449413731
 20
124.4599015887
 30
0.0
 11
175.449413731
 21
99.0599015887
 31
0.0
  0
LINE
  5
95
330
60
100
AcDbEntity
  8
SRF243041_001_SE
  6
CONTINUOUS
 62
     7
100
AcDbLine
 10
173.899413731
 20
124.4599015887
 30
0.0
 11
173.899413731
 21
99.0599015887
 31
0.0
  0
LINE
  5
96
330
60
100
AcDbEntity
  8
SRF243041_001_SE
  6
CONTINUOUS
 62
     7
100
AcDbLine
 10
173.199413731
 20
123.7599015887
 30
0.0
 11
173.199413731
 21
99.7599015887
 31
0.0
  0
LINE
  5
97
330
60
100
AcDbEntity
  8
SRF243041_001_SE
  6
CONTINUOUS
 62
     7
100
AcDbLine
 10
172.149413731
 20
126.5599015887
 30
0.0
 11
172.149413731
 21
96.9599015887
 31
0.0
  0
LINE
  5
98
330
60
100
AcDbEntity
  8
SRF243041_001_SE
  6
CONTINUOUS
 62
     7
100
AcDbLine
 10
171.949413731
 20
129.0099015887
 30
0.0
 11
171.949413731
 21
94.5099015887
 31
0.0
  0
LINE
  5
99
330
60
100
AcDbEntity
  8
SRF243041_001_SE
  6
CONTINUOUS
 62
     7
100
AcDbLine
 10
171.449413731
 20
129.5099015887
 30
0.0
 11
171.449413731
 21
94.0099015887
 31
0.0
  0
CIRCLE
  5
9A
330
60
100
AcDbEntity
  8
SRF243041_001_SE
  6
CONTINUOUS
 62
     7
100
AcDbCircle
 10
169.149413731
 20
111.7599015887
 30
0.0
 40
0.6750000000000002
  0
ARC
  5
9B
330
60
100
AcDbEntity
  8
SRF243041_001_SE
  6
CONTINUOUS
 62
     7
100
AcDbCircle
 10
169.1494402111
 20
76.2731263455
 30
0.0
 40
17.74961570813765
100
AcDbArc
 50
87.8208376126
 51
92.179509182
  0
ARC
  5
9C
330
60
100
AcDbEntity
  8
SRF243041_001_SE
  6
CONTINUOUS
 62
     7
100
AcDbCircle
 10
169.1494402111
 20
147.2466768318
 30
0.0
 40
17.74961570813765
100
AcDbArc
 50
267.820490818
 51
272.1791623874
  0
LINE
  5
9D
330
60
100
AcDbEntity
  8
SRF243041_001_SE
  6
CONTINUOUS
 62
     7
100
AcDbLine
 10
175.449413731
 20
99.0599015887
 30
0.0
 11
176.149413731
 21
99.7599015887
 31
0.0
  0
LINE
  5
9E
330
60
100
AcDbEntity
  8
SRF243041_001_SE
  6
CONTINUOUS
 62
     7
100
AcDbLine
 10
176.149413731
 20
123.7599015887
 30
0.0
 11
175.449413731
 21
124.4599015887
 31
0.0
  0
LINE
  5
9F
330
60
100
AcDbEntity
  8
SRF243041_001_SE
  6
CONTINUOUS
 62
     7
100
AcDbLine
 10
173.899413731
 20
99.0599015887
 30
0.0
 11
175.449413731
 21
99.0599015887
 31
0.0
  0
LINE
  5
A0
330
60
100
AcDbEntity
  8
SRF243041_001_SE
  6
CONTINUOUS
 62
     7
100
AcDbLine
 10
175.449413731
 20
124.4599015887
 30
0.0
 11
173.899413731
 21
124.4599015887
 31
0.0
  0
LINE
  5
A1
330
60
100
AcDbEntity
  8
SRF243041_001_SE
  6
CONTINUOUS
 62
     7
100
AcDbLine
 10
173.899413731
 20
124.4599015887
 30
0.0
 11
173.199413731
 21
123.7599015887
 31
0.0
  0
LINE
  5
A2
330
60
100
AcDbEntity
  8
SRF243041_001_SE
  6
CONTINUOUS
 62
     7
100
AcDbLine
 10
173.199413731
 20
99.7599015887
 30
0.0
 11
173.899413731
 21
99.0599015887
 31
0.0
  0
LINE
  5
A3
330
60
100
AcDbEntity
  8
SRF243041_001_SE
  6
CONTINUOUS
 62
     7
100
AcDbLine
 10
172.149413731
 20
99.7599015887
 30
0.0
 11
173.199413731
 21
99.7599015887
 31
0.0
  0
LINE
  5
A4
330
60
100
AcDbEntity
  8
SRF243041_001_SE
  6
CONTINUOUS
 62
     7
100
AcDbLine
 10
173.199413731
 20
123.7599015887
 30
0.0
 11
172.149413731
 21
123.7599015887
 31
0.0
  0
LINE
  5
A5
330
60
100
AcDbEntity
  8
SRF243041_001_SE
  6
CONTINUOUS
 62
     7
100
AcDbLine
 10
171.949413731
 20
96.7599015887
 30
0.0
 11
172.149413731
 21
96.9599015887
 31
0.0
  0
LINE
  5
A6
330
60
100
AcDbEntity
  8
SRF243041_001_SE
  6
CONTINUOUS
 62
     7
100
AcDbLine
 10
172.149413731
 20
126.5599015887
 30
0.0
 11
171.949413731
 21
126.7599015887
 31
0.0
  0
LINE
  5
A7
330
60
100
AcDbEntity
  8
SRF243041_001_SE
  6
CONTINUOUS
 62
     7
100
AcDbLine
 10
171.449413731
 20
94.0099015887
 30
0.0
 11
171.949413731
 21
94.5099015887
 31
0.0
  0
LINE
  5
A8
330
60
100
AcDbEntity
  8
SRF243041_001_SE
  6
CONTINUOUS
 62
     7
100
AcDbLine
 10
171.949413731
 20
129.0099015887
 30
0.0
 11
171.449413731
 21
129.5099015887
 31
0.0
  0
LINE
  5
A9
330
60
100
AcDbEntity
  8
SRF243041_001_SE
  6
CONTINUOUS
 62
     7
100
AcDbLine
 10
169.8157705142
 20
94.0099015887
 30
0.0
 11
171.449413731
 21
94.0099015887
 31
0.0
  0
LINE
  5
AA
330
60
100
AcDbEntity
  8
SRF243041_001_SE
  6
CONTINUOUS
 62
     7
100
AcDbLine
 10
167.449413731
 20
94.0099015887
 30
0.0
 11
168.4754882594
 21
94.0099015887
 31
0.0
  0
LINE
  5
AB
330
60
100
AcDbEntity
  8
SRF243041_001_SE
  6
CONTINUOUS
 62
     7
100
AcDbLine
 10
168.4754882594
 20
129.5099015887
 30
0.0
 11
167.449413731
 21
129.5099015887
 31
0.0
  0
LINE
  5
AC
330
60
100
AcDbEntity
  8
SRF243041_001_SE
  6
CONTINUOUS
 62
     7
100
AcDbLine
 10
171.449413731
 20
129.5099015887
 30
0.0
 11
169.8157705142
 21
129.5099015887
 31
0.0
  0
ARC
  5
AD
330
60
100
AcDbEntity
  8
SRF243041_001_SE
  6
CONTINUOUS
 62
     7
100
AcDbCircle
 10
169.149413731
 20
111.7599015887
 30
0.0
 40
0.8500000000000001
100
AcDbArc
 50
75.0
 51
15.0
  0
LINE
  5
AF
330
60
100
AcDbEntity
  8
ST17_20_001_SEP-
  6
CONTINUOUS
 62
     7
100
AcDbLine
 10
169.795920196
 20
111.9199015887
 30
0.0
 11
168.5011538539
 21
111.9199015887
 31
0.0
  0
LINE
  5
B0
330
60
100
AcDbEntity
  8
ST17_20_001_SEP-
  6
CONTINUOUS
 62
     7
100
AcDbLine
 10
169.8031199302
 20
111.5999015887
 30
0.0
 11
168.5020941198
 21
111.5999015887
 31
0.0
  0
LINE
  5
B2
330
60
100
AcDbEntity
  8
SCALE_001_SEP-00
  6
CONTINUOUS
 62
     7
100
AcDbLine
 10
112.549413731
 20
132.5599102488
 30
0.0
 11
112.549413731
 21
90.9598929286
 31
0.0
  0
LINE
  5
B3
330
60
100
AcDbEntity
  8
SCALE_001_SEP-00
  6
CONTINUOUS
 62
     7
100
AcDbLine
 10
112.749409401
 20
132.7599059187
 30
0.0
 11
112.749409401
 21
90.7598972587
 31
0.0
  0
LINE
  5
B4
330
60
100
AcDbEntity
  8
SCALE_001_SEP-00
  6
CONTINUOUS
 62
     7
100
AcDbLine
 10
141.449413731
 20
132.7599059187
 30
0.0
 11
141.449413731
 21
90.7598972587
 31
0.0
  0
LINE
  5
B5
330
60
100
AcDbEntity
  8
SCALE_001_SEP-00
  6
CONTINUOUS
 62
     7
100
AcDbLine
 10
141.6494158961
 20
132.5599037537
 30
0.0
 11
141.6494158961
 21
90.9598994237
 31
0.0
  0
SPLINE
  5
B6
330
60
100
AcDbEntity
  8
SCALE_001_SEP-00
  6
CONTINUOUS
 62
     7
100
AcDbSpline
210
0.0
220
0.0
230
1.0
 70
    11
 71
     3
 72
    15
 73
    11
 74
     0
 42
0.0000000024815383
 43
0.0000000001
 40
0.0
 40
0.0
 40
0.0
 40
0.0
 40
0.1248116620851425
 40
0.2499989954743141
 40
0.3751989476878876
 40
0.5001142238573079
 40
0.6249256927661904
 40
0.7500673438552379
 40
0.8752440251227749
 40
1.0
 40
1.0
 40
1.0
 40
1.0
 10
132.8494137310314
 20
93.19806074044708
 30
0.0
 10
132.650634102775
 20
93.19807483439254
 30
0.0
 10
132.2525557657258
 20
93.28043589935322
 30
0.0
 10
131.989912900433
 20
93.57045834000583
 30
0.0
 10
132.2527982139624
 20
93.87843635217492
 30
0.0
 10
132.8500757043788
 20
94.0209894489473
 30
0.0
 10
133.4472192889554
 20
93.87820327871427
 30
0.0
 10
133.7086413873444
 20
93.57014150241525
 30
0.0
 10
133.4462357507443
 20
93.28029269222343
 30
0.0
 10
133.0481046697992
 20
93.19804665278991
 30
0.0
 10
132.8494137310314
 20
93.19806074044708
 30
0.0
  0
SPLINE
  5
B7
330
60
100
AcDbEntity
  8
SCALE_001_SEP-00
  6
CONTINUOUS
 62
     7
100
AcDbSpline
210
0.0
220
0.0
230
1.0
 70
     8
 71
     3
 72
    10
 73
     6
 74
     0
 42
0.0000000030629738
 43
0.0000000001
 40
0.0
 40
0.0
 40
0.0
 40
0.0
 40
0.1249577184164847
 40
0.2499392421265831
 40
0.3514711278385733
 40
0.3514711278385733
 40
0.3514711278385733
 40
0.3514711278385733
 10
132.8494137310314
 20
93.33207144697764
 30
0.0
 10
133.0256768586791
 20
93.33284589153828
 30
0.0
 10
133.3782554251511
 20
93.4043158618467
 30
0.0
 10
133.5836935253988
 20
93.63691104713456
 30
0.0
 10
133.4763540468672
 20
93.80210101777796
 30
0.0
 10
133.3915049516044
 20
93.86247582350535
 30
0.0
  0
SPLINE
  5
B8
330
60
100
AcDbEntity
  8
SCALE_001_SEP-00
  6
CONTINUOUS
 62
     7
100
AcDbSpline
210
0.0
220
0.0
230
1.0
 70
     8
 71
     3
 72
    10
 73
     6
 74
     0
 42
0.0000000030490216
 43
0.0000000001
 40
0.6485691130944959
 40
0.6485691130944959
 40
0.6485691130944959
 40
0.6485691130944959
 40
0.7499775401881041
 40
0.8749771150363034
 40
1.0
 40
1.0
 40
1.0
 40
1.0
 10
132.3072313099226
 20
93.86534030574475
 30
0.0
 10
132.222507057953
 20
93.80460456579142
 30
0.0
 10
132.115171532239
 20
93.63675594796163
 30
0.0
 10
132.3204002084789
 20
93.39972773658748
 30
0.0
 10
132.6730586806152
 20
93.33129659853736
 30
0.0
 10
132.8494137310314
 20
93.33207144697764
 30
0.0
  0
SPLINE
  5
B9
330
60
100
AcDbEntity
  8
SCALE_001_SEP-00
  6
CONTINUOUS
 62
     7
100
AcDbSpline
210
0.0
220
0.0
230
1.0
 70
    11
 71
     3
 72
    15
 73
    11
 74
     0
 42
0.0000000024832771
 43
0.0000000001
 40
0.0
 40
0.0
 40
0.0
 40
0.0
 40
0.1248116620851423
 40
0.2499989954743146
 40
0.3751989476878876
 40
0.5001142238573074
 40
0.62492569276619
 40
0.7500673438552361
 40
0.8752440251227765
 40
1.0
 40
1.0
 40
1.0
 40
1.0
 10
132.8494137310314
 20
129.5463310886774
 30
0.0
 10
132.650634102775
 20
129.5463472006982
 30
0.0
 10
132.2525557657258
 20
129.6416253627533
 30
0.0
 10
131.989912900433
 20
129.9494890963671
 30
0.0
 10
132.2527982139624
 20
130.2396020245947
 30
0.0
 10
132.8500757043788
 20
130.3628137701682
 30
0.0
 10
133.4472192889554
 20
130.2393942885498
 30
0.0
 10
133.7086413873444
 20
129.9491723245617
 30
0.0
 10
133.4462357507442
 20
129.6414608505207
 30
0.0
 10
133.0481046697992
 20
129.5463149838452
 30
0.0
 10
132.8494137310314
 20
129.5463310886774
 30
0.0
  0
SPLINE
  5
BA
330
60
100
AcDbEntity
  8
SCALE_001_SEP-00
  6
CONTINUOUS
 62
     7
100
AcDbSpline
210
0.0
220
0.0
230
1.0
 70
     8
 71
     3
 72
    13
 73
     9
 74
     0
 42
0.0000000030469757
 43
0.0000000001
 40
0.1485192098351462
 40
0.1485192098351462
 40
0.1485192098351462
 40
0.1485192098351462
 40
0.2499392421265815
 40
0.3748548500785939
 40
0.4998396165477609
 40
0.62489665400187
 40
0.7499775401881053
 40
0.8513005692546864
 40
0.8513005692546864
 40
0.8513005692546864
 40
0.8513005692546864
 10
133.39147841563
 20
129.6543804305921
 30
0.0
 10
133.4762442593373
 20
129.7151064019619
 30
0.0
 10
133.5836219341906
 20
129.8828844559494
 30
0.0
 10
133.3787537964348
 20
130.1198595738475
 30
0.0
 10
132.8501240664954
 20
130.2227279113147
 30
0.0
 10
132.3206929237161
 20
130.1156274616685
 30
0.0
 10
132.11519113453
 20
129.8830083962126
 30
0.0
 10
132.2223557755941
 20
129.7179236849547
 30
0.0
 10
132.3069131182486
 20
129.6576265318312
 30
0.0
  0
ARC
  5
BB
330
60
100
AcDbEntity
  8
SCALE_001_SEP-00
  6
CONTINUOUS
 62
     7
100
AcDbCircle
 10
132.8493741315
 20
153.7509938557
 30
0.0
 40
21.0027593216662
100
AcDbArc
 50
268.0901459712
 51
271.9099278537
  0
ARC
  5
BC
330
60
100
AcDbEntity
  8
SCALE_001_SEP-00
  6
CONTINUOUS
 62
     7
100
AcDbCircle
 10
138.6494137312
 20
153.2788112002
 30
0.0
 40
20.53834731597222
100
AcDbArc
 50
267.5067836674
 51
272.4932165262
  0
LINE
  5
BD
330
60
100
AcDbEntity
  8
SCALE_001_SEP-00
  6
CONTINUOUS
 62
     7
100
AcDbLine
 10
112.749409401
 20
132.7599059187
 30
0.0
 11
112.549413731
 21
132.5599102488
 31
0.0
  0
LINE
  5
BE
330
60
100
AcDbEntity
  8
SCALE_001_SEP-00
  6
CONTINUOUS
 62
     7
100
AcDbLine
 10
112.549413731
 20
90.9598929286
 30
0.0
 11
112.749409401
 21
90.7598972587
 31
0.0
  0
LINE
  5
BF
330
60
100
AcDbEntity
  8
SCALE_001_SEP-00
  6
CONTINUOUS
 62
     7
100
AcDbLine
 10
112.749409401
 20
90.7598972587
 30
0.0
 11
141.449413731
 21
90.7598972587
 31
0.0
  0
LINE
  5
C0
330
60
100
AcDbEntity
  8
SCALE_001_SEP-00
  6
CONTINUOUS
 62
     7
100
AcDbLine
 10
132.1494137278
 20
132.7599059187
 30
0.0
 11
112.749409401
 21
132.7599059187
 31
0.0
  0
LINE
  5
C1
330
60
100
AcDbEntity
  8
SCALE_001_SEP-00
  6
CONTINUOUS
 62
     7
100
AcDbLine
 10
137.7560492194
 20
132.7599059187
 30
0.0
 11
133.5408482615
 21
132.7599059187
 31
0.0
  0
LINE
  5
C2
330
60
100
AcDbEntity
  8
SCALE_001_SEP-00
  6
CONTINUOUS
 62
     7
100
AcDbLine
 10
141.449413731
 20
132.7599059187
 30
0.0
 11
139.5428398795
 21
132.7599059187
 31
0.0
  0
LINE
  5
C3
330
60
100
AcDbEntity
  8
SCALE_001_SEP-00
  6
CONTINUOUS
 62
     7
100
AcDbLine
 10
141.449413731
 20
90.7598972587
 30
0.0
 11
141.6494158961
 21
90.9598994237
 31
0.0
  0
LINE
  5
C4
330
60
100
AcDbEntity
  8
SCALE_001_SEP-00
  6
CONTINUOUS
 62
     7
100
AcDbLine
 10
141.6494158961
 20
132.5599037537
 30
0.0
 11
141.449413731
 21
132.7599059187
 31
0.0
  0
LINE
  5
C6
330
60
100
AcDbEntity
  8
STOP_SCALE_001_S
  6
CONTINUOUS
 62
     7
100
AcDbLine
 10
139.349413731
 20
133.0899005062
 30
0.0
 11
137.949413731
 21
133.0899005062
 31
0.0
  0
LINE
  5
C7
330
60
100
AcDbEntity
  8
STOP_SCALE_001_S
  6
CONTINUOUS
 62
     7
100
AcDbLine
 10
139.329413731
 20
133.1099005062
 30
0.0
 11
137.969413731
 21
133.1099005062
 31
0.0
  0
LINE
  5
C8
330
60
100
AcDbEntity
  8
STOP_SCALE_001_S
  6
CONTINUOUS
 62
     7
100
AcDbLine
 10
137.949413731
 20
133.0899005062
 30
0.0
 11
137.949413731
 21
132.7528899292
 31
0.0
  0
LINE
  5
C9
330
60
100
AcDbEntity
  8
STOP_SCALE_001_S
  6
CONTINUOUS
 62
     7
100
AcDbLine
 10
139.349413731
 20
132.7529087523
 30
0.0
 11
139.349413731
 21
133.0899005062
 31
0.0
  0
LINE
  5
CA
330
60
100
AcDbEntity
  8
STOP_SCALE_001_S
  6
CONTINUOUS
 62
     7
100
AcDbLine
 10
139.349413731
 20
133.0899005062
 30
0.0
 11
139.329413731
 21
133.1099005062
 31
0.0
  0
LINE
  5
CB
330
60
100
AcDbEntity
  8
STOP_SCALE_001_S
  6
CONTINUOUS
 62
     7
100
AcDbLine
 10
137.969413731
 20
133.1099005062
 30
0.0
 11
137.949413731
 21
133.0899005062
 31
0.0
  0
LINE
  5
CC
330
60
100
AcDbEntity
  8
ST17_20_001_SEP-
  6
CONTINUOUS
 62
     7
100
AcDbLine
 10
133.3025012028
 20
129.6367236365
 30
0.0
 11
132.396752535
 21
129.6367236365
 31
0.0
  0
LINE
  5
CD
330
60
100
AcDbEntity
  8
ST17_20_001_SEP-
  6
CONTINUOUS
 62
     7
100
AcDbLine
 10
133.302872312
 20
93.8830795409
 30
0.0
 11
132.3966167754
 21
93.8830795409
 31
0.0
  0
LINE
  5
CF
330
60
100
AcDbEntity
  8
USHIROWAKU_001_S
  6
CONTINUOUS
 62
     7
100
AcDbLine
 10
177.730873731
 20
122.7099015887
 30
0.0
 11
177.730873731
 21
100.8099015887
 31
0.0
  0
LINE
  5
D0
330
60
100
AcDbEntity
  8
USHIROWAKU_001_S
  6
CONTINUOUS
 62
     7
100
AcDbLine
 10
177.530873731
 20
122.9099015887
 30
0.0
 11
177.530873731
 21
100.6099015887
 31
0.0
  0
LINE
  5
D1
330
60
100
AcDbEntity
  8
USHIROWAKU_001_S
  6
CONTINUOUS
 62
     7
100
AcDbLine
 10
177.530873731
 20
100.6099015887
 30
0.0
 11
177.730873731
 21
100.8099015887
 31
0.0
  0
LINE
  5
D2
330
60
100
AcDbEntity
  8
USHIROWAKU_001_S
  6
CONTINUOUS
 62
     7
100
AcDbLine
 10
177.730873731
 20
122.7099015887
 30
0.0
 11
177.530873731
 21
122.9099015887
 31
0.0
  0
LINE
  5
D3
330
60
100
AcDbEntity
  8
USHIROWAKU_001_S
  6
CONTINUOUS
 62
     7
100
AcDbLine
 10
176.149413731
 20
100.6099015887
 30
0.0
 11
177.530873731
 21
100.6099015887
 31
0.0
  0
LINE
  5
D4
330
60
100
AcDbEntity
  8
USHIROWAKU_001_S
  6
CONTINUOUS
 62
     7
100
AcDbLine
 10
177.530873731
 20
122.9099015887
 30
0.0
 11
176.149413731
 21
122.9099015887
 31
0.0
  0
LINE
  5
D7
330
60
100
AcDbEntity
  8
DV1_デフォルト
  6
DASHDOT2
 62
     7
100
AcDbLine
 10
111.1260283351
 20
111.7599015887
 30
0.0
 11
189.675413731
 21
111.7599015887
 31
0.0
  0
LINE
  5
D8
330
60
100
AcDbEntity
  8
DV1_デフォルト
  6
DASHDOT2
 62
     7
100
AcDbLine
 10
111.796306101
 20
132.0099015887
 30
0.0
 11
115.9833971454
 21
132.0099015887
 31
0.0
  0
LINE
  5
D9
330
60
100
AcDbEntity
  8
DV1_デフォルト
  6
DASHDOT2
 62
     7
100
AcDbLine
 10
111.796306101
 20
91.5099015887
 30
0.0
 11
115.9833971454
 21
91.5099015887
 31
0.0
  0
LINE
  5
DA
330
60
100
AcDbEntity
  8
DV1_デフォルト
  6
CONTINUOUS
 62
     7
100
AcDbLine
 10
189.675413731
 20
111.7599015887
 30
0.0
 11
191.7967340746
 21
113.8812219323
 31
0.0
  0
LINE
  5
DB
330
60
100
AcDbEntity
  8
DV1_デフォルト
  6
CONTINUOUS
 62
     7
100
AcDbLine
 10
189.675413731
 20
111.7599015887
 30
0.0
 11
187.5540933875
 21
113.8812219323
 31
0.0
  0
LINE
  5
DC
330
60
100
AcDbEntity
  8
DV1_デフォルト
  6
CONTINUOUS
 62
     7
100
AcDbLine
 10
189.675413731
 20
111.7599015887
 30
0.0
 11
187.5540933875
 21
109.6385812451
 31
0.0
  0
LINE
  5
DD
330
60
100
AcDbEntity
  8
DV1_デフォルト
  6
CONTINUOUS
 62
     7
100
AcDbLine
 10
189.675413731
 20
111.7599015887
 30
0.0
 11
191.7967340746
 21
109.6385812451
 31
0.0
  0
ENDBLK
  5
DF
330
60
100
AcDbEntity
  8
0
100
AcDbBlockEnd
  0
BLOCK
  5
E8
330
E0
100
AcDbEntity
  8
0
100
AcDbBlockBegin
  2
GDIMGGROUP
 70
     0
 10
0.0
 20
0.0
 30
0.0
  3
GDIMGGROUP
  1

  0
POLYLINE
  5
E2
330
E0
100
AcDbEntity
  8
DEFAULT
  6
CONTINUOUS
 62
   136
100
AcDb2dPolyline
 66
     1
 10
0.0
 20
0.0
 30
0.0
  0
VERTEX
  5
139
330
E2
100
AcDbEntity
  8
DEFAULT
  6
CONTINUOUS
 62
   136
100
AcDbVertex
100
AcDb2dVertex
 10
106.6264774846
 20
128.8099016695
 30
0.0
  0
VERTEX
  5
13A
330
E2
100
AcDbEntity
  8
DEFAULT
  6
CONTINUOUS
 62
   136
100
AcDbVertex
100
AcDb2dVertex
 10
106.0931441647
 20
132.0099015887
 30
0.0
  0
VERTEX
  5
13B
330
E2
100
AcDbEntity
  8
DEFAULT
  6
CONTINUOUS
 62
   136
100
AcDbVertex
100
AcDb2dVertex
 10
105.5598108449
 20
128.8099016695
 30
0.0
  0
SEQEND
  5
13C
330
E2
100
AcDbEntity
  8
DEFAULT
  6
CONTINUOUS
 62
   136
  0
POLYLINE
  5
E3
330
E0
100
AcDbEntity
  8
DEFAULT
  6
CONTINUOUS
 62
   136
100
AcDb2dPolyline
 66
     1
 10
0.0
 20
0.0
 30
0.0
  0
VERTEX
  5
13D
330
E3
100
AcDbEntity
  8
DEFAULT
  6
CONTINUOUS
 62
   136
100
AcDbVertex
100
AcDb2dVertex
 10
106.6264774846
 20
94.7099013886
 30
0.0
  0
VERTEX
  5
13E
330
E3
100
AcDbEntity
  8
DEFAULT
  6
CONTINUOUS
 62
   136
100
AcDbVertex
100
AcDb2dVertex
 10
106.0931441647
 20
91.5099014695
 30
0.0
  0
VERTEX
  5
13F
330
E3
100
AcDbEntity
  8
DEFAULT
  6
CONTINUOUS
 62
   136
100
AcDbVertex
100
AcDb2dVertex
 10
105.5598108449
 20
94.7099013886
 30
0.0
  0
SEQEND
  5
140
330
E3
100
AcDbEntity
  8
DEFAULT
  6
CONTINUOUS
 62
   136
  0
LINE
  5
E4
330
E0
100
AcDbEntity
  8
DEFAULT
  6
CONTINUOUS
 62
   136
100
AcDbLine
 10
110.5163061333
 20
132.0099015887
 30
0.0
 11
104.4931442051
 21
132.0099015887
 31
0.0
  0
LINE
  5
E5
330
E0
100
AcDbEntity
  8
DEFAULT
  6
CONTINUOUS
 62
   136
100
AcDbLine
 10
110.5163061333
 20
91.5099015887
 30
0.0
 11
104.4931442051
 21
91.5099015887
 31
0.0
  0
LINE
  5
E6
330
E0
100
AcDbEntity
  8
DEFAULT
  6
CONTINUOUS
 62
   136
100
AcDbLine
 10
106.0931441647
 20
132.0099015887
 30
0.0
 11
106.0931441647
 21
91.5099014695
 31
0.0
  0
TEXT
  5
E7
330
E0
100
AcDbEntity
  8
DEFAULT
  6
CONTINUOUS
 62
   136
100
AcDbText
 10
105.2931441647
 20
99.7299828299
 30
0.0
 40
3.2
  1
M40.5 P=0.5
 50
90.0
  7
SEACAD_SEANSI_TTF
 11
102.0931441647
 21
99.7299828299
 31
0.0
100
AcDbText
 73
     3
  0
ENDBLK
  5
E9
330
E0
100
AcDbEntity
  8
0
100
AcDbBlockEnd
  0
BLOCK
  5
F4
330
EA
100
AcDbEntity
  8
0
100
AcDbBlockBegin
  2
GDIMGGROUP1
 70
     0
 10
0.0
 20
0.0
 30
0.0
  3
GDIMGGROUP1
  1

  0
POLYLINE
  5
EC
330
EA
100
AcDbEntity
  8
DEFAULT
  6
CONTINUOUS
 62
   136
100
AcDb2dPolyline
 66
     1
 10
0.0
 20
0.0
 30
0.0
  0
VERTEX
  5
141
330
EC
100
AcDbEntity
  8
DEFAULT
  6
CONTINUOUS
 62
   136
100
AcDbVertex
100
AcDb2dVertex
 10
100.2264775306
 20
129.5599059996
 30
0.0
  0
VERTEX
  5
142
330
EC
100
AcDbEntity
  8
DEFAULT
  6
CONTINUOUS
 62
   136
100
AcDbVertex
100
AcDb2dVertex
 10
99.6931442107
 20
132.7599059187
 30
0.0
  0
VERTEX
  5
143
330
EC
100
AcDbEntity
  8
DEFAULT
  6
CONTINUOUS
 62
   136
100
AcDbVertex
100
AcDb2dVertex
 10
99.1598108909
 20
129.5599059996
 30
0.0
  0
SEQEND
  5
144
330
EC
100
AcDbEntity
  8
DEFAULT
  6
CONTINUOUS
 62
   136
  0
POLYLINE
  5
ED
330
EA
100
AcDbEntity
  8
DEFAULT
  6
CONTINUOUS
 62
   136
100
AcDb2dPolyline
 66
     1
 10
0.0
 20
0.0
 30
0.0
  0
VERTEX
  5
145
330
ED
100
AcDbEntity
  8
DEFAULT
  6
CONTINUOUS
 62
   136
100
AcDbVertex
100
AcDb2dVertex
 10
100.2264775306
 20
93.9598989536
 30
0.0
  0
VERTEX
  5
146
330
ED
100
AcDbEntity
  8
DEFAULT
  6
CONTINUOUS
 62
   136
100
AcDbVertex
100
AcDb2dVertex
 10
99.6931442107
 20
90.7598990344
 30
0.0
  0
VERTEX
  5
147
330
ED
100
AcDbEntity
  8
DEFAULT
  6
CONTINUOUS
 62
   136
100
AcDbVertex
100
AcDb2dVertex
 10
99.1598108909
 20
93.9598989536
 30
0.0
  0
SEQEND
  5
148
330
ED
100
AcDbEntity
  8
DEFAULT
  6
CONTINUOUS
 62
   136
  0
LINE
  5
EE
330
EA
100
AcDbEntity
  8
DEFAULT
  6
CONTINUOUS
 62
   136
100
AcDbLine
 10
111.4694094333
 20
132.7599059187
 30
0.0
 11
98.0931442512
 21
132.7599059187
 31
0.0
  0
LINE
  5
EF
330
EA
100
AcDbEntity
  8
DEFAULT
  6
CONTINUOUS
 62
   136
100
AcDbLine
 10
111.4694094333
 20
90.7598972587
 30
0.0
 11
98.0931442512
 21
90.7598972587
 31
0.0
  0
LINE
  5
F0
330
EA
100
AcDbEntity
  8
DEFAULT
  6
CONTINUOUS
 62
   136
100
AcDbLine
 10
99.6931442107
 20
132.7599059187
 30
0.0
 11
99.6931442107
 21
90.7598990344
 31
0.0
  0
TEXT
  5
F2
330
EA
100
AcDbEntity
  8
DEFAULT
  6
CONTINUOUS
 62
   136
100
AcDbText
 10
98.8931442107
 20
107.4338776584
 30
0.0
 40
3.2
  1
O
 50
90.0
  7
SEACAD_SEMECA1_TTF
 11
95.6931442107
 21
107.4338776584
 31
0.0
100
AcDbText
 73
     3
  0
TEXT
  5
F3
330
EA
100
AcDbEntity
  8
DEFAULT
  6
CONTINUOUS
 62
   136
100
AcDbText
 10
98.8931442107
 20
111.4030004654
 30
0.0
 40
3.2
  1
42
 50
90.0
  7
SEACAD_SEANSI_TTF
 11
95.6931442107
 21
111.4030004654
 31
0.0
100
AcDbText
 73
     3
  0
ENDBLK
  5
F5
330
EA
100
AcDbEntity
  8
0
100
AcDbBlockEnd
  0
BLOCK
  5
FE
330
F6
100
AcDbEntity
  8
0
100
AcDbBlockBegin
  2
GDIMGGROUP2
 70
     0
 10
0.0
 20
0.0
 30
0.0
  3
GDIMGGROUP2
  1

  0
POLYLINE
  5
F8
330
F6
100
AcDbEntity
  8
DEFAULT
  6
CONTINUOUS
 62
   136
100
AcDb2dPolyline
 66
     1
 10
0.0
 20
0.0
 30
0.0
  0
VERTEX
  5
149
330
F8
100
AcDbEntity
  8
DEFAULT
  6
CONTINUOUS
 62
   136
100
AcDbVertex
100
AcDb2dVertex
 10
208.1204049546
 20
121.2599016695
 30
0.0
  0
VERTEX
  5
14A
330
F8
100
AcDbEntity
  8
DEFAULT
  6
CONTINUOUS
 62
   136
100
AcDbVertex
100
AcDb2dVertex
 10
208.6537382745
 20
124.4599015887
 30
0.0
  0
VERTEX
  5
14B
330
F8
100
AcDbEntity
  8
DEFAULT
  6
CONTINUOUS
 62
   136
100
AcDbVertex
100
AcDb2dVertex
 10
209.1870715944
 20
121.2599016695
 30
0.0
  0
SEQEND
  5
14C
330
F8
100
AcDbEntity
  8
DEFAULT
  6
CONTINUOUS
 62
   136
  0
POLYLINE
  5
F9
330
F6
100
AcDbEntity
  8
DEFAULT
  6
CONTINUOUS
 62
   136
100
AcDb2dPolyline
 66
     1
 10
0.0
 20
0.0
 30
0.0
  0
VERTEX
  5
14D
330
F9
100
AcDbEntity
  8
DEFAULT
  6
CONTINUOUS
 62
   136
100
AcDbVertex
100
AcDb2dVertex
 10
208.1204049546
 20
102.2599018148
 30
0.0
  0
VERTEX
  5
14E
330
F9
100
AcDbEntity
  8
DEFAULT
  6
CONTINUOUS
 62
   136
100
AcDbVertex
100
AcDb2dVertex
 10
208.6537382745
 20
99.0599018957
 30
0.0
  0
VERTEX
  5
14F
330
F9
100
AcDbEntity
  8
DEFAULT
  6
CONTINUOUS
 62
   136
100
AcDbVertex
100
AcDb2dVertex
 10
209.1870715944
 20
102.2599018148
 30
0.0
  0
SEQEND
  5
150
330
F9
100
AcDbEntity
  8
DEFAULT
  6
CONTINUOUS
 62
   136
  0
LINE
  5
FA
330
F6
100
AcDbEntity
  8
DEFAULT
  6
CONTINUOUS
 62
   136
100
AcDbLine
 10
176.7294136987
 20
124.4599015887
 30
0.0
 11
210.2537382341
 21
124.4599015887
 31
0.0
  0
LINE
  5
FB
330
F6
100
AcDbEntity
  8
DEFAULT
  6
CONTINUOUS
 62
   136
100
AcDbLine
 10
176.7294136987
 20
99.0599015887
 30
0.0
 11
210.2537382341
 21
99.0599015887
 31
0.0
  0
LINE
  5
FC
330
F6
100
AcDbEntity
  8
DEFAULT
  6
CONTINUOUS
 62
   136
100
AcDbLine
 10
208.6537382745
 20
124.4599015887
 30
0.0
 11
208.6537382745
 21
99.0599018957
 31
0.0
  0
TEXT
  5
FD
330
F6
100
AcDbEntity
  8
DEFAULT
  6
CONTINUOUS
 62
   136
100
AcDbText
 10
207.8537382745
 20
100.0877066202
 30
0.0
 40
3.2
  1
1-32UN-2A
 50
90.0
  7
SEACAD_SEANSI_TTF
 11
204.6537382745
 21
100.0877066202
 31
0.0
100
AcDbText
 73
     3
  0
ENDBLK
  5
FF
330
F6
100
AcDbEntity
  8
0
100
AcDbBlockEnd
  0
BLOCK
  5
108
330
100
100
AcDbEntity
  8
0
100
AcDbBlockBegin
  2
GDIMGGROUP3
 70
     0
 10
0.0
 20
0.0
 30
0.0
  3
GDIMGGROUP3
  1

  0
POLYLINE
  5
102
330
100
100
AcDbEntity
  8
DEFAULT
  6
CONTINUOUS
 62
   136
100
AcDb2dPolyline
 66
     1
 10
0.0
 20
0.0
 30
0.0
  0
VERTEX
  5
151
330
102
100
AcDbEntity
  8
DEFAULT
  6
CONTINUOUS
 62
   136
100
AcDbVertex
100
AcDb2dVertex
 10
175.3494136502
 20
76.5099207669
 30
0.0
  0
VERTEX
  5
152
330
102
100
AcDbEntity
  8
DEFAULT
  6
CONTINUOUS
 62
   136
100
AcDbVertex
100
AcDb2dVertex
 10
172.149413731
 20
75.9765874471
 30
0.0
  0
VERTEX
  5
153
330
102
100
AcDbEntity
  8
DEFAULT
  6
CONTINUOUS
 62
   136
100
AcDbVertex
100
AcDb2dVertex
 10
175.3494136502
 20
75.4432541272
 30
0.0
  0
SEQEND
  5
154
330
102
100
AcDbEntity
  8
DEFAULT
  6
CONTINUOUS
 62
   136
  0
POLYLINE
  5
103
330
100
100
AcDbEntity
  8
DEFAULT
  6
CONTINUOUS
 62
   136
100
AcDb2dPolyline
 66
     1
 10
0.0
 20
0.0
 30
0.0
  0
VERTEX
  5
155
330
103
100
AcDbEntity
  8
DEFAULT
  6
CONTINUOUS
 62
   136
100
AcDbVertex
100
AcDb2dVertex
 10
186.47541455
 20
76.5099207669
 30
0.0
  0
VERTEX
  5
156
330
103
100
AcDbEntity
  8
DEFAULT
  6
CONTINUOUS
 62
   136
100
AcDbVertex
100
AcDb2dVertex
 10
189.6754144692
 20
75.9765874471
 30
0.0
  0
VERTEX
  5
157
330
103
100
AcDbEntity
  8
DEFAULT
  6
CONTINUOUS
 62
   136
100
AcDbVertex
100
AcDb2dVertex
 10
186.47541455
 20
75.4432541272
 30
0.0
  0
SEQEND
  5
158
330
103
100
AcDbEntity
  8
DEFAULT
  6
CONTINUOUS
 62
   136
  0
LINE
  5
104
330
100
100
AcDbEntity
  8
DEFAULT
  6
CONTINUOUS
 62
   136
100
AcDbLine
 10
172.149413731
 20
95.679901621
 30
0.0
 11
172.149413731
 21
74.3765874875
 31
0.0
  0
LINE
  5
105
330
100
100
AcDbEntity
  8
DEFAULT
  6
CONTINUOUS
 62
   136
100
AcDbLine
 10
189.675413731
 20
110.479901621
 30
0.0
 11
189.675413731
 21
74.3765874875
 31
0.0
  0
LINE
  5
106
330
100
100
AcDbEntity
  8
DEFAULT
  6
CONTINUOUS
 62
   136
100
AcDbLine
 10
172.149413731
 20
75.9765874471
 30
0.0
 11
189.6754144692
 21
75.9765874471
 31
0.0
  0
TEXT
  5
107
330
100
100
AcDbEntity
  8
DEFAULT
  6
CONTINUOUS
 62
   136
100
AcDbText
 10
174.5709506855
 20
76.7765874471
 30
0.0
 40
3.2
  1
17.526
  7
SEACAD_SEANSI_TTF
 11
174.5709506855
 21
79.9765874471
 31
0.0
100
AcDbText
 73
     3
  0
ENDBLK
  5
109
330
100
100
AcDbEntity
  8
0
100
AcDbBlockEnd
  0
BLOCK
  5
113
330
10A
100
AcDbEntity
  8
0
100
AcDbBlockBegin
  2
GDIMGGROUP4
 70
     0
 10
0.0
 20
0.0
 30
0.0
  3
GDIMGGROUP4
  1

  0
POLYLINE
  5
10C
330
10A
100
AcDbEntity
  8
DEFAULT
  6
CONTINUOUS
 62
   136
100
AcDb2dPolyline
 66
     1
 10
0.0
 20
0.0
 30
0.0
  0
VERTEX
  5
159
330
10C
100
AcDbEntity
  8
DEFAULT
  6
CONTINUOUS
 62
   136
100
AcDbVertex
100
AcDb2dVertex
 10
201.7204033999
 20
119.7099016695
 30
0.0
  0
VERTEX
  5
15A
330
10C
100
AcDbEntity
  8
DEFAULT
  6
CONTINUOUS
 62
   136
100
AcDbVertex
100
AcDb2dVertex
 10
202.2537367197
 20
122.9099015887
 30
0.0
  0
VERTEX
  5
15B
330
10C
100
AcDbEntity
  8
DEFAULT
  6
CONTINUOUS
 62
   136
100
AcDbVertex
100
AcDb2dVertex
 10
202.7870700396
 20
119.7099016695
 30
0.0
  0
SEQEND
  5
15C
330
10C
100
AcDbEntity
  8
DEFAULT
  6
CONTINUOUS
 62
   136
  0
POLYLINE
  5
10D
330
10A
100
AcDbEntity
  8
DEFAULT
  6
CONTINUOUS
 62
   136
100
AcDb2dPolyline
 66
     1
 10
0.0
 20
0.0
 30
0.0
  0
VERTEX
  5
15D
330
10D
100
AcDbEntity
  8
DEFAULT
  6
CONTINUOUS
 62
   136
100
AcDbVertex
100
AcDb2dVertex
 10
201.7204033999
 20
103.8099021367
 30
0.0
  0
VERTEX
  5
15E
330
10D
100
AcDbEntity
  8
DEFAULT
  6
CONTINUOUS
 62
   136
100
AcDbVertex
100
AcDb2dVertex
 10
202.2537367197
 20
100.6099022175
 30
0.0
  0
VERTEX
  5
15F
330
10D
100
AcDbEntity
  8
DEFAULT
  6
CONTINUOUS
 62
   136
100
AcDbVertex
100
AcDb2dVertex
 10
202.7870700396
 20
103.8099021367
 30
0.0
  0
SEQEND
  5
160
330
10D
100
AcDbEntity
  8
DEFAULT
  6
CONTINUOUS
 62
   136
  0
LINE
  5
10E
330
10A
100
AcDbEntity
  8
DEFAULT
  6
CONTINUOUS
 62
   136
100
AcDbLine
 10
178.8108736987
 20
122.9099015887
 30
0.0
 11
203.8537366793
 21
122.9099015887
 31
0.0
  0
LINE
  5
10F
330
10A
100
AcDbEntity
  8
DEFAULT
  6
CONTINUOUS
 62
   136
100
AcDbLine
 10
178.8108736987
 20
100.6099015887
 30
0.0
 11
203.8537366793
 21
100.6099015887
 31
0.0
  0
LINE
  5
110
330
10A
100
AcDbEntity
  8
DEFAULT
  6
CONTINUOUS
 62
   136
100
AcDbLine
 10
202.2537367197
 20
122.9099015887
 30
0.0
 11
202.2537367197
 21
100.6099022175
 31
0.0
  0
TEXT
  5
111
330
10A
100
AcDbEntity
  8
DEFAULT
  6
CONTINUOUS
 62
   136
100
AcDbText
 10
201.4537367197
 20
105.7753404996
 30
0.0
 40
3.2
  1
O
 50
90.0
  7
SEACAD_SEMECA1_TTF
 11
198.2537367197
 21
105.7753404996
 31
0.0
100
AcDbText
 73
     3
  0
TEXT
  5
112
330
10A
100
AcDbEntity
  8
DEFAULT
  6
CONTINUOUS
 62
   136
100
AcDbText
 10
201.4537367197
 20
109.7444633066
 30
0.0
 40
3.2
  1
22.3
 50
90.0
  7
SEACAD_SEANSI_TTF
 11
198.2537367197
 21
109.7444633066
 31
0.0
100
AcDbText
 73
     3
  0
ENDBLK
  5
114
330
10A
100
AcDbEntity
  8
0
100
AcDbBlockEnd
  0
BLOCK
  5
11D
330
115
100
AcDbEntity
  8
0
100
AcDbBlockBegin
  2
GDIMGGROUP5
 70
     0
 10
0.0
 20
0.0
 30
0.0
  3
GDIMGGROUP5
  1

  0
POLYLINE
  5
117
330
115
100
AcDbEntity
  8
DEFAULT
  6
CONTINUOUS
 62
   136
100
AcDb2dPolyline
 66
     1
 10
0.0
 20
0.0
 30
0.0
  0
VERTEX
  5
161
330
117
100
AcDbEntity
  8
DEFAULT
  6
CONTINUOUS
 62
   136
100
AcDbVertex
100
AcDb2dVertex
 10
168.9494138119
 20
89.3099204436
 30
0.0
  0
VERTEX
  5
162
330
117
100
AcDbEntity
  8
DEFAULT
  6
CONTINUOUS
 62
   136
100
AcDbVertex
100
AcDb2dVertex
 10
172.149413731
 20
88.7765871237
 30
0.0
  0
VERTEX
  5
163
330
117
100
AcDbEntity
  8
DEFAULT
  6
CONTINUOUS
 62
   136
100
AcDbVertex
100
AcDb2dVertex
 10
168.9494138119
 20
88.2432538038
 30
0.0
  0
SEQEND
  5
164
330
117
100
AcDbEntity
  8
DEFAULT
  6
CONTINUOUS
 62
   136
  0
POLYLINE
  5
118
330
115
100
AcDbEntity
  8
DEFAULT
  6
CONTINUOUS
 62
   136
100
AcDb2dPolyline
 66
     1
 10
0.0
 20
0.0
 30
0.0
  0
VERTEX
  5
165
330
118
100
AcDbEntity
  8
DEFAULT
  6
CONTINUOUS
 62
   136
100
AcDbVertex
100
AcDb2dVertex
 10
179.3494136502
 20
89.3099204436
 30
0.0
  0
VERTEX
  5
166
330
118
100
AcDbEntity
  8
DEFAULT
  6
CONTINUOUS
 62
   136
100
AcDbVertex
100
AcDb2dVertex
 10
176.149413731
 20
88.7765871237
 30
0.0
  0
VERTEX
  5
167
330
118
100
AcDbEntity
  8
DEFAULT
  6
CONTINUOUS
 62
   136
100
AcDbVertex
100
AcDb2dVertex
 10
179.3494136502
 20
88.2432538038
 30
0.0
  0
SEQEND
  5
168
330
118
100
AcDbEntity
  8
DEFAULT
  6
CONTINUOUS
 62
   136
  0
LINE
  5
119
330
115
100
AcDbEntity
  8
DEFAULT
  6
CONTINUOUS
 62
   136
100
AcDbLine
 10
172.149413731
 20
95.679901621
 30
0.0
 11
172.149413731
 21
87.1765871641
 31
0.0
  0
LINE
  5
11A
330
115
100
AcDbEntity
  8
DEFAULT
  6
CONTINUOUS
 62
   136
100
AcDbLine
 10
176.149413731
 20
98.479901621
 30
0.0
 11
176.149413731
 21
87.1765871641
 31
0.0
  0
LINE
  5
11B
330
115
100
AcDbEntity
  8
DEFAULT
  6
CONTINUOUS
 62
   136
100
AcDbLine
 10
165.7494138927
 20
88.7765871237
 30
0.0
 11
182.5494137593
 21
88.7765871237
 31
0.0
  0
TEXT
  5
11C
330
115
100
AcDbEntity
  8
DEFAULT
  6
CONTINUOUS
 62
   136
100
AcDbText
 10
172.9786821187
 20
89.5765871237
 30
0.0
 40
3.2
  1
4
  7
SEACAD_SEANSI_TTF
 11
172.9786821187
 21
92.7765871237
 31
0.0
100
AcDbText
 73
     3
  0
ENDBLK
  5
11E
330
115
100
AcDbEntity
  8
0
100
AcDbBlockEnd
  0
BLOCK
  5
127
330
11F
100
AcDbEntity
  8
0
100
AcDbBlockBegin
  2
GDIMGGROUP6
 70
     0
 10
0.0
 20
0.0
 30
0.0
  3
GDIMGGROUP6
  1

  0
POLYLINE
  5
121
330
11F
100
AcDbEntity
  8
DEFAULT
  6
CONTINUOUS
 62
   136
100
AcDb2dPolyline
 66
     1
 10
0.0
 20
0.0
 30
0.0
  0
VERTEX
  5
169
330
121
100
AcDbEntity
  8
DEFAULT
  6
CONTINUOUS
 62
   136
100
AcDbVertex
100
AcDb2dVertex
 10
168.9494138119
 20
82.9099210709
 30
0.0
  0
VERTEX
  5
16A
330
121
100
AcDbEntity
  8
DEFAULT
  6
CONTINUOUS
 62
   136
100
AcDbVertex
100
AcDb2dVertex
 10
172.149413731
 20
82.376587751
 30
0.0
  0
VERTEX
  5
16B
330
121
100
AcDbEntity
  8
DEFAULT
  6
CONTINUOUS
 62
   136
100
AcDbVertex
100
AcDb2dVertex
 10
168.9494138119
 20
81.8432544312
 30
0.0
  0
SEQEND
  5
16C
330
121
100
AcDbEntity
  8
DEFAULT
  6
CONTINUOUS
 62
   136
  0
POLYLINE
  5
122
330
11F
100
AcDbEntity
  8
DEFAULT
  6
CONTINUOUS
 62
   136
100
AcDb2dPolyline
 66
     1
 10
0.0
 20
0.0
 30
0.0
  0
VERTEX
  5
16D
330
122
100
AcDbEntity
  8
DEFAULT
  6
CONTINUOUS
 62
   136
100
AcDbVertex
100
AcDb2dVertex
 10
180.9308736502
 20
82.9099210709
 30
0.0
  0
VERTEX
  5
16E
330
122
100
AcDbEntity
  8
DEFAULT
  6
CONTINUOUS
 62
   136
100
AcDbVertex
100
AcDb2dVertex
 10
177.730873731
 20
82.376587751
 30
0.0
  0
VERTEX
  5
16F
330
122
100
AcDbEntity
  8
DEFAULT
  6
CONTINUOUS
 62
   136
100
AcDbVertex
100
AcDb2dVertex
 10
180.9308736502
 20
81.8432544312
 30
0.0
  0
SEQEND
  5
170
330
122
100
AcDbEntity
  8
DEFAULT
  6
CONTINUOUS
 62
   136
  0
LINE
  5
123
330
11F
100
AcDbEntity
  8
DEFAULT
  6
CONTINUOUS
 62
   136
100
AcDbLine
 10
172.149413731
 20
95.679901621
 30
0.0
 11
172.149413731
 21
80.7765877915
 31
0.0
  0
LINE
  5
124
330
11F
100
AcDbEntity
  8
DEFAULT
  6
CONTINUOUS
 62
   136
100
AcDbLine
 10
177.730873731
 20
99.529901621
 30
0.0
 11
177.730873731
 21
80.7765877915
 31
0.0
  0
LINE
  5
125
330
11F
100
AcDbEntity
  8
DEFAULT
  6
CONTINUOUS
 62
   136
100
AcDbLine
 10
165.7494138927
 20
82.376587751
 30
0.0
 11
186.746517662
 21
82.376587751
 31
0.0
  0
TEXT
  5
126
330
11F
100
AcDbEntity
  8
DEFAULT
  6
CONTINUOUS
 62
   136
100
AcDbText
 10
179.9679811513
 20
83.176587751
 30
0.0
 40
3.2
  1
5.6
  7
SEACAD_SEANSI_TTF
 11
179.9679811513
 21
86.376587751
 31
0.0
100
AcDbText
 73
     3
  0
ENDBLK
  5
128
330
11F
100
AcDbEntity
  8
0
100
AcDbBlockEnd
  0
BLOCK
  5
131
330
129
100
AcDbEntity
  8
0
100
AcDbBlockBegin
  2
GDIMGGROUP7
 70
     0
 10
0.0
 20
0.0
 30
0.0
  3
GDIMGGROUP7
  1

  0
POLYLINE
  5
12B
330
129
100
AcDbEntity
  8
DEFAULT
  6
CONTINUOUS
 62
   136
100
AcDb2dPolyline
 66
     1
 10
0.0
 20
0.0
 30
0.0
  0
VERTEX
  5
171
330
12B
100
AcDbEntity
  8
DEFAULT
  6
CONTINUOUS
 62
   136
100
AcDbVertex
100
AcDb2dVertex
 10
168.9494138119
 20
76.5579062313
 30
0.0
  0
VERTEX
  5
172
330
12B
100
AcDbEntity
  8
DEFAULT
  6
CONTINUOUS
 62
   136
100
AcDbVertex
100
AcDb2dVertex
 10
172.149413731
 20
76.0245729114
 30
0.0
  0
VERTEX
  5
173
330
12B
100
AcDbEntity
  8
DEFAULT
  6
CONTINUOUS
 62
   136
100
AcDbVertex
100
AcDb2dVertex
 10
168.9494138119
 20
75.4912395915
 30
0.0
  0
SEQEND
  5
174
330
12B
100
AcDbEntity
  8
DEFAULT
  6
CONTINUOUS
 62
   136
  0
POLYLINE
  5
12C
330
129
100
AcDbEntity
  8
DEFAULT
  6
CONTINUOUS
 62
   136
100
AcDb2dPolyline
 66
     1
 10
0.0
 20
0.0
 30
0.0
  0
VERTEX
  5
175
330
12C
100
AcDbEntity
  8
DEFAULT
  6
CONTINUOUS
 62
   136
100
AcDbVertex
100
AcDb2dVertex
 10
115.7494143118
 20
76.5579062313
 30
0.0
  0
VERTEX
  5
176
330
12C
100
AcDbEntity
  8
DEFAULT
  6
CONTINUOUS
 62
   136
100
AcDbVertex
100
AcDb2dVertex
 10
112.5494143926
 20
76.0245729114
 30
0.0
  0
VERTEX
  5
177
330
12C
100
AcDbEntity
  8
DEFAULT
  6
CONTINUOUS
 62
   136
100
AcDbVertex
100
AcDb2dVertex
 10
115.7494143118
 20
75.4912395915
 30
0.0
  0
SEQEND
  5
178
330
12C
100
AcDbEntity
  8
DEFAULT
  6
CONTINUOUS
 62
   136
  0
LINE
  5
12D
330
129
100
AcDbEntity
  8
DEFAULT
  6
CONTINUOUS
 62
   136
100
AcDbLine
 10
172.149413731
 20
95.679901621
 30
0.0
 11
172.149413731
 21
74.4245729518
 31
0.0
  0
LINE
  5
12E
330
129
100
AcDbEntity
  8
DEFAULT
  6
CONTINUOUS
 62
   136
100
AcDbLine
 10
112.549413731
 20
89.679892961
 30
0.0
 11
112.549413731
 21
74.4245729518
 31
0.0
  0
LINE
  5
12F
330
129
100
AcDbEntity
  8
DEFAULT
  6
CONTINUOUS
 62
   136
100
AcDbLine
 10
172.149413731
 20
76.0245729114
 30
0.0
 11
112.5494143926
 21
76.0245729114
 31
0.0
  0
TEXT
  5
130
330
129
100
AcDbEntity
  8
DEFAULT
  6
CONTINUOUS
 62
   136
100
AcDbText
 10
138.3494140618
 20
76.8245729114
 30
0.0
 40
3.2
  1
60.5
  7
SEACAD_SEANSI_TTF
 11
138.3494140618
 21
80.0245729114
 31
0.0
100
AcDbText
 73
     3
  0
ENDBLK
  5
132
330
129
100
AcDbEntity
  8
0
100
AcDbBlockEnd
  0
ENDSEC
  0
SECTION
  2
ENTITIES
  0
TEXT
  5
5E
330
1F
100
AcDbEntity
  8
DEFAULT
  6
CONTINUOUS
 62
     7
100
AcDbText
 10
172.1350617184
 20
35.4098656507
 30
0.0
 40
3.2
  1
FL-BC1220-9M
  7
SEACAD_SEANSI_TTF
 11
172.1350617184
 21
38.6098656507
 31
0.0
100
AcDbText
 73
     3
  0
INSERT
  5
61
330
1F
100
AcDbEntity
  8
DEFAULT
100
AcDbBlockReference
  2
SE
 10
0.0
 20
0.0
 30
0.0
  0
INSERT
  5
E1
330
1F
100
AcDbEntity
  8
DEFAULT
100
AcDbBlockReference
  2
GDIMGGROUP
 10
0.0
 20
0.0
 30
0.0
  0
INSERT
  5
EB
330
1F
100
AcDbEntity
  8
DEFAULT
100
AcDbBlockReference
  2
GDIMGGROUP1
 10
0.0
 20
0.0
 30
0.0
  0
INSERT
  5
F7
330
1F
100
AcDbEntity
  8
DEFAULT
100
AcDbBlockReference
  2
GDIMGGROUP2
 10
0.0
 20
0.0
 30
0.0
  0
INSERT
  5
101
330
1F
100
AcDbEntity
  8
DEFAULT
100
AcDbBlockReference
  2
GDIMGGROUP3
 10
0.0
 20
0.0
 30
0.0
  0
INSERT
  5
10B
330
1F
100
AcDbEntity
  8
DEFAULT
100
AcDbBlockReference
  2
GDIMGGROUP4
 10
0.0
 20
0.0
 30
0.0
  0
INSERT
  5
116
330
1F
100
AcDbEntity
  8
DEFAULT
100
AcDbBlockReference
  2
GDIMGGROUP5
 10
0.0
 20
0.0
 30
0.0
  0
INSERT
  5
120
330
1F
100
AcDbEntity
  8
DEFAULT
100
AcDbBlockReference
  2
GDIMGGROUP6
 10
0.0
 20
0.0
 30
0.0
  0
INSERT
  5
12A
330
1F
100
AcDbEntity
  8
DEFAULT
100
AcDbBlockReference
  2
GDIMGGROUP7
 10
0.0
 20
0.0
 30
0.0
  0
ENDSEC
  0
SECTION
  2
OBJECTS
  0
DICTIONARY
  5
C
330
0
100
AcDbDictionary
  3
ACAD_GROUP
350
D
  3
ACAD_LAYOUT
350
1A
  3
ACAD_MLEADERSTYLE
350
135
  3
ACAD_MLINESTYLE
350
17
  3
ACAD_PLOTSETTINGS
350
19
  3
ACAD_SCALELIST
350
3B
  3
ACAD_VISUALSTYLE
350
2A
  3
ACDBVARIABLEDICTIONARY
350
133
1001
ACAD
1000
TREAT_AS_HARD
1070
     0
  0
DICTIONARY
  5
D
102
{ACAD_REACTORS
330
C
102
}
330
C
100
AcDbDictionary
1001
ACAD
1000
TREAT_AS_HARD
1070
     0
  0
DICTIONARY
  5
1A
102
{ACAD_REACTORS
330
C
102
}
330
C
100
AcDbDictionary
1001
ACAD
1000
TREAT_AS_HARD
1070
     0
  0
DICTIONARY
  5
135
102
{ACAD_REACTORS
330
C
102
}
330
C
100
AcDbDictionary
1001
ACAD
1000
TREAT_AS_HARD
1070
     0
  0
DICTIONARY
  5
17
102
{ACAD_REACTORS
330
C
102
}
330
C
100
AcDbDictionary
  3
STANDARD
350
18
1001
ACAD
1000
TREAT_AS_HARD
1070
     0
  0
DICTIONARY
  5
19
102
{ACAD_REACTORS
330
C
102
}
330
C
100
AcDbDictionary
1001
ACAD
1000
TREAT_AS_HARD
1070
     0
  0
DICTIONARY
  5
3B
102
{ACAD_REACTORS
330
C
102
}
330
C
100
AcDbDictionary
  3
A0
350
3C
  3
A1
350
3D
  3
A2
350
3E
  3
A3
350
3F
  3
A4
350
40
  3
A5
350
41
  3
A6
350
42
  3
A7
350
43
  3
A8
350
44
  3
A9
350
45
  3
B0
350
46
  3
B1
350
47
  3
B2
350
48
  3
B3
350
49
  3
B4
350
4A
  3
B5
350
4B
  3
B6
350
4C
  3
B7
350
4D
  3
B8
350
4E
  3
B9
350
4F
  3
C0
350
50
  3
C1
350
51
  3
C2
350
52
  3
C3
350
53
  3
C4
350
54
  3
C5
350
55
  3
C6
350
56
  3
C7
350
57
  3
C8
350
58
  3
C9
350
59
  3
D0
350
5A
  3
D1
350
5B
  3
D2
350
5C
1001
ACAD
1000
TREAT_AS_HARD
1070
     0
  0
DICTIONARY
  5
2A
102
{ACAD_REACTORS
330
C
102
}
330
C
100
AcDbDictionary
  3
2DWIREFRAME
350
2F
  3
3D_HIDDEN
350
31
  3
3DWIREFRAME
350
30
  3
BASIC
350
32
  3
BRIGHTEN
350
36
  3
COLORCHANGE
350
3A
  3
CONCEPTUAL
350
34
  3
DIM
350
35
  3
FACEPATTERN
350
39
  3
FLAT
350
2B
  3
FLATWITHEDGES
350
2C
  3
GOURAUD
350
2D
  3
GOURAUDWITHEDGES
350
2E
  3
LINEPATTERN
350
38
  3
REALISTIC
350
33
  3
THICKEN
350
37
1001
ACAD
1000
TREAT_AS_HARD
1070
     0
  0
DICTIONARY
  5
133
102
{ACAD_REACTORS
330
C
102
}
330
C
100
AcDbDictionary
  3
CANNOSCALE
350
138
  3
PSOLHEIGHT
350
137
  3
PSOLWIDTH
350
136
1001
ACAD
1000
TREAT_AS_HARD
1070
     0
  0
MLINESTYLE
  5
18
102
{ACAD_REACTORS
330
17
102
}
330
17
100
AcDbMlineStyle
  2
Standard
 70
     0
  3

 62
   256
 51
90.0
 52
90.0
 71
     2
 49
0.5
 62
   256
  6
BYLAYER
 49
-0.5
 62
   256
  6
BYLAYER
  0
ACAD_PROXY_OBJECT
  5
3C
102
{ACAD_REACTORS
330
3B
102
}
330
3B
100
AcDbZombieObject
 90
      499
 91
      502
 93
       41
310
903313A31580
  0
ACAD_PROXY_OBJECT
  5
3D
102
{ACAD_REACTORS
330
3B
102
}
330
3B
100
AcDbZombieObject
 90
      499
 91
      502
 93
      105
310
903313A324000000000000004000
  0
ACAD_PROXY_OBJECT
  5
3E
102
{ACAD_REACTORS
330
3B
102
}
330
3B
100
AcDbZombieObject
 90
      499
 91
      502
 93
      105
310
903313A344000000000000104000
  0
ACAD_PROXY_OBJECT
  5
3F
102
{ACAD_REACTORS
330
3B
102
}
330
3B
100
AcDbZombieObject
 90
      499
 91
      502
 93
      105
310
903313A354000000000000144000
  0
ACAD_PROXY_OBJECT
  5
40
102
{ACAD_REACTORS
330
3B
102
}
330
3B
100
AcDbZombieObject
 90
      499
 91
      502
 93
      105
310
903313A384000000000000204000
  0
ACAD_PROXY_OBJECT
  5
41
102
{ACAD_REACTORS
330
3B
102
}
330
3B
100
AcDbZombieObject
 90
      499
 91
      502
 93
      113
310
904313A31304000000000000244000
  0
ACAD_PROXY_OBJECT
  5
42
102
{ACAD_REACTORS
330
3B
102
}
330
3B
100
AcDbZombieObject
 90
      499
 91
      502
 93
      113
310
904313A31364000000000000304000
  0
ACAD_PROXY_OBJECT
  5
43
102
{ACAD_REACTORS
330
3B
102
}
330
3B
100
AcDbZombieObject
 90
      499
 91
      502
 93
      113
310
904313A32304000000000000344000
  0
ACAD_PROXY_OBJECT
  5
44
102
{ACAD_REACTORS
330
3B
102
}
330
3B
100
AcDbZombieObject
 90
      499
 91
      502
 93
      113
310
904313A333040000000000003E4000
  0
ACAD_PROXY_OBJECT
  5
45
102
{ACAD_REACTORS
330
3B
102
}
330
3B
100
AcDbZombieObject
 90
      499
 91
      502
 93
      113
310
904313A34304000000000000444000
  0
ACAD_PROXY_OBJECT
  5
46
102
{ACAD_REACTORS
330
3B
102
}
330
3B
100
AcDbZombieObject
 90
      499
 91
      502
 93
      113
310
904313A35304000000000000494000
  0
ACAD_PROXY_OBJECT
  5
47
102
{ACAD_REACTORS
330
3B
102
}
330
3B
100
AcDbZombieObject
 90
      499
 91
      502
 93
      121
310
905313A3130304000000000000594000
  0
ACAD_PROXY_OBJECT
  5
48
102
{ACAD_REACTORS
330
3B
102
}
330
3B
100
AcDbZombieObject
 90
      499
 91
      502
 93
      105
310
903323A310000000000000010100
  0
ACAD_PROXY_OBJECT
  5
49
102
{ACAD_REACTORS
330
3B
102
}
330
3B
100
AcDbZombieObject
 90
      499
 91
      502
 93
      105
310
903343A310000000000000410100
  0
ACAD_PROXY_OBJECT
  5
4A
102
{ACAD_REACTORS
330
3B
102
}
330
3B
100
AcDbZombieObject
 90
      499
 91
      502
 93
      105
310
903383A310000000000000810100
  0
ACAD_PROXY_OBJECT
  5
4B
102
{ACAD_REACTORS
330
3B
102
}
330
3B
100
AcDbZombieObject
 90
      499
 91
      502
 93
      113
310
90431303A310000000000000910100
  0
ACAD_PROXY_OBJECT
  5
4C
102
{ACAD_REACTORS
330
3B
102
}
330
3B
100
AcDbZombieObject
 90
      499
 91
      502
 93
      121
310
9053130303A310000000000001650100
  0
ACAD_PROXY_OBJECT
  5
4D
102
{ACAD_REACTORS
330
3B
102
}
330
3B
100
AcDbZombieObject
 90
      499
 91
      502
 93
      257
310
90E312F31323822203D2031272D3022000000000000200FC000000000000284000
  0
ACAD_PROXY_OBJECT
  5
4E
102
{ACAD_REACTORS
330
3B
102
}
330
3B
100
AcDbZombieObject
 90
      499
 91
      502
 93
      249
310
90D312F363422203D2031272D3022000000000000240FC000000000000284000
  0
ACAD_PROXY_OBJECT
  5
4F
102
{ACAD_REACTORS
330
3B
102
}
330
3B
100
AcDbZombieObject
 90
      499
 91
      502
 93
      249
310
90D312F333222203D2031272D3022000000000000280FC000000000000284000
  0
ACAD_PROXY_OBJECT
  5
50
102
{ACAD_REACTORS
330
3B
102
}
330
3B
100
AcDbZombieObject
 90
      499
 91
      502
 93
      249
310
90D312F313622203D2031272D30220000000000002C0FC000000000000284000
  0
ACAD_PROXY_OBJECT
  5
51
102
{ACAD_REACTORS
330
3B
102
}
330
3B
100
AcDbZombieObject
 90
      499
 91
      502
 93
      249
310
90D332F333222203D2031272D30220000000000002E0FC000000000000284000
  0
ACAD_PROXY_OBJECT
  5
52
102
{ACAD_REACTORS
330
3B
102
}
330
3B
100
AcDbZombieObject
 90
      499
 91
      502
 93
      241
310
90C312F3822203D2031272D3022000000000000300FC000000000000284000
  0
ACAD_PROXY_OBJECT
  5
53
102
{ACAD_REACTORS
330
3B
102
}
330
3B
100
AcDbZombieObject
 90
      499
 91
      502
 93
      249
310
90D332F313622203D2031272D3022000000000000320FC000000000000284000
  0
ACAD_PROXY_OBJECT
  5
54
102
{ACAD_REACTORS
330
3B
102
}
330
3B
100
AcDbZombieObject
 90
      499
 91
      502
 93
      241
310
90C312F3422203D2031272D3022000000000000340FC000000000000284000
  0
ACAD_PROXY_OBJECT
  5
55
102
{ACAD_REACTORS
330
3B
102
}
330
3B
100
AcDbZombieObject
 90
      499
 91
      502
 93
      241
310
90C332F3822203D2031272D3022000000000000360FC000000000000284000
  0
ACAD_PROXY_OBJECT
  5
56
102
{ACAD_REACTORS
330
3B
102
}
330
3B
100
AcDbZombieObject
 90
      499
 91
      502
 93
      241
310
90C312F3222203D2031272D3022000000000000380FC000000000000284000
  0
ACAD_PROXY_OBJECT
  5
57
102
{ACAD_REACTORS
330
3B
102
}
330
3B
100
AcDbZombieObject
 90
      499
 91
      502
 93
      241
310
90C332F3422203D2031272D30220000000000003A0FC000000000000284000
  0
ACAD_PROXY_OBJECT
  5
58
102
{ACAD_REACTORS
330
3B
102
}
330
3B
100
AcDbZombieObject
 90
      499
 91
      502
 93
      161
310
90A3122203D2031272D30224000000000000284000
  0
ACAD_PROXY_OBJECT
  5
59
102
{ACAD_REACTORS
330
3B
102
}
330
3B
100
AcDbZombieObject
 90
      499
 91
      502
 93
      257
310
90E312D312F3222203D2031272D30220000000000003E0FC000000000000284000
  0
ACAD_PROXY_OBJECT
  5
5A
102
{ACAD_REACTORS
330
3B
102
}
330
3B
100
AcDbZombieObject
 90
      499
 91
      502
 93
      225
310
90A3322203D2031272D302200000000000002100000000000000284000
  0
ACAD_PROXY_OBJECT
  5
5B
102
{ACAD_REACTORS
330
3B
102
}
330
3B
100
AcDbZombieObject
 90
      499
 91
      502
 93
      225
310
90A3622203D2031272D302200000000000006100000000000000284000
  0
ACAD_PROXY_OBJECT
  5
5C
102
{ACAD_REACTORS
330
3B
102
}
330
3B
100
AcDbZombieObject
 90
      499
 91
      502
 93
      249
310
90D31272D3022203D2031272D30220000000000000A100000000000000284000
  0
ACAD_PROXY_OBJECT
  5
2F
102
{ACAD_REACTORS
330
2A
102
}
330
2A
100
AcDbZombieObject
 90
      499
 91
      501
 93
      436
310
42CC9915DA5C99599C985B595049028333333333333E3BF0000000000000FB0107901411070040501600405405064090741402480A0340
1001
ACAD
1000
AcDbSavedByObjectVersion
1070
     0
  0
ACAD_PROXY_OBJECT
  5
31
102
{ACAD_REACTORS
330
2A
102
}
330
2A
100
AcDbZombieObject
 90
      499
 91
      501
 93
      500
310
424CD108121A5919195B90640502408333333333333E3BF0000000000000FB01079024090700405020000000000001110200405405064090740C02480A0340
1001
ACAD
1000
AcDbSavedByObjectVersion
1070
     0
  0
ACAD_PROXY_OBJECT
  5
30
102
{ACAD_REACTORS
330
2A
102
}
330
2A
100
AcDbZombieObject
 90
      499
 91
      501
 93
      436
310
42CCD915DA5C99599C985B595059028333333333333E3BF0000000000000FB0107901411070040501600405405064090741402480A0340
1001
ACAD
1000
AcDbSavedByObjectVersion
1070
     0
  0
ACAD_PROXY_OBJECT
  5
32
102
{ACAD_REACTORS
330
2A
102
}
330
2A
100
AcDbZombieObject
 90
      499
 91
      501
 93
      388
310
4150985CDA58D07406404333333333333E3BF0000000000000FB0107A41107004050150841D405064090741402480A0350
1001
ACAD
1000
AcDbSavedByObjectVersion
1070
     0
  0
ACAD_PROXY_OBJECT
  5
36
102
{ACAD_REACTORS
330
2A
102
}
330
2A
100
AcDbZombieObject
 90
      499
 91
      501
 93
      428
310
42109C9A59DA1D195B90C409028333333333333E3BF0000000000000FB010790141107004050150841D405064090741402480A029950
1001
ACAD
1000
AcDbSavedByObjectVersion
1070
     0
  0
ACAD_PROXY_OBJECT
  5
3A
102
{ACAD_REACTORS
330
2A
102
}
330
2A
100
AcDbZombieObject
 90
      499
 91
      501
 93
      452
310
42D0DBDB1BDC90DA185B99D95104090240C333333333333E3BF0000000000000FB0108901411070040501508421405064090741402480A0350
1001
ACAD
1000
AcDbSavedByObjectVersion
1070
     0
  0
ACAD_PROXY_OBJECT
  5
34
102
{ACAD_REACTORS
330
2A
102
}
330
2A
100
AcDbZombieObject
 90
      499
 91
      501
 93
      500
310
4290DBDB98D95C1D1D585B10940D028333333333333E3BF0000000000000FB0107902409070040501000000000000111010841D405064090740C02480A0340
1001
ACAD
1000
AcDbSavedByObjectVersion
1070
     0
  0
ACAD_PROXY_OBJECT
  5
35
102
{ACAD_REACTORS
330
2A
102
}
330
2A
100
AcDbZombieObject
 90
      499
 91
      501
 93
      412
310
40D11A5B50B409028333333333333E3BF0000000000000FB010790141107004050150841D405064090741402480A02677FFFFFD0
1001
ACAD
1000
AcDbSavedByObjectVersion
1070
     0
  0
ACAD_PROXY_OBJECT
  5
39
102
{ACAD_REACTORS
330
2A
102
}
330
2A
100
AcDbZombieObject
 90
      499
 91
      501
 93
      444
310
42D19858D95C185D1D195C9B90F409028333333333333E3BF0000000000000FB010790141107004050150841D405064090741402480A0350
1001
ACAD
1000
AcDbSavedByObjectVersion
1070
     0
  0
ACAD_PROXY_OBJECT
  5
2B
102
{ACAD_REACTORS
330
2A
102
}
330
2A
100
AcDbZombieObject
 90
      499
 91
      501
 93
      388
310
41119B185D240901404333333333333E3BF0000000000000F9010740A41107004050150841D405064090741402480A1B50
1001
ACAD
1000
AcDbSavedByObjectVersion
1070
     0
  0
ACAD_PROXY_OBJECT
  5
2C
102
{ACAD_REACTORS
330
2A
102
}
330
2A
100
AcDbZombieObject
 90
      499
 91
      501
 93
      476
310
43519B185D15DA5D1A115919D95CD0140901404333333333333E3BF0000000000000F9010740901411070040501600405405064090741402480A1B50
1001
ACAD
1000
AcDbSavedByObjectVersion
1070
     0
  0
ACAD_PROXY_OBJECT
  5
2D
102
{ACAD_REACTORS
330
2A
102
}
330
2A
100
AcDbZombieObject
 90
      499
 91
      501
 93
      412
310
41D1DBDD5C985D5910240902404333333333333E3BF0000000000000F9010740A411070040501641D405064090741402480A1B50
1001
ACAD
1000
AcDbSavedByObjectVersion
1070
     0
  0
ACAD_PROXY_OBJECT
  5
2E
102
{ACAD_REACTORS
330
2A
102
}
330
2A
100
AcDbZombieObject
 90
      499
 91
      501
 93
      500
310
4411DBDD5C985D5915DA5D1A115919D95CD0340902404333333333333E3BF0000000000000F9010740901411070040501600405405064090741402480A1B50
1001
ACAD
1000
AcDbSavedByObjectVersion
1070
     0
  0
ACAD_PROXY_OBJECT
  5
38
102
{ACAD_REACTORS
330
2A
102
}
330
2A
100
AcDbZombieObject
 90
      499
 91
      501
 93
      444
310
42D31A5B995C185D1D195C9B90E409028333333333333E3BF0000000000000FB010790141107004050750841D405064090741402483A0350
1001
ACAD
1000
AcDbSavedByObjectVersion
1070
     0
  0
ACAD_PROXY_OBJECT
  5
33
102
{ACAD_REACTORS
330
2A
102
}
330
2A
100
AcDbZombieObject
 90
      499
 91
      501
 93
      420
310
425499585B1A5CDD1A58D08409028333333333333E3BF0000000000000FB01079019070040501508421405064090741402480A1B40
1001
ACAD
1000
AcDbSavedByObjectVersion
1070
     0
  0
ACAD_PROXY_OBJECT
  5
37
102
{ACAD_REACTORS
330
2A
102
}
330
2A
100
AcDbZombieObject
 90
      499
 91
      501
 93
      412
310
41D51A1A58DAD95B90D409028333333333333E3BF0000000000000FB010790141107004050150C41D405064090741402480A0350
1001
ACAD
1000
AcDbSavedByObjectVersion
1070
     0
  0
DICTIONARYVAR
  5
138
102
{ACAD_REACTORS
330
133
102
}
330
133
100
DictionaryVariables
280
     0
  1
1:1
  0
DICTIONARYVAR
  5
137
102
{ACAD_REACTORS
330
133
102
}
330
133
100
DictionaryVariables
280
     0
  1
80.000000
  0
DICTIONARYVAR
  5
136
102
{ACAD_REACTORS
330
133
102
}
330
133
100
DictionaryVariables
280
     0
  1
5.000000
  0
ENDSEC
  0
EOF
