  0
SECTION
  2
HEADER
  9
$ACADVER
  1
AC1012
  9
$DWGCODEPAGE
  3
ansi_932
  9
$INSBASE
 10
0.0
 20
0.0
 30
0.0
  9
$EXTMIN
 10
0.0
 20
0.0
 30
0.0
  9
$EXTMAX
 10
210.0
 20
297.0
 30
0.0
  9
$LIMMIN
 10
0.0
 20
0.0
  9
$LIMMAX
 10
210.0
 20
297.0
  9
$ORTHOMODE
 70
     0
  9
$REGENMODE
 70
     1
  9
$FILLMODE
 70
     1
  9
$QTEXTMODE
 70
     0
  9
$MIRRTEXT
 70
     1
  9
$DRAGMODE
 70
     2
  9
$LTSCALE
 40
1.0
  9
$OSMODE
 70
    37
  9
$ATTMODE
 70
     1
  9
$TEXTSIZE
 40
2.5
  9
$TRACEWID
 40
1.0
  9
$TEXTSTYLE
  7
STANDARD
  9
$CLAYER
  8
0
  9
$CELTYPE
  6
BYLAYER
  9
$CECOLOR
 62
   256
  9
$CELTSCALE
 40
1.0
  9
$DELOBJ
 70
     1
  9
$DISPSILH
 70
     0
  9
$DIMSCALE
 40
1.0
  9
$DIMASZ
 40
2.5
  9
$DIMEXO
 40
0.625
  9
$DIMDLI
 40
3.75
  9
$DIMRND
 40
0.0
  9
$DIMDLE
 40
0.0
  9
$DIMEXE
 40
1.25
  9
$DIMTP
 40
0.0
  9
$DIMTM
 40
0.0
  9
$DIMTXT
 40
2.5
  9
$DIMCEN
 40
2.5
  9
$DIMTSZ
 40
0.0
  9
$DIMTOL
 70
     0
  9
$DIMLIM
 70
     0
  9
$DIMTIH
 70
     0
  9
$DIMTOH
 70
     0
  9
$DIMSE1
 70
     0
  9
$DIMSE2
 70
     0
  9
$DIMTAD
 70
     1
  9
$DIMZIN
 70
     8
  9
$DIMBLK
  1

  9
$DIMASO
 70
     1
  9
$DIMSHO
 70
     1
  9
$DIMPOST
  1

  9
$DIMAPOST
  1

  9
$DIMALT
 70
     0
  9
$DIMALTD
 70
     3
  9
$DIMALTF
 40
0.0393700787
  9
$DIMLFAC
 40
1.0
  9
$DIMTOFL
 70
     1
  9
$DIMTVP
 40
0.0
  9
$DIMTIX
 70
     0
  9
$DIMSOXD
 70
     0
  9
$DIMSAH
 70
     0
  9
$DIMBLK1
  1

  9
$DIMBLK2
  1

  9
$DIMSTYLE
  2
ISO-25
  9
$DIMCLRD
 70
     0
  9
$DIMCLRE
 70
     0
  9
$DIMCLRT
 70
     0
  9
$DIMTFAC
 40
1.0
  9
$DIMGAP
 40
0.625
  9
$DIMJUST
 70
     0
  9
$DIMSD1
 70
     0
  9
$DIMSD2
 70
     0
  9
$DIMTOLJ
 70
     0
  9
$DIMTZIN
 70
     8
  9
$DIMALTZ
 70
     0
  9
$DIMALTTZ
 70
     0
  9
$DIMFIT
 70
     3
  9
$DIMUPT
 70
     0
  9
$DIMUNIT
 70
     2
  9
$DIMDEC
 70
     2
  9
$DIMTDEC
 70
     2
  9
$DIMALTU
 70
     2
  9
$DIMALTTD
 70
     3
  9
$DIMTXSTY
  7
STANDARD
  9
$DIMAUNIT
 70
     0
  9
$LUNITS
 70
     2
  9
$LUPREC
 70
     4
  9
$SKETCHINC
 40
1.0
  9
$FILLETRAD
 40
10.0
  9
$AUNITS
 70
     0
  9
$AUPREC
 70
     0
  9
$MENU
  1
.
  9
$ELEVATION
 40
0.0
  9
$PELEVATION
 40
0.0
  9
$THICKNESS
 40
0.0
  9
$LIMCHECK
 70
     0
  9
$CHAMFERA
 40
10.0
  9
$CHAMFERB
 40
10.0
  9
$CHAMFERC
 40
20.0
  9
$CHAMFERD
 40
0.0
  9
$SKPOLY
 70
     0
  9
$TDCREATE
 40
2458452.723639861
  9
$TDUPDATE
 40
2458452.723639873
  9
$TDINDWG
 40
0.0000000116
  9
$TDUSRTIMER
 40
0.0000000116
  9
$USRTIMER
 70
     1
  9
$ANGBASE
 50
0.0
  9
$ANGDIR
 70
     0
  9
$PDMODE
 70
     0
  9
$PDSIZE
 40
0.0
  9
$PLINEWID
 40
0.0
  9
$COORDS
 70
     1
  9
$SPLFRAME
 70
     0
  9
$SPLINETYPE
 70
     6
  9
$SPLINESEGS
 70
     8
  9
$ATTDIA
 70
     0
  9
$ATTREQ
 70
     1
  9
$HANDLING
 70
     1
  9
$HANDSEED
  5
1D5
  9
$SURFTAB1
 70
     6
  9
$SURFTAB2
 70
     6
  9
$SURFTYPE
 70
     6
  9
$SURFU
 70
     6
  9
$SURFV
 70
     6
  9
$UCSNAME
  2

  9
$UCSORG
 10
0.0
 20
0.0
 30
0.0
  9
$UCSXDIR
 10
1.0
 20
0.0
 30
0.0
  9
$UCSYDIR
 10
0.0
 20
1.0
 30
0.0
  9
$PUCSNAME
  2

  9
$PUCSORG
 10
0.0
 20
0.0
 30
0.0
  9
$PUCSXDIR
 10
1.0
 20
0.0
 30
0.0
  9
$PUCSYDIR
 10
0.0
 20
1.0
 30
0.0
  9
$USERI1
 70
     0
  9
$USERI2
 70
     0
  9
$USERI3
 70
     0
  9
$USERI4
 70
     0
  9
$USERI5
 70
     0
  9
$USERR1
 40
0.0
  9
$USERR2
 40
0.0
  9
$USERR3
 40
0.0
  9
$USERR4
 40
0.0
  9
$USERR5
 40
0.0
  9
$WORLDVIEW
 70
     1
  9
$SHADEDGE
 70
     3
  9
$SHADEDIF
 70
    70
  9
$TILEMODE
 70
     1
  9
$MAXACTVP
 70
    64
  9
$PINSBASE
 10
0.0
 20
0.0
 30
0.0
  9
$PLIMCHECK
 70
     0
  9
$PEXTMIN
 10
0.0
 20
0.0
 30
0.0
  9
$PEXTMAX
 10
210.0
 20
297.0
 30
0.0
  9
$PLIMMIN
 10
0.0
 20
0.0
  9
$PLIMMAX
 10
210.0
 20
297.0
  9
$UNITMODE
 70
     0
  9
$VISRETAIN
 70
     1
  9
$PLINEGEN
 70
     0
  9
$PSLTSCALE
 70
     1
  9
$TREEDEPTH
 70
  3020
  9
$PICKSTYLE
 70
     1
  9
$CMLSTYLE
  2
STANDARD
  9
$CMLJUST
 70
     0
  9
$CMLSCALE
 40
20.0
  9
$SAVEIMAGES
 70
     1
  0
ENDSEC
  0
SECTION
  2
CLASSES
  0
CLASS
  1
ACDBDICTIONARYWDFLT
  2
AcDbDictionaryWithDefault
  3
ObjectDBX Classes
 90
    32768
280
     0
281
     0
  0
CLASS
  1
VISUALSTYLE
  2
AcDbVisualStyle
  3
ObjectDBX Classes
 90
     4095
280
     0
281
     0
  0
CLASS
  1
SCALE
  2
AcDbScale
  3
ObjectDBX Classes
 90
     1153
280
     0
281
     0
  0
CLASS
  1
DICTIONARYVAR
  2
AcDbDictionaryVar
  3
ObjectDBX Classes
 90
        0
280
     0
281
     0
  0
CLASS
  1
XRECORD
  2
AcDbXrecord
  3
AutoCAD 2000
 90
    32768
280
     0
281
     0
  0
CLASS
  1
LWPOLYLINE
  2
AcDbPolyline
  3
AutoCAD 2000
 90
    32768
280
     0
281
     1
  0
CLASS
  1
HATCH
  2
AcDbHatch
  3
AutoCAD 2000
 90
    32768
280
     0
281
     1
  0
CLASS
  1
ACDBPLACEHOLDER
  2
AcDbPlaceHolder
  3
ObjectDBX Classes
 90
        0
280
     0
281
     0
  0
CLASS
  1
LAYOUT
  2
AcDbLayout
  3
ObjectDBX Classes
 90
        0
280
     0
281
     0
  0
ENDSEC
  0
SECTION
  2
TABLES
  0
TABLE
  2
VPORT
  5
8
330
0
100
AcDbSymbolTable
 70
     1
  0
VPORT
  5
29
330
8
100
AcDbSymbolTableRecord
100
AcDbViewportTableRecord
  2
*ACTIVE
 70
     0
 10
0.0
 20
0.0
 11
1.0
 21
1.0
 12
344.1869158879
 22
148.5
 13
0.0
 23
0.0
 14
10.0
 24
10.0
 15
10.0
 25
10.0
 16
0.0
 26
0.0
 36
1.0
 17
0.0
 27
0.0
 37
0.0
 40
297.0
 41
1.9729729729
 42
50.0
 43
0.0
 44
0.0
 50
0.0
 51
0.0
 71
     0
 72
   100
 73
     1
 74
     3
 75
     0
 76
     0
 77
     0
 78
     0
  0
ENDTAB
  0
TABLE
  2
LTYPE
  5
5
330
0
100
AcDbSymbolTable
 70
     3
  0
LTYPE
  5
14
330
5
100
AcDbSymbolTableRecord
100
AcDbLinetypeTableRecord
  2
BYBLOCK
 70
     0
  3

 72
    65
 73
     0
 40
0.0
  0
LTYPE
  5
15
330
5
100
AcDbSymbolTableRecord
100
AcDbLinetypeTableRecord
  2
BYLAYER
 70
     0
  3

 72
    65
 73
     0
 40
0.0
  0
LTYPE
  5
16
330
5
100
AcDbSymbolTableRecord
100
AcDbLinetypeTableRecord
  2
CONTINUOUS
 70
     0
  3
Solid line
 72
    65
 73
     0
 40
0.0
  0
LTYPE
  5
103
330
5
100
AcDbSymbolTableRecord
100
AcDbLinetypeTableRecord
  2
CENTER2
 70
     0
  3
Center (.5x) ___ _ ___ _ ___ _ ___ _ ___ _ ___
 72
    65
 73
     4
 40
28.575
 49
19.05
 74
     4
 75
     0
340
0
 46
0.0
 50
0.0
 44
0.0
 45
0.0
 49
-3.175
 74
     4
 75
     0
340
0
 46
0.0
 50
0.0
 44
0.0
 45
0.0
 49
3.175
 74
     4
 75
     0
340
0
 46
0.0
 50
0.0
 44
0.0
 45
0.0
 49
-3.175
 74
     4
 75
     0
340
0
 46
0.0
 50
0.0
 44
0.0
 45
0.0
  0
LTYPE
  5
105
330
5
100
AcDbSymbolTableRecord
100
AcDbLinetypeTableRecord
  2
DASHDOT2
 70
     0
  3
Dash dot (.5x) _._._._._._._._._._._._._._._.
 72
    65
 73
     4
 40
12.7
 49
6.35
 74
     4
 75
     0
340
0
 46
0.0
 50
0.0
 44
0.0
 45
0.0
 49
-3.175
 74
     4
 75
     0
340
0
 46
0.0
 50
0.0
 44
0.0
 45
0.0
 49
0.0
 74
     4
 75
     0
340
0
 46
0.0
 50
0.0
 44
0.0
 45
0.0
 49
-3.175
 74
     4
 75
     0
340
0
 46
0.0
 50
0.0
 44
0.0
 45
0.0
  0
ENDTAB
  0
TABLE
  2
LAYER
  5
2
330
0
100
AcDbSymbolTable
 70
    10
  0
LAYER
  5
10
330
2
100
AcDbSymbolTableRecord
100
AcDbLayerTableRecord
  2
0
 70
     0
 62
     7
  6
CONTINUOUS
  0
LAYER
  5
3B
330
2
100
AcDbSymbolTableRecord
100
AcDbLayerTableRecord
  2
DEFAULT
 70
     0
 62
     7
  6
CONTINUOUS
  0
LAYER
  5
62
330
2
100
AcDbSymbolTableRecord
100
AcDbLayerTableRecord
  2
DV1_DEFAULT
 70
     0
 62
     7
  6
CONTINUOUS
  0
LAYER
  5
67
330
2
100
AcDbSymbolTableRecord
100
AcDbLayerTableRecord
  2
MIRANDA25MM_C-MO
 70
     0
 62
     7
  6
CONTINUOUS
  0
LAYER
  5
87
330
2
100
AcDbSymbolTableRecord
100
AcDbLayerTableRecord
  2
MIRANDA25MM_CELL
 70
     0
 62
     7
  6
CONTINUOUS
  0
LAYER
  5
92
330
2
100
AcDbSymbolTableRecord
100
AcDbLayerTableRecord
  2
MIRANDA25MM_RING
 70
     0
 62
     7
  6
CONTINUOUS
  0
LAYER
  5
CD
330
2
100
AcDbSymbolTableRecord
100
AcDbLayerTableRecord
  2
05117020P_001_SE
 70
     0
 62
     7
  6
CONTINUOUS
  0
LAYER
  5
DA
330
2
100
AcDbSymbolTableRecord
100
AcDbLayerTableRecord
  2
02414025P_STD_00
 70
     0
 62
     7
  6
CONTINUOUS
  0
LAYER
  5
FF
330
2
100
AcDbSymbolTableRecord
100
AcDbLayerTableRecord
  2
DV7_ﾃﾞﾌｫﾙﾄ
 70
     0
 62
     7
  6
CONTINUOUS
  0
LAYER
  5
108
330
2
100
AcDbSymbolTableRecord
100
AcDbLayerTableRecord
  2
DV7_AUTO_-_HIDE
 70
     1
 62
    -7
  6
CONTINUOUS
  0
ENDTAB
  0
TABLE
  2
STYLE
  5
3
330
0
100
AcDbSymbolTable
 70
     2
  0
STYLE
  5
11
330
3
100
AcDbSymbolTableRecord
100
AcDbTextStyleTableRecord
  2
STANDARD
 70
     0
 40
0.0
 41
1.0
 50
0.0
 71
     0
 42
2.5
  3
txt
  4

  0
STYLE
  5
60
330
3
100
AcDbSymbolTableRecord
100
AcDbTextStyleTableRecord
  2
SEACAD_ARIAL_TTF
 70
     0
 40
0.0
 41
1.0
 50
0.0
 71
     0
 42
0.2
  3
arial.ttf
  4

  0
ENDTAB
  0
TABLE
  2
VIEW
  5
6
330
0
100
AcDbSymbolTable
 70
     0
  0
ENDTAB
  0
TABLE
  2
UCS
  5
7
330
0
100
AcDbSymbolTable
 70
     0
  0
ENDTAB
  0
TABLE
  2
APPID
  5
9
330
0
100
AcDbSymbolTable
 70
     1
  0
APPID
  5
12
330
9
100
AcDbSymbolTableRecord
100
AcDbRegAppTableRecord
  2
ACAD
 70
     0
  0
ENDTAB
  0
TABLE
  2
DIMSTYLE
  5
A
330
0
100
AcDbSymbolTable
 70
     1
  0
DIMSTYLE
105
27
330
A
100
AcDbSymbolTableRecord
100
AcDbDimStyleTableRecord
  2
ISO-25
 70
     0
  3

  4

  5

  6

  7

 40
1.0
 41
2.5
 42
0.625
 43
3.75
 44
1.25
 45
0.0
 46
0.0
 47
0.0
 48
0.0
140
2.5
141
2.5
142
0.0
143
0.0393700787
144
1.0
145
0.0
146
1.0
147
0.625
 71
     0
 72
     0
 73
     0
 74
     0
 75
     0
 76
     0
 77
     1
 78
     8
170
     0
171
     3
172
     1
173
     0
174
     0
175
     0
176
     0
177
     0
178
     0
270
     2
271
     2
272
     2
273
     2
274
     3
340
11
275
     0
280
     0
281
     0
282
     0
283
     0
284
     8
285
     0
286
     0
287
     3
288
     0
  0
ENDTAB
  0
TABLE
  2
BLOCK_RECORD
  5
1
330
0
100
AcDbSymbolTable
 70
     2
  0
BLOCK_RECORD
  5
1F
330
1
100
AcDbSymbolTableRecord
100
AcDbBlockTableRecord
  2
*MODEL_SPACE
  0
BLOCK_RECORD
  5
1B
330
1
100
AcDbSymbolTableRecord
100
AcDbBlockTableRecord
  2
*PAPER_SPACE
  0
BLOCK_RECORD
  5
3C
330
1
100
AcDbSymbolTableRecord
100
AcDbBlockTableRecord
  2
SE
  0
ENDTAB
  0
ENDSEC
  0
SECTION
  2
BLOCKS
  0
BLOCK
  5
20
330
1F
100
AcDbEntity
  8
0
100
AcDbBlockBegin
  2
*MODEL_SPACE
 70
     0
 10
0.0
 20
0.0
 30
0.0
  3
*MODEL_SPACE
  1

  0
ENDBLK
  5
21
330
1F
100
AcDbEntity
  8
0
100
AcDbBlockEnd
  0
BLOCK
  5
1C
330
1B
100
AcDbEntity
 67
     1
  8
0
100
AcDbBlockBegin
  2
*PAPER_SPACE
 70
     0
 10
0.0
 20
0.0
 30
0.0
  3
*PAPER_SPACE
  1

  0
ENDBLK
  5
1D
330
1B
100
AcDbEntity
 67
     1
  8
0
100
AcDbBlockEnd
  0
BLOCK
  5
1CD
330
3C
100
AcDbEntity
  8
0
100
AcDbBlockBegin
  2
SE
 70
     0
 10
0.0
 20
0.0
 30
0.0
  3
SE
  1

  0
TEXT
  5
61
330
3C
100
AcDbEntity
  8
DV1_DEFAULT
  6
CONTINUOUS
 62
     7
100
AcDbText
 10
128.3523617813
 20
163.8564234563
 30
0.0
 40
3.2
  1
FL-CC2518-5MX
  7
SEACAD_ARIAL_TTF
 11
128.3523617813
 21
167.0564234563
 31
0.0
100
AcDbText
 73
     3
  0
LINE
  5
63
330
3C
100
AcDbEntity
  8
DEFAULT
  6
CONTINUOUS
 62
     7
100
AcDbLine
 10
126.8249114579
 20
167.8889437815
 30
0.0
 11
126.8249114579
 21
163.2060069523
 31
0.0
  0
LINE
  5
64
330
3C
100
AcDbEntity
  8
DEFAULT
  6
CONTINUOUS
 62
     7
100
AcDbLine
 10
126.8249114579
 20
163.2060069523
 30
0.0
 11
163.8960722674
 21
163.2060069523
 31
0.0
  0
LINE
  5
65
330
3C
100
AcDbEntity
  8
DEFAULT
  6
CONTINUOUS
 62
     7
100
AcDbLine
 10
163.8960722674
 20
163.2060069523
 30
0.0
 11
163.8960722674
 21
167.8889437815
 31
0.0
  0
LINE
  5
66
330
3C
100
AcDbEntity
  8
DEFAULT
  6
CONTINUOUS
 62
     7
100
AcDbLine
 10
163.8960722674
 20
167.8889437815
 30
0.0
 11
126.8249114579
 21
167.8889437815
 31
0.0
  0
LINE
  5
68
330
3C
100
AcDbEntity
  8
MIRANDA25MM_C-MO
  6
CONTINUOUS
 62
     7
100
AcDbLine
 10
104.1855240443
 20
233.6791690474
 30
0.0
 11
104.1855240443
 21
209.6791690474
 31
0.0
  0
LINE
  5
69
330
3C
100
AcDbEntity
  8
MIRANDA25MM_C-MO
  6
CONTINUOUS
 62
     7
100
AcDbLine
 10
104.8855240443
 20
234.3791690474
 30
0.0
 11
104.8855240443
 21
208.9791690474
 31
0.0
  0
LINE
  5
6A
330
3C
100
AcDbEntity
  8
MIRANDA25MM_C-MO
  6
CONTINUOUS
 62
     7
100
AcDbLine
 10
106.4355240443
 20
234.3791690474
 30
0.0
 11
106.4355240443
 21
208.9791690474
 31
0.0
  0
LINE
  5
6B
330
3C
100
AcDbEntity
  8
MIRANDA25MM_C-MO
  6
CONTINUOUS
 62
     7
100
AcDbLine
 10
107.1355240443
 20
233.6791690474
 30
0.0
 11
107.1355240443
 21
209.6791690474
 31
0.0
  0
SPLINE
  5
6C
330
3C
100
AcDbEntity
  8
MIRANDA25MM_C-MO
  6
CONTINUOUS
 62
     7
100
AcDbSpline
210
0.0
220
0.0
230
1.0
 70
    11
 71
     3
 72
    15
 73
    11
 74
     0
 42
0.0000000017098741
 43
0.0000000001
 40
0.0
 40
0.0
 40
0.0
 40
0.0
 40
0.124506551245146
 40
0.2499994084853779
 40
0.3755055203383981
 40
0.5001143325258917
 40
0.6246207231501126
 40
0.7500693732697152
 40
0.8755505352120356
 40
1.0
 40
1.0
 40
1.0
 40
1.0
 10
100.435524044326
 20
220.801984032072
 30
0.0
 10
100.2120933262954
 20
220.8020202544054
 30
0.0
 10
99.76355555304076
 20
221.0044607094824
 30
0.0
 10
99.47060453086618
 20
221.6793362480707
 30
0.0
 10
99.76382737177151
 20
222.3544430307437
 30
0.0
 10
100.4362788410572
 20
222.6570672642577
 30
0.0
 10
101.1085592004491
 20
222.3539224751108
 30
0.0
 10
101.4001349875716
 20
221.6786063127175
 30
0.0
 10
101.1074538293203
 20
221.0040944008487
 30
0.0
 10
100.6588523190073
 20
220.8019478263463
 30
0.0
 10
100.435524044326
 20
220.801984032072
 30
0.0
  0
CIRCLE
  5
6D
330
3C
100
AcDbEntity
  8
MIRANDA25MM_C-MO
  6
CONTINUOUS
 62
     7
100
AcDbCircle
 10
100.4355240443
 20
221.6791690474
 30
0.0
 40
0.6749999999999973
  0
ARC
  5
6E
330
3C
100
AcDbEntity
  8
MIRANDA25MM_C-MO
  6
CONTINUOUS
 62
     7
100
AcDbCircle
 10
100.4355240441
 20
189.1443668117
 30
0.0
 40
16.05822328720019
100
AcDbArc
 50
86.9051127264
 51
93.0948875277
  0
ARC
  5
6F
330
3C
100
AcDbEntity
  8
MIRANDA25MM_C-MO
  6
CONTINUOUS
 62
     7
100
AcDbCircle
 10
100.4355240441
 20
254.2139712832
 30
0.0
 40
16.05822328719553
100
AcDbArc
 50
266.9051124723
 51
273.0948872736
  0
LINE
  5
70
330
3C
100
AcDbEntity
  8
MIRANDA25MM_C-MO
  6
CONTINUOUS
 62
     7
100
AcDbLine
 10
98.3355240443
 20
237.9791690474
 30
0.0
 11
98.3355240443
 21
205.3791690474
 31
0.0
  0
LINE
  5
71
330
3C
100
AcDbEntity
  8
MIRANDA25MM_C-MO
  6
CONTINUOUS
 62
     7
100
AcDbLine
 10
98.5355240443
 20
205.1791690474
 30
0.0
 11
98.5355240443
 21
238.1791690474
 31
0.0
  0
LINE
  5
72
330
3C
100
AcDbEntity
  8
MIRANDA25MM_C-MO
  6
CONTINUOUS
 62
     7
100
AcDbLine
 10
102.6355240443
 20
238.1791690474
 30
0.0
 11
102.6355240443
 21
205.1791690474
 31
0.0
  0
LINE
  5
73
330
3C
100
AcDbEntity
  8
MIRANDA25MM_C-MO
  6
CONTINUOUS
 62
     7
100
AcDbLine
 10
103.1355240443
 20
205.6791690474
 30
0.0
 11
103.1355240443
 21
237.6791690474
 31
0.0
  0
LINE
  5
74
330
3C
100
AcDbEntity
  8
MIRANDA25MM_C-MO
  6
CONTINUOUS
 62
     7
100
AcDbLine
 10
97.8955240443
 20
205.9791690474
 30
0.0
 11
98.3355240443
 21
205.9791690474
 31
0.0
  0
LINE
  5
75
330
3C
100
AcDbEntity
  8
MIRANDA25MM_C-MO
  6
CONTINUOUS
 62
     7
100
AcDbLine
 10
98.3355240443
 20
237.3791690474
 30
0.0
 11
97.8955240443
 21
237.3791690474
 31
0.0
  0
LINE
  5
76
330
3C
100
AcDbEntity
  8
MIRANDA25MM_C-MO
  6
CONTINUOUS
 62
     7
100
AcDbLine
 10
101.3024269553
 20
205.1791690474
 30
0.0
 11
102.6355240443
 21
205.1791690474
 31
0.0
  0
LINE
  5
77
330
3C
100
AcDbEntity
  8
MIRANDA25MM_C-MO
  6
CONTINUOUS
 62
     7
100
AcDbLine
 10
98.5355240443
 20
205.1791690474
 30
0.0
 11
99.5685595965
 21
205.1791690474
 31
0.0
  0
LINE
  5
78
330
3C
100
AcDbEntity
  8
MIRANDA25MM_C-MO
  6
CONTINUOUS
 62
     7
100
AcDbLine
 10
99.5685595965
 20
238.1791690474
 30
0.0
 11
98.5355240443
 21
238.1791690474
 31
0.0
  0
LINE
  5
79
330
3C
100
AcDbEntity
  8
MIRANDA25MM_C-MO
  6
CONTINUOUS
 62
     7
100
AcDbLine
 10
102.6355240443
 20
238.1791690474
 30
0.0
 11
101.3024269553
 21
238.1791690474
 31
0.0
  0
LINE
  5
7A
330
3C
100
AcDbEntity
  8
MIRANDA25MM_C-MO
  6
CONTINUOUS
 62
     7
100
AcDbLine
 10
103.1355240443
 20
209.6791690474
 30
0.0
 11
104.1855240443
 21
209.6791690474
 31
0.0
  0
LINE
  5
7B
330
3C
100
AcDbEntity
  8
MIRANDA25MM_C-MO
  6
CONTINUOUS
 62
     7
100
AcDbLine
 10
104.1855240443
 20
233.6791690474
 30
0.0
 11
103.1355240443
 21
233.6791690474
 31
0.0
  0
LINE
  5
7C
330
3C
100
AcDbEntity
  8
MIRANDA25MM_C-MO
  6
CONTINUOUS
 62
     7
100
AcDbLine
 10
104.8855240443
 20
234.3791690474
 30
0.0
 11
104.1855240443
 21
233.6791690474
 31
0.0
  0
LINE
  5
7D
330
3C
100
AcDbEntity
  8
MIRANDA25MM_C-MO
  6
CONTINUOUS
 62
     7
100
AcDbLine
 10
104.1855240443
 20
209.6791690474
 30
0.0
 11
104.8855240443
 21
208.9791690474
 31
0.0
  0
LINE
  5
7E
330
3C
100
AcDbEntity
  8
MIRANDA25MM_C-MO
  6
CONTINUOUS
 62
     7
100
AcDbLine
 10
104.8855240443
 20
208.9791690474
 30
0.0
 11
106.4355240443
 21
208.9791690474
 31
0.0
  0
LINE
  5
7F
330
3C
100
AcDbEntity
  8
MIRANDA25MM_C-MO
  6
CONTINUOUS
 62
     7
100
AcDbLine
 10
106.4355240443
 20
234.3791690474
 30
0.0
 11
104.8855240443
 21
234.3791690474
 31
0.0
  0
LINE
  5
80
330
3C
100
AcDbEntity
  8
MIRANDA25MM_C-MO
  6
CONTINUOUS
 62
     7
100
AcDbLine
 10
106.4355240443
 20
208.9791690474
 30
0.0
 11
107.1355240443
 21
209.6791690474
 31
0.0
  0
LINE
  5
81
330
3C
100
AcDbEntity
  8
MIRANDA25MM_C-MO
  6
CONTINUOUS
 62
     7
100
AcDbLine
 10
107.1355240443
 20
233.6791690474
 30
0.0
 11
106.4355240443
 21
234.3791690474
 31
0.0
  0
LINE
  5
82
330
3C
100
AcDbEntity
  8
MIRANDA25MM_C-MO
  6
CONTINUOUS
 62
     7
100
AcDbLine
 10
98.5355240443
 20
238.1791690474
 30
0.0
 11
98.3355240443
 21
237.9791690474
 31
0.0
  0
LINE
  5
83
330
3C
100
AcDbEntity
  8
MIRANDA25MM_C-MO
  6
CONTINUOUS
 62
     7
100
AcDbLine
 10
98.3355240443
 20
205.3791690474
 30
0.0
 11
98.5355240443
 21
205.1791690474
 31
0.0
  0
LINE
  5
84
330
3C
100
AcDbEntity
  8
MIRANDA25MM_C-MO
  6
CONTINUOUS
 62
     7
100
AcDbLine
 10
102.6355240443
 20
205.1791690474
 30
0.0
 11
103.1355240443
 21
205.6791690474
 31
0.0
  0
LINE
  5
85
330
3C
100
AcDbEntity
  8
MIRANDA25MM_C-MO
  6
CONTINUOUS
 62
     7
100
AcDbLine
 10
103.1355240443
 20
237.6791690474
 30
0.0
 11
102.6355240443
 21
238.1791690474
 31
0.0
  0
ARC
  5
86
330
3C
100
AcDbEntity
  8
MIRANDA25MM_C-MO
  6
CONTINUOUS
 62
     7
100
AcDbCircle
 10
100.4355240443
 20
221.6791690474
 30
0.0
 40
0.8499999999999991
100
AcDbArc
 50
75.0
 51
15.0
  0
LINE
  5
88
330
3C
100
AcDbEntity
  8
MIRANDA25MM_CELL
  6
CONTINUOUS
 62
     7
100
AcDbLine
 10
109.8365240443
 20
230.7153463365
 30
0.0
 11
109.8365240443
 21
212.6429917583
 31
0.0
  0
LINE
  5
89
330
3C
100
AcDbEntity
  8
MIRANDA25MM_CELL
  6
CONTINUOUS
 62
     7
100
AcDbLine
 10
109.6365240443
 20
212.4426924465
 30
0.0
 11
109.6365240443
 21
230.9156456484
 31
0.0
  0
LINE
  5
8A
330
3C
100
AcDbEntity
  8
MIRANDA25MM_CELL
  6
CONTINUOUS
 62
     7
100
AcDbLine
 10
109.8365240443
 20
212.6429917583
 30
0.0
 11
109.6365240443
 21
212.4426924465
 31
0.0
  0
LINE
  5
8B
330
3C
100
AcDbEntity
  8
MIRANDA25MM_CELL
  6
CONTINUOUS
 62
     7
100
AcDbLine
 10
109.6365240443
 20
230.9156456484
 30
0.0
 11
109.8365240443
 21
230.7153463365
 31
0.0
  0
LINE
  5
8C
330
3C
100
AcDbEntity
  8
MIRANDA25MM_CELL
  6
CONTINUOUS
 62
     7
100
AcDbLine
 10
109.1365240443
 20
212.4426924465
 30
0.0
 11
109.1365240443
 21
212.4291690474
 31
0.0
  0
LINE
  5
8D
330
3C
100
AcDbEntity
  8
MIRANDA25MM_CELL
  6
CONTINUOUS
 62
     7
100
AcDbLine
 10
109.1365240443
 20
230.9156456484
 30
0.0
 11
109.1365240443
 21
230.9291690474
 31
0.0
  0
LINE
  5
8E
330
3C
100
AcDbEntity
  8
MIRANDA25MM_CELL
  6
CONTINUOUS
 62
     7
100
AcDbLine
 10
109.1365240443
 20
230.9156456484
 30
0.0
 11
109.6365240443
 21
230.9156456484
 31
0.0
  0
LINE
  5
8F
330
3C
100
AcDbEntity
  8
MIRANDA25MM_CELL
  6
CONTINUOUS
 62
     7
100
AcDbLine
 10
109.6365240443
 20
212.4426924465
 30
0.0
 11
109.1365240443
 21
212.4426924465
 31
0.0
  0
LINE
  5
90
330
3C
100
AcDbEntity
  8
MIRANDA25MM_CELL
  6
CONTINUOUS
 62
     7
100
AcDbLine
 10
109.0455240443
 20
212.4291690474
 30
0.0
 11
109.1365240443
 21
212.4291690474
 31
0.0
  0
LINE
  5
91
330
3C
100
AcDbEntity
  8
MIRANDA25MM_CELL
  6
CONTINUOUS
 62
     7
100
AcDbLine
 10
109.1365240443
 20
230.9291690474
 30
0.0
 11
109.0455240443
 21
230.9291690474
 31
0.0
  0
LINE
  5
93
330
3C
100
AcDbEntity
  8
MIRANDA25MM_RING
  6
CONTINUOUS
 62
     7
100
AcDbLine
 10
76.0695240443
 20
238.1791690474
 30
0.0
 11
76.0695240443
 21
205.1791690474
 31
0.0
  0
LINE
  5
94
330
3C
100
AcDbEntity
  8
MIRANDA25MM_RING
  6
CONTINUOUS
 62
     7
100
AcDbLine
 10
76.2695240443
 20
205.3791690474
 30
0.0
 11
76.2695240443
 21
237.9791690474
 31
0.0
  0
SPLINE
  5
95
330
3C
100
AcDbEntity
  8
MIRANDA25MM_RING
  6
CONTINUOUS
 62
     7
100
AcDbSpline
210
0.0
220
0.0
230
1.0
 70
     8
 71
     3
 72
    12
 73
     8
 74
     0
 42
0.0000000052902021
 43
0.0000000001
 40
0.0
 40
0.0
 40
0.0
 40
0.0
 40
0.2186195628690235
 40
0.4372778791274491
 40
0.6558248805751903
 40
0.8744936490435395
 40
1.0
 40
1.0
 40
1.0
 40
1.0
 10
68.84452404432592
 20
235.7953831290746
 30
0.0
 10
68.8442310172845
 20
235.8835087961882
 30
0.0
 10
68.69868751268157
 20
236.0496082234137
 30
0.0
 10
68.16992098865883
 20
236.1439219872479
 30
0.0
 10
67.6409574238734
 20
236.0498685000139
 30
0.0
 10
67.45310181886039
 20
235.8362378818564
 30
0.0
 10
67.51786952011733
 20
235.6928761452297
 30
0.0
 10
67.56179099140536
 20
235.6447520883471
 30
0.0
  0
SPLINE
  5
96
330
3C
100
AcDbEntity
  8
MIRANDA25MM_RING
  6
CONTINUOUS
 62
     7
100
AcDbSpline
210
0.0
220
0.0
230
1.0
 70
     8
 71
     3
 72
     8
 73
     4
 74
     0
 42
0.0000000578865871
 43
0.0000000001
 40
0.0
 40
0.0
 40
0.0
 40
0.0
 40
1.0
 40
1.0
 40
1.0
 40
1.0
 10
68.77724118228227
 20
235.6447289470357
 30
0.0
 10
68.82107560297796
 20
235.6927452993967
 30
0.0
 10
68.84469191150892
 20
235.7448983430457
 30
0.0
 10
68.84452404432592
 20
235.7953831290746
 30
0.0
  0
SPLINE
  5
97
330
3C
100
AcDbEntity
  8
MIRANDA25MM_RING
  6
CONTINUOUS
 62
     7
100
AcDbSpline
210
0.0
220
0.0
230
1.0
 70
    11
 71
     3
 72
    16
 73
    12
 74
     0
 42
0.0000000022528063
 43
0.0000000001
 40
0.0
 40
0.0
 40
0.0
 40
0.0
 40
0.1255357548470536
 40
0.2499955547626467
 40
0.3744107736001741
 40
0.4999472643379431
 40
0.5001235014915337
 40
0.625658094824873
 40
0.7500697521412748
 40
0.8745197917573673
 40
1.0
 40
1.0
 40
1.0
 40
1.0
 10
69.04452404432593
 20
235.9685882098314
 30
0.0
 10
69.04449057187334
 20
235.8546767179261
 30
0.0
 10
68.84767431013634
 20
235.6180486105531
 30
0.0
 10
68.16946526776515
 20
235.449064352557
 30
0.0
 10
67.49120294181463
 20
235.6173843084669
 30
0.0
 10
67.2945585273387
 20
235.8564668592384
 30
0.0
 10
67.29449031412584
 20
236.0811807697289
 30
0.0
 10
67.49131748993783
 20
236.3006825089553
 30
0.0
 10
68.17007891772326
 20
236.4360475846758
 30
0.0
 10
68.84801297050049
 20
236.2994621323618
 30
0.0
 10
69.04455750196774
 20
236.0824492985941
 30
0.0
 10
69.04452404432593
 20
235.9685882098314
 30
0.0
  0
SPLINE
  5
98
330
3C
100
AcDbEntity
  8
MIRANDA25MM_RING
  6
CONTINUOUS
 62
     7
100
AcDbSpline
210
0.0
220
0.0
230
1.0
 70
     8
 71
     3
 72
     8
 73
     4
 74
     0
 42
0.000000057866893
 43
0.0000000001
 40
0.0
 40
0.0
 40
0.0
 40
0.0
 40
1.0
 40
1.0
 40
1.0
 40
1.0
 10
68.84452404432592
 20
207.5629549657019
 30
0.0
 10
68.84435624522632
 20
207.6134189202683
 30
0.0
 10
68.82042355920827
 20
207.6655496757606
 30
0.0
 10
68.77661811113892
 20
207.7135500276268
 30
0.0
  0
SPLINE
  5
99
330
3C
100
AcDbEntity
  8
MIRANDA25MM_RING
  6
CONTINUOUS
 62
     7
100
AcDbSpline
210
0.0
220
0.0
230
1.0
 70
     8
 71
     3
 72
    13
 73
     9
 74
     0
 42
0.0000000052976382
 43
0.0000000001
 40
0.0
 40
0.0
 40
0.0
 40
0.0
 40
0.1253351649100363
 40
0.3441486116762723
 40
0.5627618804123465
 40
0.562810230965906
 40
0.7814633645014437
 40
1.0
 40
1.0
 40
1.0
 40
1.0
 10
67.56295755513356
 20
207.7141166783453
 30
0.0
 10
67.51891745577217
 20
207.6660738601609
 30
0.0
 10
67.4526873536932
 20
207.5227200742203
 30
0.0
 10
67.63840013141315
 20
207.308736342761
 30
0.0
 10
67.9971823078325
 20
207.2458222181496
 30
0.0
 10
68.34178289371174
 20
207.2457950114126
 30
0.0
 10
68.70039892115607
 20
207.3086836774085
 30
0.0
 10
68.84481709283006
 20
207.4748234653976
 30
0.0
 10
68.84452404432592
 20
207.5629549657019
 30
0.0
  0
SPLINE
  5
9A
330
3C
100
AcDbEntity
  8
MIRANDA25MM_RING
  6
CONTINUOUS
 62
     7
100
AcDbSpline
210
0.0
220
0.0
230
1.0
 70
    11
 71
     3
 72
    16
 73
    12
 74
     0
 42
0.0000000022528001
 43
0.0000000001
 40
0.0
 40
0.0
 40
0.0
 40
0.0
 40
0.1255357548470536
 40
0.2499955547626466
 40
0.374410773600174
 40
0.4999472643379427
 40
0.5001235014915334
 40
0.6256580948248728
 40
0.7500697521412746
 40
0.8745197917573668
 40
1.0
 40
1.0
 40
1.0
 40
1.0
 10
69.04452404432591
 20
207.389749884945
 30
0.0
 10
69.04449057187334
 20
207.2758370728236
 30
0.0
 10
68.84767431013634
 20
207.0588559633069
 30
0.0
 10
68.16946526776512
 20
206.9221669257856
 30
0.0
 10
67.49120294181469
 20
207.0581878566605
 30
0.0
 10
67.29455852733855
 20
207.2776173884139
 30
0.0
 10
67.294490314126
 20
207.5023535986695
 30
0.0
 10
67.49131748993777
 20
207.7415790513346
 30
0.0
 10
68.17007891772327
 20
207.9091294147779
 30
0.0
 10
68.84801297050049
 20
207.7402635571694
 30
0.0
 10
69.04455750196774
 20
207.5036122933396
 30
0.0
 10
69.04452404432591
 20
207.389749884945
 30
0.0
  0
LINE
  5
9B
330
3C
100
AcDbEntity
  8
MIRANDA25MM_RING
  6
CONTINUOUS
 62
     7
100
AcDbLine
 10
76.0695240443
 20
205.1791690474
 30
0.0
 11
76.2695240443
 21
205.3791690474
 31
0.0
  0
LINE
  5
9C
330
3C
100
AcDbEntity
  8
MIRANDA25MM_RING
  6
CONTINUOUS
 62
     7
100
AcDbLine
 10
76.2695240443
 20
237.9791690474
 30
0.0
 11
76.0695240443
 21
238.1791690474
 31
0.0
  0
LINE
  5
9D
330
3C
100
AcDbEntity
  8
MIRANDA25MM_RING
  6
CONTINUOUS
 62
     7
100
AcDbLine
 10
62.0695240443
 20
205.1791690474
 30
0.0
 11
76.0695240443
 21
205.1791690474
 31
0.0
  0
LINE
  5
9E
330
3C
100
AcDbEntity
  8
MIRANDA25MM_RING
  6
CONTINUOUS
 62
     7
100
AcDbLine
 10
67.2779147574
 20
238.1791690474
 30
0.0
 11
62.0695240443
 21
238.1791690474
 31
0.0
  0
LINE
  5
9F
330
3C
100
AcDbEntity
  8
MIRANDA25MM_RING
  6
CONTINUOUS
 62
     7
100
AcDbLine
 10
72.4779325553
 20
238.1791690474
 30
0.0
 11
69.0611968893
 21
238.1791690474
 31
0.0
  0
LINE
  5
A0
330
3C
100
AcDbEntity
  8
MIRANDA25MM_RING
  6
CONTINUOUS
 62
     7
100
AcDbLine
 10
76.0695240443
 20
238.1791690474
 30
0.0
 11
74.2611670852
 21
238.1791690474
 31
0.0
  0
LINE
  5
A1
330
3C
100
AcDbEntity
  8
MIRANDA25MM_RING
  6
CONTINUOUS
 62
     7
100
AcDbLine
 10
85.0955240443
 20
205.1791690474
 30
0.0
 11
85.0955240443
 21
238.1791690474
 31
0.0
  0
LINE
  5
A2
330
3C
100
AcDbEntity
  8
MIRANDA25MM_RING
  6
CONTINUOUS
 62
     7
100
AcDbLine
 10
97.6955240443
 20
238.1791690474
 30
0.0
 11
97.6955240443
 21
205.1791690474
 31
0.0
  0
LINE
  5
A3
330
3C
100
AcDbEntity
  8
MIRANDA25MM_RING
  6
CONTINUOUS
 62
     7
100
AcDbLine
 10
97.8955240443
 20
205.3791690474
 30
0.0
 11
97.8955240443
 21
237.9791690474
 31
0.0
  0
LINE
  5
A4
330
3C
100
AcDbEntity
  8
MIRANDA25MM_RING
  6
CONTINUOUS
 62
     7
100
AcDbLine
 10
84.8955240443
 20
237.9791690474
 30
0.0
 11
84.8955240443
 21
205.3791690474
 31
0.0
  0
LINE
  5
A5
330
3C
100
AcDbEntity
  8
MIRANDA25MM_RING
  6
CONTINUOUS
 62
     7
100
AcDbLine
 10
97.6955240443
 20
205.1791690474
 30
0.0
 11
97.8955240443
 21
205.3791690474
 31
0.0
  0
LINE
  5
A6
330
3C
100
AcDbEntity
  8
MIRANDA25MM_RING
  6
CONTINUOUS
 62
     7
100
AcDbLine
 10
97.8955240443
 20
237.9791690474
 30
0.0
 11
97.6955240443
 21
238.1791690474
 31
0.0
  0
LINE
  5
A7
330
3C
100
AcDbEntity
  8
MIRANDA25MM_RING
  6
CONTINUOUS
 62
     7
100
AcDbLine
 10
85.0955240443
 20
238.1791690474
 30
0.0
 11
84.8955240443
 21
237.9791690474
 31
0.0
  0
LINE
  5
A8
330
3C
100
AcDbEntity
  8
MIRANDA25MM_RING
  6
CONTINUOUS
 62
     7
100
AcDbLine
 10
84.8955240443
 20
205.3791690474
 30
0.0
 11
85.0955240443
 21
205.1791690474
 31
0.0
  0
LINE
  5
A9
330
3C
100
AcDbEntity
  8
MIRANDA25MM_RING
  6
CONTINUOUS
 62
     7
100
AcDbLine
 10
89.6231822764
 20
205.1791690474
 30
0.0
 11
97.6955240443
 21
205.1791690474
 31
0.0
  0
LINE
  5
AA
330
3C
100
AcDbEntity
  8
MIRANDA25MM_RING
  6
CONTINUOUS
 62
     7
100
AcDbLine
 10
85.0955240443
 20
205.1791690474
 30
0.0
 11
87.3837127812
 21
205.1791690474
 31
0.0
  0
LINE
  5
AB
330
3C
100
AcDbEntity
  8
MIRANDA25MM_RING
  6
CONTINUOUS
 62
     7
100
AcDbLine
 10
87.3341838381
 20
238.1791690474
 30
0.0
 11
85.0955240443
 21
238.1791690474
 31
0.0
  0
LINE
  5
AC
330
3C
100
AcDbEntity
  8
MIRANDA25MM_RING
  6
CONTINUOUS
 62
     7
100
AcDbLine
 10
97.6955240443
 20
238.1791690474
 30
0.0
 11
89.6584106422
 21
238.1791690474
 31
0.0
  0
LINE
  5
AD
330
3C
100
AcDbEntity
  8
MIRANDA25MM_CELL
  6
CONTINUOUS
 62
     7
100
AcDbLine
 10
77.0955240443
 20
205.1791690474
 30
0.0
 11
77.0955240443
 21
221.4291690474
 31
0.0
  0
LINE
  5
AE
330
3C
100
AcDbEntity
  8
MIRANDA25MM_CELL
  6
CONTINUOUS
 62
     7
100
AcDbLine
 10
77.0955240443
 20
221.9291690474
 30
0.0
 11
77.0955240443
 21
238.1791690474
 31
0.0
  0
LINE
  5
AF
330
3C
100
AcDbEntity
  8
MIRANDA25MM_CELL
  6
CONTINUOUS
 62
     7
100
AcDbLine
 10
84.1955240443
 20
238.1791690474
 30
0.0
 11
84.1955240443
 21
221.9291690474
 31
0.0
  0
LINE
  5
B0
330
3C
100
AcDbEntity
  8
MIRANDA25MM_CELL
  6
CONTINUOUS
 62
     7
100
AcDbLine
 10
84.1955240443
 20
221.4291690474
 30
0.0
 11
84.1955240443
 21
205.1791690474
 31
0.0
  0
LINE
  5
B1
330
3C
100
AcDbEntity
  8
MIRANDA25MM_CELL
  6
CONTINUOUS
 62
     7
100
AcDbLine
 10
84.3955240443
 20
205.3791690474
 30
0.0
 11
84.3955240443
 21
237.9791690474
 31
0.0
  0
LINE
  5
B2
330
3C
100
AcDbEntity
  8
MIRANDA25MM_CELL
  6
CONTINUOUS
 62
     7
100
AcDbLine
 10
76.8955240443
 20
237.9791690474
 30
0.0
 11
76.8955240443
 21
205.3791690474
 31
0.0
  0
SPLINE
  5
B3
330
3C
100
AcDbEntity
  8
MIRANDA25MM_CELL
  6
CONTINUOUS
 62
     7
100
AcDbSpline
210
0.0
220
0.0
230
1.0
 70
     8
 71
     3
 72
    11
 73
     7
 74
     0
 42
0.0000000052849569
 43
0.0000000001
 40
0.0
 40
0.0
 40
0.0
 40
0.0
 40
0.2553767962939203
 40
0.5085533730259809
 40
0.7618282881137601
 40
0.9999999999999999
 40
0.9999999999999999
 40
0.9999999999999999
 40
0.9999999999999999
 10
80.99552404432593
 20
235.9685882098316
 30
0.0
 10
80.99552699654622
 20
235.870978367695
 30
0.0
 10
80.82717324143576
 20
235.6693811757126
 30
0.0
 10
80.2459058904728
 20
235.5263578530199
 30
0.0
 10
79.67749255207544
 20
235.6658868212147
 30
0.0
 10
79.50733883299988
 20
235.8571937241865
 30
0.0
 10
79.49669717175718
 20
235.9485593103769
 30
0.0
  0
SPLINE
  5
B4
330
3C
100
AcDbEntity
  8
MIRANDA25MM_CELL
  6
CONTINUOUS
 62
     7
100
AcDbSpline
210
0.0
220
0.0
230
1.0
 70
     8
 71
     3
 72
    11
 73
     7
 74
     0
 42
0.0000000052680695
 43
0.0000000001
 40
0.0
 40
0.0
 40
0.0
 40
0.0
 40
0.2412568887688863
 40
0.4935020043802232
 40
0.7456559660628763
 40
1.0
 40
1.0
 40
1.0
 40
1.0
 10
79.496213942509
 20
207.4050966237005
 30
0.0
 10
79.50452943292193
 20
207.497968303676
 30
0.0
 10
79.67436767923843
 20
207.6916885826971
 30
0.0
 10
80.24588825893912
 20
207.8319807806259
 30
0.0
 10
80.82715239025273
 20
207.6889550360924
 30
0.0
 10
80.99552109208135
 20
207.4873604633813
 30
0.0
 10
80.99552404432593
 20
207.389749884945
 30
0.0
  0
LINE
  5
B5
330
3C
100
AcDbEntity
  8
MIRANDA25MM_CELL
  6
CONTINUOUS
 62
     7
100
AcDbLine
 10
76.9439358391
 20
221.5791690474
 30
0.0
 11
77.0955240443
 21
221.4291690474
 31
0.0
  0
SPLINE
  5
B6
330
3C
100
AcDbEntity
  8
MIRANDA25MM_CELL
  6
CONTINUOUS
 62
     7
100
AcDbSpline
210
0.0
220
0.0
230
1.0
 70
     8
 71
     3
 72
    11
 73
     7
 74
     0
 42
0.0000000499994791
 43
0.0000000001
 40
0.0
 40
0.0
 40
0.0
 40
0.0
 40
0.1255291886487485
 40
0.1255291886487485
 40
0.1255291886487485
 40
1.0
 40
1.0
 40
1.0
 40
1.0
 10
76.94393583918942
 20
221.7791690473883
 30
0.0
 10
76.94388464832845
 20
221.770800154637
 30
0.0
 10
76.9438398831453
 20
221.7624312201141
 30
0.0
 10
76.94380154403581
 20
221.7540622586194
 30
0.0
 10
76.94353447857827
 20
221.6957651160801
 30
0.0
 10
76.94357925003317
 20
221.6374657110698
 30
0.0
 10
76.94393583918942
 20
221.5791690473883
 30
0.0
  0
LINE
  5
B7
330
3C
100
AcDbEntity
  8
MIRANDA25MM_CELL
  6
CONTINUOUS
 62
     7
100
AcDbLine
 10
77.0955240443
 20
221.9291690474
 30
0.0
 11
76.9439358391
 21
221.7791690474
 31
0.0
  0
LINE
  5
B8
330
3C
100
AcDbEntity
  8
MIRANDA25MM_CELL
  6
CONTINUOUS
 62
     7
100
AcDbLine
 10
84.1955240443
 20
221.9291690474
 30
0.0
 11
77.0955240443
 21
221.9291690474
 31
0.0
  0
LINE
  5
B9
330
3C
100
AcDbEntity
  8
MIRANDA25MM_CELL
  6
CONTINUOUS
 62
     7
100
AcDbLine
 10
84.3471122494
 20
221.7791690474
 30
0.0
 11
76.9439358391
 21
221.7791690474
 31
0.0
  0
LINE
  5
BA
330
3C
100
AcDbEntity
  8
MIRANDA25MM_CELL
  6
CONTINUOUS
 62
     7
100
AcDbLine
 10
84.3471122494
 20
221.7791690474
 30
0.0
 11
84.1955240443
 21
221.9291690474
 31
0.0
  0
LINE
  5
BB
330
3C
100
AcDbEntity
  8
MIRANDA25MM_CELL
  6
CONTINUOUS
 62
     7
100
AcDbLine
 10
84.3471122494
 20
221.5791690474
 30
0.0
 11
76.9439358391
 21
221.5791690474
 31
0.0
  0
LINE
  5
BC
330
3C
100
AcDbEntity
  8
MIRANDA25MM_CELL
  6
CONTINUOUS
 62
     7
100
AcDbLine
 10
84.3471122494
 20
221.5791690474
 30
0.0
 11
84.3471122494
 21
221.7791690474
 31
0.0
  0
LINE
  5
BD
330
3C
100
AcDbEntity
  8
MIRANDA25MM_CELL
  6
CONTINUOUS
 62
     7
100
AcDbLine
 10
84.1955240443
 20
221.4291690474
 30
0.0
 11
77.0955240443
 21
221.4291690474
 31
0.0
  0
LINE
  5
BE
330
3C
100
AcDbEntity
  8
MIRANDA25MM_CELL
  6
CONTINUOUS
 62
     7
100
AcDbLine
 10
84.1955240443
 20
221.4291690474
 30
0.0
 11
84.3471122494
 21
221.5791690474
 31
0.0
  0
LINE
  5
BF
330
3C
100
AcDbEntity
  8
MIRANDA25MM_CELL
  6
CONTINUOUS
 62
     7
100
AcDbLine
 10
108.8455240443
 20
232.6791690474
 30
0.0
 11
108.8455240443
 21
210.6791690474
 31
0.0
  0
LINE
  5
C0
330
3C
100
AcDbEntity
  8
MIRANDA25MM_CELL
  6
CONTINUOUS
 62
     7
100
AcDbLine
 10
109.0455240443
 20
210.8791690474
 30
0.0
 11
109.0455240443
 21
232.4791690474
 31
0.0
  0
LINE
  5
C1
330
3C
100
AcDbEntity
  8
MIRANDA25MM_CELL
  6
CONTINUOUS
 62
     7
100
AcDbLine
 10
76.2695240443
 20
205.9791690474
 30
0.0
 11
76.8955240443
 21
205.9791690474
 31
0.0
  0
LINE
  5
C2
330
3C
100
AcDbEntity
  8
MIRANDA25MM_CELL
  6
CONTINUOUS
 62
     7
100
AcDbLine
 10
76.8955240443
 20
237.3791690474
 30
0.0
 11
76.2695240443
 21
237.3791690474
 31
0.0
  0
LINE
  5
C3
330
3C
100
AcDbEntity
  8
MIRANDA25MM_CELL
  6
CONTINUOUS
 62
     7
100
AcDbLine
 10
77.0955240443
 20
205.1791690474
 30
0.0
 11
84.1955240443
 21
205.1791690474
 31
0.0
  0
LINE
  5
C4
330
3C
100
AcDbEntity
  8
MIRANDA25MM_CELL
  6
CONTINUOUS
 62
     7
100
AcDbLine
 10
84.1955240443
 20
238.1791690474
 30
0.0
 11
77.0955240443
 21
238.1791690474
 31
0.0
  0
LINE
  5
C5
330
3C
100
AcDbEntity
  8
MIRANDA25MM_CELL
  6
CONTINUOUS
 62
     7
100
AcDbLine
 10
84.1955240443
 20
205.1791690474
 30
0.0
 11
84.3955240443
 21
205.3791690474
 31
0.0
  0
LINE
  5
C6
330
3C
100
AcDbEntity
  8
MIRANDA25MM_CELL
  6
CONTINUOUS
 62
     7
100
AcDbLine
 10
84.3955240443
 20
237.9791690474
 30
0.0
 11
84.1955240443
 21
238.1791690474
 31
0.0
  0
LINE
  5
C7
330
3C
100
AcDbEntity
  8
MIRANDA25MM_CELL
  6
CONTINUOUS
 62
     7
100
AcDbLine
 10
77.0955240443
 20
238.1791690474
 30
0.0
 11
76.8955240443
 21
237.9791690474
 31
0.0
  0
LINE
  5
C8
330
3C
100
AcDbEntity
  8
MIRANDA25MM_CELL
  6
CONTINUOUS
 62
     7
100
AcDbLine
 10
76.8955240443
 20
205.3791690474
 30
0.0
 11
77.0955240443
 21
205.1791690474
 31
0.0
  0
LINE
  5
C9
330
3C
100
AcDbEntity
  8
MIRANDA25MM_CELL
  6
CONTINUOUS
 62
     7
100
AcDbLine
 10
107.1355240443
 20
210.6791690474
 30
0.0
 11
108.8455240443
 21
210.6791690474
 31
0.0
  0
LINE
  5
CA
330
3C
100
AcDbEntity
  8
MIRANDA25MM_CELL
  6
CONTINUOUS
 62
     7
100
AcDbLine
 10
108.8455240443
 20
232.6791690474
 30
0.0
 11
107.1355240443
 21
232.6791690474
 31
0.0
  0
LINE
  5
CB
330
3C
100
AcDbEntity
  8
MIRANDA25MM_CELL
  6
CONTINUOUS
 62
     7
100
AcDbLine
 10
108.8455240443
 20
210.6791690474
 30
0.0
 11
109.0455240443
 21
210.8791690474
 31
0.0
  0
LINE
  5
CC
330
3C
100
AcDbEntity
  8
MIRANDA25MM_CELL
  6
CONTINUOUS
 62
     7
100
AcDbLine
 10
109.0455240443
 20
232.4791690474
 30
0.0
 11
108.8455240443
 21
232.6791690474
 31
0.0
  0
ARC
  5
CE
330
3C
100
AcDbEntity
  8
05117020P_001_SE
  6
CONTINUOUS
 62
     7
100
AcDbCircle
 10
100.4308056235
 20
221.6791690474
 30
0.0
 40
0.849999999999999
100
AcDbArc
 50
218.0677016681
 51
346.3910393692
  0
ARC
  5
CF
330
3C
100
AcDbEntity
  8
05117020P_001_SE
  6
CONTINUOUS
 62
     7
100
AcDbCircle
 10
100.4308056235
 20
221.6791690474
 30
0.0
 40
0.8499999999999991
100
AcDbArc
 50
346.3910393692
 51
13.6089606308
  0
ARC
  5
D0
330
3C
100
AcDbEntity
  8
05117020P_001_SE
  6
CONTINUOUS
 62
     7
100
AcDbCircle
 10
100.4308056235
 20
221.6791690474
 30
0.0
 40
0.6767949192431105
100
AcDbArc
 50
268.5609282042
 51
289.1359409128
  0
LINE
  5
D1
330
3C
100
AcDbEntity
  8
05117020P_001_SE
  6
CONTINUOUS
 62
     7
100
AcDbLine
 10
99.7842367079
 20
221.8791690474
 30
0.0
 11
101.0773745392
 21
221.8791690474
 31
0.0
  0
LINE
  5
D2
330
3C
100
AcDbEntity
  8
05117020P_001_SE
  6
CONTINUOUS
 62
     7
100
AcDbLine
 10
101.0773745392
 20
221.4791690474
 30
0.0
 11
99.7842367079
 21
221.4791690474
 31
0.0
  0
ELLIPSE
  5
D3
330
3C
100
AcDbEntity
  8
05117020P_001_SE
  6
CONTINUOUS
 62
     7
100
AcDbEllipse
 10
68.1695240443
 20
235.7087805874
 30
0.0
 11
-0.6767949192431135
 21
-4.144173657651351E-17
 31
0.0
210
0.0
220
0.0
230
1.0
 40
0.5
 41
3.281944778953094
 42
4.692548755170224
  0
ELLIPSE
  5
D4
330
3C
100
AcDbEntity
  8
05117020P_001_SE
  6
CONTINUOUS
 62
     7
100
AcDbEllipse
 10
68.1695240443
 20
235.7087805874
 30
0.0
 11
0.6767949192431101
 21
-5.162728691353908E-15
 31
0.0
210
0.0
220
0.0
230
1.0
 40
0.5
 41
2.150935765272075
 42
2.980326395531096
  0
LINE
  5
D5
330
3C
100
AcDbEntity
  8
05117020P_001_SE
  6
CONTINUOUS
 62
     7
100
AcDbLine
 10
68.182950927
 20
236.0471114467
 30
0.0
 11
68.4761708728
 21
235.5375471022
 31
0.0
  0
LINE
  5
D6
330
3C
100
AcDbEntity
  8
05117020P_001_SE
  6
CONTINUOUS
 62
     7
100
AcDbLine
 10
68.0757439172
 20
235.5100894385
 30
0.0
 11
67.7985452938
 21
235.9918115616
 31
0.0
  0
ELLIPSE
  5
D7
330
3C
100
AcDbEntity
  8
05117020P_001_SE
  6
CONTINUOUS
 62
     7
100
AcDbEllipse
 10
68.1695240443
 20
207.6495575061
 30
0.0
 11
-0.6767949192431135
 21
-5.245612164506936E-15
 31
0.0
210
0.0
220
0.0
230
1.0
 40
0.5
 41
0.2999898318459109
 42
2.841602821743946
  0
LINE
  5
D8
330
3C
100
AcDbEntity
  8
05117020P_001_SE
  6
CONTINUOUS
 62
     7
100
AcDbLine
 10
68.8160929599
 20
207.5495575061
 30
0.0
 11
67.5229551286
 21
207.5495575061
 31
0.0
  0
LINE
  5
D9
330
3C
100
AcDbEntity
  8
05117020P_001_SE
  6
CONTINUOUS
 62
     7
100
AcDbLine
 10
67.6607565292
 20
207.7495575061
 30
0.0
 11
68.6776074112
 21
207.7495575061
 31
0.0
  0
ELLIPSE
  5
DB
330
3C
100
AcDbEntity
  8
02414025P_STD_00
  6
CONTINUOUS
 62
     7
100
AcDbEllipse
 10
80.2455240443
 20
207.0866409937
 30
0.0
 11
-0.9999999999999952
 21
-6.123233995736735E-17
 31
0.0
210
0.0
220
0.0
230
1.0
 40
0.5
 41
0.0
 42
0.050533107539836
  0
ELLIPSE
  5
DC
330
3C
100
AcDbEntity
  8
02414025P_STD_00
  6
CONTINUOUS
 62
     7
100
AcDbEllipse
 10
80.2455240443
 20
207.0866409937
 30
0.0
 11
-0.9999999999999952
 21
-6.123233995736735E-17
 31
0.0
210
0.0
220
0.0
230
1.0
 40
0.5
 41
3.091059546049676
 42
6.283185307179586
  0
ELLIPSE
  5
DD
330
3C
100
AcDbEntity
  8
02414025P_STD_00
  6
CONTINUOUS
 62
     7
100
AcDbEllipse
 10
80.2455240443
 20
206.8117375551
 30
0.0
 11
-0.972228373051901
 21
-5.953181825491246E-17
 31
0.0
210
0.0
220
0.0
230
1.0
 40
0.5
 41
0.0
 42
0.0441598946277237
  0
ELLIPSE
  5
DE
330
3C
100
AcDbEntity
  8
02414025P_STD_00
  6
CONTINUOUS
 62
     7
100
AcDbEllipse
 10
80.2455240443
 20
206.8117375551
 30
0.0
 11
-0.972228373051901
 21
-5.953181825491246E-17
 31
0.0
210
0.0
220
0.0
230
1.0
 40
0.5
 41
3.082622746120362
 42
6.283185307179586
  0
ELLIPSE
  5
DF
330
3C
100
AcDbEntity
  8
02414025P_STD_00
  6
CONTINUOUS
 62
     7
100
AcDbEllipse
 10
80.2455240443
 20
206.6536282918
 30
0.0
 11
-0.772989433433552
 21
-4.733195177145625E-17
 31
0.0
210
0.0
220
0.0
230
1.0
 40
0.5
 41
0.0
 42
6.283185307179586
  0
LINE
  5
E0
330
3C
100
AcDbEntity
  8
02414025P_STD_00
  6
CONTINUOUS
 62
     7
100
AcDbLine
 10
79.2468005701
 20
207.0613851919
 30
0.0
 11
79.2745367458
 21
206.787183148
 31
0.0
  0
LINE
  5
E1
330
3C
100
AcDbEntity
  8
02414025P_STD_00
  6
CONTINUOUS
 62
     7
100
AcDbLine
 10
81.2165113427
 20
206.787183148
 30
0.0
 11
81.2442475185
 21
207.0613851919
 31
0.0
  0
SPLINE
  5
E2
330
3C
100
AcDbEntity
  8
02414025P_STD_00
  6
CONTINUOUS
 62
     7
100
AcDbSpline
210
0.0
220
0.0
230
1.0
 70
     8
 71
     3
 72
    14
 73
    10
 74
     0
 42
0.0000000124234397
 43
0.0000000001
 40
0.0
 40
0.0
 40
0.0
 40
0.0
 40
0.0606897782198503
 40
0.2123955038368341
 40
0.365726129274012
 40
0.5289166772469802
 40
0.7053637043437369
 40
0.8907439729945534
 40
1.0
 40
1.0
 40
1.0
 40
1.0
 10
79.27821778441725
 20
206.7924113356943
 30
0.0
 10
79.27844627605526
 20
206.7757339189021
 30
0.0
 10
79.27948491040551
 20
206.725912343454
 30
0.0
 10
79.31555878302177
 20
206.637243136429
 30
0.0
 10
79.38022425399001
 20
206.5408049623215
 30
0.0
 10
79.47334288587726
 20
206.4540881272668
 30
0.0
 10
79.59193940751743
 20
206.3790865396827
 30
0.0
 10
79.71970397157426
 20
206.3244414825296
 30
0.0
 10
79.7999127710837
 20
206.3011958171626
 30
0.0
 10
79.83508620462769
 20
206.2912765776281
 30
0.0
  0
SPLINE
  5
E3
330
3C
100
AcDbEntity
  8
02414025P_STD_00
  6
CONTINUOUS
 62
     7
100
AcDbSpline
210
0.0
220
0.0
230
1.0
 70
     8
 71
     3
 72
    18
 73
    14
 74
     0
 42
0.0000000061586698
 43
0.0000000001
 40
0.0
 40
0.0
 40
0.0
 40
0.0
 40
0.0530989154680668
 40
0.1527080404450653
 40
0.2517612408697424
 40
0.3507984781031159
 40
0.4503466486994843
 40
0.5510977406073907
 40
0.6539163784551625
 40
0.7594337794452551
 40
0.8487650384452761
 40
0.9317451475902864
 40
1.0
 40
1.0
 40
1.0
 40
1.0
 10
79.83508620462769
 20
206.2912765776281
 30
0.0
 10
79.86741754306132
 20
206.2833402144672
 30
0.0
 10
79.94679213689386
 20
206.2643301705603
 30
0.0
 10
80.09921633404879
 20
206.2433359253604
 30
0.0
 10
80.27880481591453
 20
206.2375830295033
 30
0.0
 10
80.45873084522178
 20
206.2503071727052
 30
0.0
 10
80.63167336849999
 20
206.281583369064
 30
0.0
 10
80.79334828142267
 20
206.3314324182264
 30
0.0
 10
80.93903615380822
 20
206.4004373572101
 30
0.0
 10
81.05719119845517
 20
206.4855366603219
 30
0.0
 10
81.14285016815305
 20
206.582005835157
 30
0.0
 10
81.19754487515455
 20
206.6825187077959
 30
0.0
 10
81.20857266620251
 20
206.7466498090018
 30
0.0
 10
81.21395787280878
 20
206.78086478438
 30
0.0
  0
ELLIPSE
  5
E4
330
3C
100
AcDbEntity
  8
02414025P_STD_00
  6
CONTINUOUS
 62
     7
100
AcDbEllipse
 10
80.2455240443
 20
236.2716971012
 30
0.0
 11
-0.999999999999995
 21
-6.123233995736734E-17
 31
0.0
210
0.0
220
0.0
230
1.0
 40
0.5
 41
0.0
 42
3.192125761129625
  0
ELLIPSE
  5
E5
330
3C
100
AcDbEntity
  8
02414025P_STD_00
  6
CONTINUOUS
 62
     7
100
AcDbEllipse
 10
80.2455240443
 20
236.2716971012
 30
0.0
 11
-0.999999999999995
 21
-6.123233995736734E-17
 31
0.0
210
0.0
220
0.0
230
1.0
 40
0.5
 41
6.232652199639473
 42
6.283185307179586
  0
ELLIPSE
  5
E6
330
3C
100
AcDbEntity
  8
02414025P_STD_00
  6
CONTINUOUS
 62
     7
100
AcDbEllipse
 10
80.2455240443
 20
236.5466005398
 30
0.0
 11
-0.972228373051901
 21
-5.953181825491246E-17
 31
0.0
210
0.0
220
0.0
230
1.0
 40
0.5
 41
0.0
 42
3.203795255564138
  0
ELLIPSE
  5
E7
330
3C
100
AcDbEntity
  8
02414025P_STD_00
  6
CONTINUOUS
 62
     7
100
AcDbEllipse
 10
80.2455240443
 20
236.5466005398
 30
0.0
 11
-0.972228373051901
 21
-5.953181825491246E-17
 31
0.0
210
0.0
220
0.0
230
1.0
 40
0.5
 41
6.223937863218723
 42
6.283185307179586
  0
ELLIPSE
  5
E8
330
3C
100
AcDbEntity
  8
02414025P_STD_00
  6
CONTINUOUS
 62
     7
100
AcDbEllipse
 10
80.2455240443
 20
236.7047098031
 30
0.0
 11
-0.7729894334335513
 21
-4.733195177145622E-17
 31
0.0
210
0.0
220
0.0
230
1.0
 40
0.5
 41
0.0
 42
6.283185307179586
  0
LINE
  5
E9
330
3C
100
AcDbEntity
  8
02414025P_STD_00
  6
CONTINUOUS
 62
     7
100
AcDbLine
 10
81.2442475185
 20
236.2969529029
 30
0.0
 11
81.2165113427
 21
236.5711549468
 31
0.0
  0
LINE
  5
EA
330
3C
100
AcDbEntity
  8
02414025P_STD_00
  6
CONTINUOUS
 62
     7
100
AcDbLine
 10
79.2745367458
 20
236.5711549468
 30
0.0
 11
79.2468005701
 21
236.2969529029
 31
0.0
  0
SPLINE
  5
EB
330
3C
100
AcDbEntity
  8
02414025P_STD_00
  6
CONTINUOUS
 62
     7
100
AcDbSpline
210
0.0
220
0.0
230
1.0
 70
     8
 71
     3
 72
    21
 73
    17
 74
     0
 42
0.0000000048707109
 43
0.0000000001
 40
0.0
 40
0.0
 40
0.0
 40
0.0
 40
0.0444598664670921
 40
0.1087606009111213
 40
0.1753448534630211
 40
0.2470559243210891
 40
0.3240401994582616
 40
0.403375291633874
 40
0.4821717112821619
 40
0.5602222410649712
 40
0.6379135759121594
 40
0.715746077962373
 40
0.7940979780329099
 40
0.8735902163900684
 40
0.9549028919502247
 40
1.0
 40
1.0
 40
1.0
 40
1.0
 10
81.21190473395312
 20
236.5796911390004
 30
0.0
 10
81.20846431674136
 20
236.6082298631919
 30
0.0
 10
81.20060771189532
 20
236.6674533505887
 30
0.0
 10
81.15182230606241
 20
236.7623037557917
 30
0.0
 10
81.07591428579158
 20
236.8543093384626
 30
0.0
 10
80.97209887512531
 20
236.9365967693672
 30
0.0
 10
80.8416175209468
 20
237.0068471123671
 30
0.0
 10
80.68758730319142
 20
237.0620811377255
 30
0.0
 10
80.51756224584926
 20
237.0996411182386
 30
0.0
 10
80.3390875188166
 20
237.1186166837846
 30
0.0
 10
80.15799300695635
 20
237.1189127376479
 30
0.0
 10
79.97987667460517
 20
237.1006485207551
 30
0.0
 10
79.80948242783762
 20
237.0637466674448
 30
0.0
 10
79.65313379895069
 20
237.0086852140273
 30
0.0
 10
79.53168906406209
 20
236.9440638412781
 30
0.0
 10
79.47440030082322
 20
236.8994762053149
 30
0.0
 10
79.45062578706452
 20
236.8806146477157
 30
0.0
  0
ARC
  5
EC
330
3C
100
AcDbEntity
  8
02414025P_STD_00
  6
CONTINUOUS
 62
     7
100
AcDbCircle
 10
79.7159434884
 20
236.5311435094
 30
0.0
 40
0.4387750667679441
100
AcDbArc
 50
127.2056862914
 51
173.9319400844
  0
ELLIPSE
  5
ED
330
3C
100
AcDbEntity
  8
02414025P_STD_00
  6
CONTINUOUS
 62
     7
100
AcDbEllipse
 10
95.0455240443
 20
227.7202463741
 30
0.0
 11
-0.9999999999999957
 21
8.612385039926668E-15
 31
0.0
210
0.0
220
0.0
230
1.0
 40
0.9366721892
 41
0.0000000000000092
 42
3.377781571034871
  0
ELLIPSE
  5
EE
330
3C
100
AcDbEntity
  8
02414025P_STD_00
  6
CONTINUOUS
 62
     7
100
AcDbEllipse
 10
95.0455240443
 20
227.7202463741
 30
0.0
 11
-0.9999999999999957
 21
8.612385039926668E-15
 31
0.0
210
0.0
220
0.0
230
1.0
 40
0.9366721892
 41
6.046996389734585
 42
6.283185307179586
  0
ELLIPSE
  5
EF
330
3C
100
AcDbEntity
  8
02414025P_STD_00
  6
CONTINUOUS
 62
     7
100
AcDbEllipse
 10
95.0455240443
 20
227.8314131054
 30
0.0
 11
0.9722283730519005
 21
1.794255294231719E-15
 31
0.0
210
0.0
220
0.0
230
1.0
 40
0.9366721892
 41
0.0
 42
3.230041098517982
  0
ELLIPSE
  5
F0
330
3C
100
AcDbEntity
  8
02414025P_STD_00
  6
CONTINUOUS
 62
     7
100
AcDbEllipse
 10
95.0455240443
 20
227.8314131054
 30
0.0
 11
0.9722283730519005
 21
1.794255294231719E-15
 31
0.0
210
0.0
220
0.0
230
1.0
 40
0.9366721892
 41
3.230041098517982
 42
6.010238108164313
  0
ELLIPSE
  5
F1
330
3C
100
AcDbEntity
  8
02414025P_STD_00
  6
CONTINUOUS
 62
     7
100
AcDbEllipse
 10
95.0455240443
 20
227.8314131054
 30
0.0
 11
0.9722283730519005
 21
1.794255294231719E-15
 31
0.0
210
0.0
220
0.0
230
1.0
 40
0.9366721892
 41
6.010238108164313
 42
6.283185307179586
  0
ELLIPSE
  5
F2
330
3C
100
AcDbEntity
  8
02414025P_STD_00
  6
CONTINUOUS
 62
     7
100
AcDbEllipse
 10
95.0455240443
 20
227.8953500648
 30
0.0
 11
-0.7729894334335512
 21
6.891561952135771E-15
 31
0.0
210
0.0
220
0.0
230
1.0
 40
0.9366721892
 41
0.0
 42
6.283185307179586
  0
LINE
  5
F3
330
3C
100
AcDbEntity
  8
02414025P_STD_00
  6
CONTINUOUS
 62
     7
100
AcDbLine
 10
96.0177608673
 20
227.9394267859
 30
0.0
 11
95.9907602689
 21
228.0445065205
 31
0.0
  0
LINE
  5
F4
330
3C
100
AcDbEntity
  8
02414025P_STD_00
  6
CONTINUOUS
 62
     7
100
AcDbLine
 10
94.1002878197
 20
228.0445065205
 30
0.0
 11
94.0732872213
 21
227.9394267859
 31
0.0
  0
ELLIPSE
  5
F5
330
3C
100
AcDbEntity
  8
02414025P_STD_00
  6
CONTINUOUS
 62
     7
100
AcDbEllipse
 10
95.0455240443
 20
204.6657424209
 30
0.0
 11
0.9999999999999957
 21
6.123233995736738E-17
 31
0.0
210
0.0
220
0.0
230
1.0
 40
0.1650476059
 41
2.344345950396916
 42
6.283185307179586
  0
ELLIPSE
  5
F6
330
3C
100
AcDbEntity
  8
02414025P_STD_00
  6
CONTINUOUS
 62
     7
100
AcDbEllipse
 10
95.0455240443
 20
204.6657424209
 30
0.0
 11
0.9999999999999957
 21
6.123233995736738E-17
 31
0.0
210
0.0
220
0.0
230
1.0
 40
0.1650476059
 41
0.0
 42
0.7953988301841353
  0
ELLIPSE
  5
F7
330
3C
100
AcDbEntity
  8
02414025P_STD_00
  6
CONTINUOUS
 62
     7
100
AcDbEllipse
 10
95.0455240443
 20
204.3526646496
 30
0.0
 11
0.9722283730519005
 21
5.953181825491220E-17
 31
0.0
210
0.0
220
0.0
230
1.0
 40
0.1650476059
 41
3.156233757886137
 42
6.268544202881248
  0
ELLIPSE
  5
F8
330
3C
100
AcDbEntity
  8
02414025P_STD_00
  6
CONTINUOUS
 62
     7
100
AcDbEllipse
 10
95.0455240443
 20
204.6657424209
 30
0.0
 11
-0.700000000000001
 21
-4.286263797015741E-17
 31
0.0
210
0.0
220
0.0
230
1.0
 40
0.1650476059
 41
0.0
 42
3.141592653589793
  0
LINE
  5
F9
330
3C
100
AcDbEntity
  8
02414025P_STD_00
  6
CONTINUOUS
 62
     7
100
AcDbLine
 10
94.0456312233
 20
204.663326028
 30
0.0
 11
94.0733998737
 21
204.3503153639
 31
0.0
  0
LINE
  5
FA
330
3C
100
AcDbEntity
  8
02414025P_STD_00
  6
CONTINUOUS
 62
     7
100
AcDbLine
 10
96.0176482148
 20
204.3503153639
 30
0.0
 11
96.0454168652
 21
204.663326028
 31
0.0
  0
SPLINE
  5
FB
330
3C
100
AcDbEntity
  8
02414025P_STD_00
  6
CONTINUOUS
 62
     7
100
AcDbSpline
210
0.0
220
0.0
230
1.0
 70
     8
 71
     3
 72
    18
 73
    14
 74
     0
 42
0.000000008545487
 43
0.0000000001
 40
0.0
 40
0.0
 40
0.0
 40
0.0
 40
0.0895583605744907
 40
0.2059853522495272
 40
0.3227971619555852
 40
0.4407653708038322
 40
0.5613804271445474
 40
0.6886186672296936
 40
0.7845146597289359
 40
0.857479919448917
 40
0.9215040732884265
 40
0.986338061314996
 40
1.0
 40
1.0
 40
1.0
 40
1.0
 10
94.9747960339804
 20
204.0433109027063
 30
0.0
 10
95.02221258400208
 20
204.0427049067391
 30
0.0
 10
95.11498009215491
 20
204.0417100098171
 30
0.0
 10
95.27303927608881
 20
204.0467197824013
 30
0.0
 10
95.43106094776526
 20
204.057293211088
 30
0.0
 10
95.57694666547918
 20
204.0736428695763
 30
0.0
 10
95.70611551125886
 20
204.0959142147356
 30
0.0
 10
95.80626037329596
 20
204.122728553373
 30
0.0
 10
95.88167455803529
 20
204.1547851109256
 30
0.0
 10
95.94305904547079
 20
204.1966330143439
 30
0.0
 10
95.99017569602975
 20
204.2547173684754
 30
0.0
 10
96.01677289910266
 20
204.3124391880887
 30
0.0
 10
96.01535506686542
 20
204.3434766040722
 30
0.0
 10
96.01504870588047
 20
204.3497714470777
 30
0.0
  0
SPLINE
  5
FC
330
3C
100
AcDbEntity
  8
02414025P_STD_00
  6
CONTINUOUS
 62
     7
100
AcDbSpline
210
0.0
220
0.0
230
1.0
 70
     8
 71
     3
 72
    18
 73
    14
 74
     0
 42
0.0000000097181058
 43
0.0000000001
 40
0.0
 40
0.0
 40
0.0
 40
0.0
 40
0.0222682753196704
 40
0.0924448332413072
 40
0.1573448487491673
 40
0.2264640335987542
 40
0.3109870039620077
 40
0.4344938980249743
 40
0.5677477169954743
 40
0.707538842832349
 40
0.8401472937782295
 40
0.970145271164633
 40
1.0
 40
1.0
 40
1.0
 40
1.0
 10
94.07666359379745
 20
204.3506490797989
 30
0.0
 10
94.07641809726978
 20
204.3413602865251
 30
0.0
 10
94.07569564916811
 20
204.3083491843873
 30
0.0
 10
94.10280330764566
 20
204.2520130273359
 30
0.0
 10
94.14606628549761
 20
204.1994458018032
 30
0.0
 10
94.19786713786748
 20
204.1619989840282
 30
0.0
 10
94.26162278452802
 20
204.1314504783248
 30
0.0
 10
94.34637715190202
 20
204.1050654065928
 30
0.0
 10
94.46412974332328
 20
204.0811059777644
 30
0.0
 10
94.60756584902873
 20
204.0621776032023
 30
0.0
 10
94.7664093474939
 20
204.0496629629451
 30
0.0
 10
94.8947774416407
 20
204.0435119968684
 30
0.0
 10
94.96048724061036
 20
204.0433394858731
 30
0.0
 10
94.9747960339804
 20
204.0433109027063
 30
0.0
  0
LINE
  5
FD
330
3C
100
AcDbEntity
  8
02414025P_STD_00
  6
CONTINUOUS
 62
     7
100
AcDbLine
 10
95.7455240443
 20
204.6657424209
 30
0.0
 11
95.7455240443
 21
205.1791690474
 31
0.0
  0
LINE
  5
FE
330
3C
100
AcDbEntity
  8
02414025P_STD_00
  6
CONTINUOUS
 62
     7
100
AcDbLine
 10
94.3455240443
 20
205.1791690474
 30
0.0
 11
94.3455240443
 21
204.6657424209
 31
0.0
  0
LINE
  5
100
330
3C
100
AcDbEntity
  8
DV7_ﾃﾞﾌｫﾙﾄ
  6
CONTINUOUS
 62
     7
100
AcDbLine
 10
72.4779325553
 20
238.1791690474
 30
0.0
 11
74.2611670852
 21
238.1791690474
 31
0.0
  0
LINE
  5
101
330
3C
100
AcDbEntity
  8
DV7_ﾃﾞﾌｫﾙﾄ
  6
CONTINUOUS
 62
     7
100
AcDbLine
 10
87.3341838381
 20
238.1791690474
 30
0.0
 11
89.6584106422
 21
238.1791690474
 31
0.0
  0
LINE
  5
102
330
3C
100
AcDbEntity
  8
DV7_ﾃﾞﾌｫﾙﾄ
  6
CONTINUOUS
 62
     7
100
AcDbLine
 10
89.6231822764
 20
205.1791690474
 30
0.0
 11
87.3837127812
 21
205.1791690474
 31
0.0
  0
LINE
  5
104
330
3C
100
AcDbEntity
  8
DV7_ﾃﾞﾌｫﾙﾄ
  6
CENTER2
 62
     7
100
AcDbLine
 10
52.3195240443
 20
221.6791690474
 30
0.0
 11
122.2441559342
 21
221.6791690474
 31
0.0
  0
LINE
  5
106
330
3C
100
AcDbEntity
  8
DV7_ﾃﾞﾌｫﾙﾄ
  6
DASHDOT2
 62
     7
100
AcDbLine
 10
118.8937570913
 20
223.4469360004
 30
0.0
 11
122.4292909972
 21
219.9114020945
 31
0.0
  0
LINE
  5
107
330
3C
100
AcDbEntity
  8
DV7_ﾃﾞﾌｫﾙﾄ
  6
DASHDOT2
 62
     7
100
AcDbLine
 10
118.8937570913
 20
219.9114020945
 30
0.0
 11
122.4292909972
 21
223.4469360004
 31
0.0
  0
LINE
  5
109
330
3C
100
AcDbEntity
  8
DV7_AUTO_-_HIDE
  6
CONTINUOUS
 62
     7
100
AcDbLine
 10
128.7582697304
 20
234.335516516
 30
0.0
 11
130.7836499998
 21
231.8012950029
 31
0.0
  0
LINE
  5
10A
330
3C
100
AcDbEntity
  8
DV7_AUTO_-_HIDE
  6
CONTINUOUS
 62
     7
100
AcDbLine
 10
130.7836499998
 20
231.8012950029
 30
0.0
 11
128.0458400651
 21
233.541651482
 31
0.0
  0
LINE
  5
10B
330
3C
100
AcDbEntity
  8
DV7_AUTO_-_HIDE
  6
CONTINUOUS
 62
     7
100
AcDbLine
 10
113.0030658827
 20
239.772572564
 30
0.0
 11
109.8365240443
 21
240.4778786665
 31
0.0
  0
LINE
  5
10C
330
3C
100
AcDbEntity
  8
DV7_AUTO_-_HIDE
  6
CONTINUOUS
 62
     7
100
AcDbLine
 10
109.8365240443
 20
240.4778786665
 30
0.0
 11
113.0606493841
 21
240.8376837604
 31
0.0
  0
LINE
  5
10D
330
3C
100
AcDbEntity
  8
DV7_AUTO_-_HIDE
  6
CONTINUOUS
 62
     7
100
AcDbLine
 10
123.3343881376
 20
224.3520331407
 30
0.0
 11
131.9150202449
 21
232.932665248
 31
0.0
  0
LINE
  5
10E
330
3C
100
AcDbEntity
  8
DV7_AUTO_-_HIDE
  6
CONTINUOUS
 62
     7
100
AcDbLine
 10
109.8365240443
 20
231.9953460907
 30
0.0
 11
109.8365240443
 21
242.0778778111
 31
0.0
  0
ARC
  5
10F
330
3C
100
AcDbEntity
  8
DV7_AUTO_-_HIDE
  6
CONTINUOUS
 62
     7
100
AcDbCircle
 10
109.8365240443
 20
210.8541690474
 30
0.0
 40
29.62370961904527
100
AcDbArc
 50
45.0
 51
90.0000012522
  0
TEXT
  5
110
330
3C
100
AcDbEntity
  8
DV7_AUTO_-_HIDE
  6
CONTINUOUS
 62
     7
100
AcDbText
 10
117.1527134168
 20
240.75409018
 30
0.0
 40
3.2
  1
45°
 50
337.5
  7
SEACAD_ARIAL_TTF
 11
118.3773004003
 21
243.7105046841
 31
0.0
100
AcDbText
 73
     3
  0
LINE
  5
111
330
3C
100
AcDbEntity
  8
DV7_AUTO_-_HIDE
  6
CONTINUOUS
 62
     7
100
AcDbLine
 10
106.3355239634
 20
199.9844274702
 30
0.0
 11
103.1355240443
 21
199.4510941503
 31
0.0
  0
LINE
  5
112
330
3C
100
AcDbEntity
  8
DV7_AUTO_-_HIDE
  6
CONTINUOUS
 62
     7
100
AcDbLine
 10
103.1355240443
 20
199.4510941503
 30
0.0
 11
106.3355239634
 21
198.9177608305
 31
0.0
  0
LINE
  5
113
330
3C
100
AcDbEntity
  8
DV7_AUTO_-_HIDE
  6
CONTINUOUS
 62
     7
100
AcDbLine
 10
117.4615248633
 20
199.9844274702
 30
0.0
 11
120.6615247824
 21
199.4510941503
 31
0.0
  0
LINE
  5
114
330
3C
100
AcDbEntity
  8
DV7_AUTO_-_HIDE
  6
CONTINUOUS
 62
     7
100
AcDbLine
 10
120.6615247824
 20
199.4510941503
 30
0.0
 11
117.4615248633
 21
198.9177608305
 31
0.0
  0
LINE
  5
115
330
3C
100
AcDbEntity
  8
DV7_AUTO_-_HIDE
  6
CONTINUOUS
 62
     7
100
AcDbLine
 10
103.1355240443
 20
204.3991690798
 30
0.0
 11
103.1355240443
 21
197.8510941908
 31
0.0
  0
LINE
  5
116
330
3C
100
AcDbEntity
  8
DV7_AUTO_-_HIDE
  6
CONTINUOUS
 62
     7
100
AcDbLine
 10
120.6615240443
 20
220.3991690798
 30
0.0
 11
120.6615240443
 21
197.8510941908
 31
0.0
  0
LINE
  5
117
330
3C
100
AcDbEntity
  8
DV7_AUTO_-_HIDE
  6
CONTINUOUS
 62
     7
100
AcDbLine
 10
103.1355240443
 20
199.4510941503
 30
0.0
 11
120.6615247824
 21
199.4510941503
 31
0.0
  0
TEXT
  5
118
330
3C
100
AcDbEntity
  8
DV7_AUTO_-_HIDE
  6
CONTINUOUS
 62
     7
100
AcDbText
 10
105.5570609987
 20
200.2510941503
 30
0.0
 40
3.2
  1
17.526
  7
SEACAD_ARIAL_TTF
 11
105.5570609987
 21
203.4510941503
 31
0.0
100
AcDbText
 73
     3
  0
LINE
  5
119
330
3C
100
AcDbEntity
  8
DV7_AUTO_-_HIDE
  6
CONTINUOUS
 62
     7
100
AcDbLine
 10
118.0843031306
 20
227.162965325
 30
0.0
 11
120.7241683804
 21
225.2773472894
 31
0.0
  0
LINE
  5
11A
330
3C
100
AcDbEntity
  8
DV7_AUTO_-_HIDE
  6
CONTINUOUS
 62
     7
100
AcDbLine
 10
120.7241683804
 20
225.2773472894
 30
0.0
 11
118.8385503448
 21
227.9172125392
 31
0.0
  0
LINE
  5
11B
330
3C
100
AcDbEntity
  8
DV7_AUTO_-_HIDE
  6
CONTINUOUS
 62
     7
100
AcDbLine
 10
126.1453203218
 20
219.1019481338
 30
0.0
 11
124.2597022863
 21
221.7418133835
 31
0.0
  0
LINE
  5
11C
330
3C
100
AcDbEntity
  8
DV7_AUTO_-_HIDE
  6
CONTINUOUS
 62
     7
100
AcDbLine
 10
124.2597022863
 20
221.7418133835
 30
0.0
 11
126.899567536
 21
219.856195348
 31
0.0
  0
LINE
  5
11D
330
3C
100
AcDbEntity
  8
DV7_AUTO_-_HIDE
  6
CONTINUOUS
 62
     7
100
AcDbLine
 10
119.7988537484
 20
224.3520326574
 30
0.0
 11
121.8555392017
 21
226.4087181108
 31
0.0
  0
LINE
  5
11E
330
3C
100
AcDbEntity
  8
DV7_AUTO_-_HIDE
  6
CONTINUOUS
 62
     7
100
AcDbLine
 10
123.3343876543
 20
220.8164987515
 30
0.0
 11
125.3910731076
 21
222.8731842048
 31
0.0
  0
LINE
  5
11F
330
3C
100
AcDbEntity
  8
DV7_AUTO_-_HIDE
  6
CONTINUOUS
 62
     7
100
AcDbLine
 10
116.1986850951
 20
229.8028305747
 30
0.0
 11
128.7851858218
 21
217.216329848
 31
0.0
  0
TEXT
  5
120
330
3C
100
AcDbEntity
  8
DV7_AUTO_-_HIDE
  6
CONTINUOUS
 62
     7
100
AcDbText
 10
122.2297883897
 20
224.9030981301
 30
0.0
 40
3.2
  1
5
 50
315.0
  7
SEACAD_ARIAL_TTF
 11
124.4925300894
 21
227.1658398299
 31
0.0
100
AcDbText
 73
     3
  0
LINE
  5
121
330
3C
100
AcDbEntity
  8
DV7_ﾃﾞﾌｫﾙﾄ
  6
CENTER2
 62
     7
100
AcDbLine
 10
55.1355240443
 20
236.9291690474
 30
0.0
 11
53.1355240443
 21
236.9291690474
 31
0.0
  0
LINE
  5
122
330
3C
100
AcDbEntity
  8
DV7_ﾃﾞﾌｫﾙﾄ
  6
CENTER2
 62
     7
100
AcDbLine
 10
55.1355240443
 20
206.4291690474
 30
0.0
 11
53.1355240443
 21
206.4291690474
 31
0.0
  0
LINE
  5
123
330
3C
100
AcDbEntity
  8
DV7_AUTO_-_HIDE
  6
CONTINUOUS
 62
     7
100
AcDbLine
 10
58.3355239634
 20
240.5380432868
 30
0.0
 11
55.1355240443
 21
241.0713766066
 31
0.0
  0
LINE
  5
124
330
3C
100
AcDbEntity
  8
DV7_AUTO_-_HIDE
  6
CONTINUOUS
 62
     7
100
AcDbLine
 10
55.1355240443
 20
241.0713766066
 30
0.0
 11
58.3355239634
 21
241.6047099265
 31
0.0
  0
LINE
  5
125
330
3C
100
AcDbEntity
  8
DV7_AUTO_-_HIDE
  6
CONTINUOUS
 62
     7
100
AcDbLine
 10
49.9355241251
 20
240.5380432868
 30
0.0
 11
53.1355240443
 21
241.0713766066
 31
0.0
  0
LINE
  5
126
330
3C
100
AcDbEntity
  8
DV7_AUTO_-_HIDE
  6
CONTINUOUS
 62
     7
100
AcDbLine
 10
53.1355240443
 20
241.0713766066
 30
0.0
 11
49.9355241251
 21
241.6047099265
 31
0.0
  0
LINE
  5
127
330
3C
100
AcDbEntity
  8
DV7_AUTO_-_HIDE
  6
CONTINUOUS
 62
     7
100
AcDbLine
 10
55.1355240443
 20
238.2091690151
 30
0.0
 11
55.1355240443
 21
242.6713765662
 31
0.0
  0
LINE
  5
128
330
3C
100
AcDbEntity
  8
DV7_AUTO_-_HIDE
  6
CONTINUOUS
 62
     7
100
AcDbLine
 10
53.1355240443
 20
238.2091690151
 30
0.0
 11
53.1355240443
 21
242.6713765662
 31
0.0
  0
LINE
  5
129
330
3C
100
AcDbEntity
  8
DV7_AUTO_-_HIDE
  6
CONTINUOUS
 62
     7
100
AcDbLine
 10
61.5355238826
 20
241.0713766066
 30
0.0
 11
46.7355243438
 21
241.0713766066
 31
0.0
  0
TEXT
  5
12A
330
3C
100
AcDbEntity
  8
DV7_AUTO_-_HIDE
  6
CONTINUOUS
 62
     7
100
AcDbText
 10
52.9647922895
 20
241.8713766066
 30
0.0
 40
3.2
  1
2
  7
SEACAD_ARIAL_TTF
 11
52.9647922895
 21
245.0713766066
 31
0.0
100
AcDbText
 73
     3
  0
LINE
  5
12B
330
3C
100
AcDbEntity
  8
DV7_AUTO_-_HIDE
  6
CONTINUOUS
 62
     7
100
AcDbLine
 10
46.3352768326
 20
224.8791689666
 30
0.0
 11
45.8019435127
 21
221.6791690474
 31
0.0
  0
LINE
  5
12C
330
3C
100
AcDbEntity
  8
DV7_AUTO_-_HIDE
  6
CONTINUOUS
 62
     7
100
AcDbLine
 10
45.8019435127
 20
221.6791690474
 30
0.0
 11
45.2686101929
 21
224.8791689666
 31
0.0
  0
LINE
  5
12D
330
3C
100
AcDbEntity
  8
DV7_AUTO_-_HIDE
  6
CONTINUOUS
 62
     7
100
AcDbLine
 10
46.3352768326
 20
233.7291692996
 30
0.0
 11
45.8019435127
 21
236.9291692188
 31
0.0
  0
LINE
  5
12E
330
3C
100
AcDbEntity
  8
DV7_AUTO_-_HIDE
  6
CONTINUOUS
 62
     7
100
AcDbLine
 10
45.8019435127
 20
236.9291692188
 30
0.0
 11
45.2686101929
 21
233.7291692996
 31
0.0
  0
LINE
  5
12F
330
3C
100
AcDbEntity
  8
DV7_AUTO_-_HIDE
  6
CONTINUOUS
 62
     7
100
AcDbLine
 10
52.7895240766
 20
221.6791690474
 30
0.0
 11
44.2019435532
 21
221.6791690474
 31
0.0
  0
LINE
  5
130
330
3C
100
AcDbEntity
  8
DV7_AUTO_-_HIDE
  6
CONTINUOUS
 62
     7
100
AcDbLine
 10
53.8555240766
 20
236.9291690474
 30
0.0
 11
44.2019435532
 21
236.9291690474
 31
0.0
  0
LINE
  5
131
330
3C
100
AcDbEntity
  8
DV7_AUTO_-_HIDE
  6
CONTINUOUS
 62
     7
100
AcDbLine
 10
45.8019435127
 20
221.6791690474
 30
0.0
 11
45.8019435127
 21
236.9291692188
 31
0.0
  0
TEXT
  5
132
330
3C
100
AcDbEntity
  8
DV7_AUTO_-_HIDE
  6
CONTINUOUS
 62
     7
100
AcDbText
 10
45.0019435127
 20
224.1334374258
 30
0.0
 40
3.2
  1
15.25
 50
90.0
  7
SEACAD_ARIAL_TTF
 11
41.8019435127
 21
224.1334374258
 31
0.0
100
AcDbText
 73
     3
  0
LINE
  5
133
330
3C
100
AcDbEntity
  8
DV7_AUTO_-_HIDE
  6
CONTINUOUS
 62
     7
100
AcDbLine
 10
46.3352768326
 20
218.4791691283
 30
0.0
 11
45.8019435127
 21
221.6791690474
 31
0.0
  0
LINE
  5
134
330
3C
100
AcDbEntity
  8
DV7_AUTO_-_HIDE
  6
CONTINUOUS
 62
     7
100
AcDbLine
 10
45.8019435127
 20
221.6791690474
 30
0.0
 11
45.2686101929
 21
218.4791691283
 31
0.0
  0
LINE
  5
135
330
3C
100
AcDbEntity
  8
DV7_AUTO_-_HIDE
  6
CONTINUOUS
 62
     7
100
AcDbLine
 10
46.3352768326
 20
209.6291687952
 30
0.0
 11
45.8019435127
 21
206.4291688761
 31
0.0
  0
LINE
  5
136
330
3C
100
AcDbEntity
  8
DV7_AUTO_-_HIDE
  6
CONTINUOUS
 62
     7
100
AcDbLine
 10
45.8019435127
 20
206.4291688761
 30
0.0
 11
45.2686101929
 21
209.6291687952
 31
0.0
  0
LINE
  5
137
330
3C
100
AcDbEntity
  8
DV7_AUTO_-_HIDE
  6
CONTINUOUS
 62
     7
100
AcDbLine
 10
52.7895240766
 20
221.6791690474
 30
0.0
 11
44.2019435532
 21
221.6791690474
 31
0.0
  0
LINE
  5
138
330
3C
100
AcDbEntity
  8
DV7_AUTO_-_HIDE
  6
CONTINUOUS
 62
     7
100
AcDbLine
 10
53.8555240766
 20
206.4291690474
 30
0.0
 11
44.2019435532
 21
206.4291690474
 31
0.0
  0
LINE
  5
139
330
3C
100
AcDbEntity
  8
DV7_AUTO_-_HIDE
  6
CONTINUOUS
 62
     7
100
AcDbLine
 10
45.8019435127
 20
221.6791690474
 30
0.0
 11
45.8019435127
 21
206.4291688761
 31
0.0
  0
TEXT
  5
13A
330
3C
100
AcDbEntity
  8
DV7_AUTO_-_HIDE
  6
CONTINUOUS
 62
     7
100
AcDbText
 10
45.0019435127
 20
208.8834372544
 30
0.0
 40
3.2
  1
15.25
 50
90.0
  7
SEACAD_ARIAL_TTF
 11
41.8019435127
 21
208.8834372544
 31
0.0
100
AcDbText
 73
     3
  0
LINE
  5
13B
330
3C
100
AcDbEntity
  8
DV7_ﾃﾞﾌｫﾙﾄ
  6
CONTINUOUS
 62
     7
100
AcDbLine
 10
53.1355240443
 20
205.8791690474
 30
0.0
 11
53.1355240443
 21
237.4791690474
 31
0.0
  0
LINE
  5
13C
330
3C
100
AcDbEntity
  8
DV7_AUTO_-_HIDE
  6
CONTINUOUS
 62
     7
100
AcDbLine
 10
36.5518897755
 20
209.0791689666
 30
0.0
 11
36.0185564556
 21
205.8791690474
 31
0.0
  0
LINE
  5
13D
330
3C
100
AcDbEntity
  8
DV7_AUTO_-_HIDE
  6
CONTINUOUS
 62
     7
100
AcDbLine
 10
36.0185564556
 20
205.8791690474
 30
0.0
 11
35.4852231358
 21
209.0791689666
 31
0.0
  0
LINE
  5
13E
330
3C
100
AcDbEntity
  8
DV7_AUTO_-_HIDE
  6
CONTINUOUS
 62
     7
100
AcDbLine
 10
36.5518897755
 20
234.2791676024
 30
0.0
 11
36.0185564556
 21
237.4791675215
 31
0.0
  0
LINE
  5
13F
330
3C
100
AcDbEntity
  8
DV7_AUTO_-_HIDE
  6
CONTINUOUS
 62
     7
100
AcDbLine
 10
36.0185564556
 20
237.4791675215
 30
0.0
 11
35.4852231358
 21
234.2791676024
 31
0.0
  0
LINE
  5
140
330
3C
100
AcDbEntity
  8
DV7_AUTO_-_HIDE
  6
CONTINUOUS
 62
     7
100
AcDbLine
 10
51.8555240766
 20
205.8791690474
 30
0.0
 11
34.418556496
 21
205.8791690474
 31
0.0
  0
LINE
  5
141
330
3C
100
AcDbEntity
  8
DV7_AUTO_-_HIDE
  6
CONTINUOUS
 62
     7
100
AcDbLine
 10
51.8555240766
 20
237.4791690474
 30
0.0
 11
34.418556496
 21
237.4791690474
 31
0.0
  0
LINE
  5
142
330
3C
100
AcDbEntity
  8
DV7_AUTO_-_HIDE
  6
CONTINUOUS
 62
     7
100
AcDbLine
 10
36.0185564556
 20
205.8791690474
 30
0.0
 11
36.0185564556
 21
237.4791675215
 31
0.0
  0
TEXT
  5
143
330
3C
100
AcDbEntity
  8
DV7_AUTO_-_HIDE
  6
CONTINUOUS
 62
     7
100
AcDbText
 10
35.2185564556
 20
217.6791682845
 30
0.0
 40
3.2
  1
31.6
 50
90.0
  7
SEACAD_ARIAL_TTF
 11
32.0185564556
 21
217.6791682845
 31
0.0
100
AcDbText
 73
     3
  0
LINE
  5
144
330
3C
100
AcDbEntity
  8
DV7_AUTO_-_HIDE
  6
CONTINUOUS
 62
     7
100
AcDbLine
 10
99.9355241251
 20
177.8169147889
 30
0.0
 11
103.1355240443
 21
177.283581469
 31
0.0
  0
LINE
  5
145
330
3C
100
AcDbEntity
  8
DV7_AUTO_-_HIDE
  6
CONTINUOUS
 62
     7
100
AcDbLine
 10
103.1355240443
 20
177.283581469
 30
0.0
 11
99.9355241251
 21
176.7502481491
 31
0.0
  0
LINE
  5
146
330
3C
100
AcDbEntity
  8
DV7_AUTO_-_HIDE
  6
CONTINUOUS
 62
     7
100
AcDbLine
 10
56.3355232184
 20
177.8169147889
 30
0.0
 11
53.1355232992
 21
177.283581469
 31
0.0
  0
LINE
  5
147
330
3C
100
AcDbEntity
  8
DV7_AUTO_-_HIDE
  6
CONTINUOUS
 62
     7
100
AcDbLine
 10
53.1355232992
 20
177.283581469
 30
0.0
 11
56.3355232184
 21
176.7502481491
 31
0.0
  0
LINE
  5
148
330
3C
100
AcDbEntity
  8
DV7_AUTO_-_HIDE
  6
CONTINUOUS
 62
     7
100
AcDbLine
 10
103.1355240443
 20
204.3991690798
 30
0.0
 11
103.1355240443
 21
175.6835815094
 31
0.0
  0
LINE
  5
149
330
3C
100
AcDbEntity
  8
DV7_AUTO_-_HIDE
  6
CONTINUOUS
 62
     7
100
AcDbLine
 10
53.1355240443
 20
204.5991690798
 30
0.0
 11
53.1355240443
 21
175.6835815094
 31
0.0
  0
LINE
  5
14A
330
3C
100
AcDbEntity
  8
DV7_AUTO_-_HIDE
  6
CONTINUOUS
 62
     7
100
AcDbLine
 10
103.1355240443
 20
177.283581469
 30
0.0
 11
53.1355232992
 21
177.283581469
 31
0.0
  0
TEXT
  5
14B
330
3C
100
AcDbEntity
  8
DV7_AUTO_-_HIDE
  6
CONTINUOUS
 62
     7
100
AcDbText
 10
75.7940602571
 20
178.083581469
 30
0.0
 40
3.2
  1
50
  7
SEACAD_ARIAL_TTF
 11
75.7940602571
 21
181.283581469
 31
0.0
100
AcDbText
 73
     3
  0
LINE
  5
14C
330
3C
100
AcDbEntity
  8
DV7_ﾃﾞﾌｫﾙﾄ
  6
CONTINUOUS
 62
     7
100
AcDbLine
 10
53.3355240443
 20
205.6791690474
 30
0.0
 11
53.3355240443
 21
237.6791690474
 31
0.0
  0
LINE
  5
14D
330
3C
100
AcDbEntity
  8
DV7_AUTO_-_HIDE
  6
CONTINUOUS
 62
     7
100
AcDbLine
 10
31.5002493215
 20
208.8791689666
 30
0.0
 11
30.9669160017
 21
205.6791690474
 31
0.0
  0
LINE
  5
14E
330
3C
100
AcDbEntity
  8
DV7_AUTO_-_HIDE
  6
CONTINUOUS
 62
     7
100
AcDbLine
 10
30.9669160017
 20
205.6791690474
 30
0.0
 11
30.4335826818
 21
208.8791689666
 31
0.0
  0
LINE
  5
14F
330
3C
100
AcDbEntity
  8
DV7_AUTO_-_HIDE
  6
CONTINUOUS
 62
     7
100
AcDbLine
 10
31.5002493215
 20
234.4791706482
 30
0.0
 11
30.9669160017
 21
237.6791705673
 31
0.0
  0
LINE
  5
150
330
3C
100
AcDbEntity
  8
DV7_AUTO_-_HIDE
  6
CONTINUOUS
 62
     7
100
AcDbLine
 10
30.9669160017
 20
237.6791705673
 30
0.0
 11
30.4335826818
 21
234.4791706482
 31
0.0
  0
LINE
  5
151
330
3C
100
AcDbEntity
  8
DV7_AUTO_-_HIDE
  6
CONTINUOUS
 62
     7
100
AcDbLine
 10
52.0555240766
 20
205.6791690474
 30
0.0
 11
29.3669160421
 21
205.6791690474
 31
0.0
  0
LINE
  5
152
330
3C
100
AcDbEntity
  8
DV7_AUTO_-_HIDE
  6
CONTINUOUS
 62
     7
100
AcDbLine
 10
52.0555240766
 20
237.6791690474
 30
0.0
 11
29.3669160421
 21
237.6791690474
 31
0.0
  0
LINE
  5
153
330
3C
100
AcDbEntity
  8
DV7_AUTO_-_HIDE
  6
CONTINUOUS
 62
     7
100
AcDbLine
 10
30.9669160017
 20
205.6791690474
 30
0.0
 11
30.9669160017
 21
237.6791705673
 31
0.0
  0
TEXT
  5
154
330
3C
100
AcDbEntity
  8
DV7_AUTO_-_HIDE
  6
CONTINUOUS
 62
     7
100
AcDbText
 10
30.1669160017
 20
219.3377063927
 30
0.0
 40
3.2
  1
32
 50
90.0
  7
SEACAD_ARIAL_TTF
 11
26.9669160017
 21
219.3377063927
 31
0.0
100
AcDbText
 73
     3
  0
LINE
  5
155
330
3C
100
AcDbEntity
  8
DV7_AUTO_-_HIDE
  6
CONTINUOUS
 62
     7
100
AcDbLine
 10
49.9355241251
 20
201.774661232
 30
0.0
 11
53.1355240443
 21
201.2413279122
 31
0.0
  0
LINE
  5
156
330
3C
100
AcDbEntity
  8
DV7_AUTO_-_HIDE
  6
CONTINUOUS
 62
     7
100
AcDbLine
 10
53.1355240443
 20
201.2413279122
 30
0.0
 11
49.9355241251
 21
200.7079945923
 31
0.0
  0
LINE
  5
157
330
3C
100
AcDbEntity
  8
DV7_AUTO_-_HIDE
  6
CONTINUOUS
 62
     7
100
AcDbLine
 10
56.5355239634
 20
201.774661232
 30
0.0
 11
53.3355240443
 21
201.2413279122
 31
0.0
  0
LINE
  5
158
330
3C
100
AcDbEntity
  8
DV7_AUTO_-_HIDE
  6
CONTINUOUS
 62
     7
100
AcDbLine
 10
53.3355240443
 20
201.2413279122
 30
0.0
 11
56.5355239634
 21
200.7079945923
 31
0.0
  0
LINE
  5
159
330
3C
100
AcDbEntity
  8
DV7_AUTO_-_HIDE
  6
CONTINUOUS
 62
     7
100
AcDbLine
 10
53.1355240443
 20
204.5991690798
 30
0.0
 11
53.1355240443
 21
199.6413279526
 31
0.0
  0
LINE
  5
15A
330
3C
100
AcDbEntity
  8
DV7_AUTO_-_HIDE
  6
CONTINUOUS
 62
     7
100
AcDbLine
 10
53.3355240443
 20
204.3991690798
 30
0.0
 11
53.3355240443
 21
199.6413279526
 31
0.0
  0
LINE
  5
15B
330
3C
100
AcDbEntity
  8
DV7_AUTO_-_HIDE
  6
CONTINUOUS
 62
     7
100
AcDbLine
 10
35.5466776588
 20
201.2413279122
 30
0.0
 11
59.7355240085
 21
201.2413279122
 31
0.0
  0
TEXT
  5
15C
330
3C
100
AcDbEntity
  8
DV7_AUTO_-_HIDE
  6
CONTINUOUS
 62
     7
100
AcDbText
 10
36.6666766529
 20
202.0413279122
 30
0.0
 40
3.2
  1
0.2
  7
SEACAD_ARIAL_TTF
 11
36.6666766529
 21
205.2413279122
 31
0.0
100
AcDbText
 73
     3
  0
LINE
  5
15D
330
3C
100
AcDbEntity
  8
DV7_ﾃﾞﾌｫﾙﾄ
  6
CONTINUOUS
 62
     7
100
AcDbLine
 10
60.6355240443
 20
237.6791690474
 30
0.0
 11
60.6355240443
 21
205.6791690474
 31
0.0
  0
LINE
  5
15E
330
3C
100
AcDbEntity
  8
DV7_ﾃﾞﾌｫﾙﾄ
  6
CONTINUOUS
 62
     7
100
AcDbLine
 10
53.1355240443
 20
237.4791690474
 30
0.0
 11
53.3355240443
 21
237.6791690474
 31
0.0
  0
LINE
  5
15F
330
3C
100
AcDbEntity
  8
DV7_ﾃﾞﾌｫﾙﾄ
  6
CONTINUOUS
 62
     7
100
AcDbLine
 10
53.3355240443
 20
237.6791690474
 30
0.0
 11
60.6355240443
 21
237.6791690474
 31
0.0
  0
LINE
  5
160
330
3C
100
AcDbEntity
  8
DV7_ﾃﾞﾌｫﾙﾄ
  6
CONTINUOUS
 62
     7
100
AcDbLine
 10
53.1355240443
 20
205.8791690474
 30
0.0
 11
53.3355240443
 21
205.6791690474
 31
0.0
  0
LINE
  5
161
330
3C
100
AcDbEntity
  8
DV7_ﾃﾞﾌｫﾙﾄ
  6
CONTINUOUS
 62
     7
100
AcDbLine
 10
53.3355240443
 20
205.6791690474
 30
0.0
 11
60.6355240443
 21
205.6791690474
 31
0.0
  0
LINE
  5
162
330
3C
100
AcDbEntity
  8
DV7_AUTO_-_HIDE
  6
CONTINUOUS
 62
     7
100
AcDbLine
 10
49.9355241251
 20
247.7729486705
 30
0.0
 11
53.1355240443
 21
248.3062819904
 31
0.0
  0
LINE
  5
163
330
3C
100
AcDbEntity
  8
DV7_AUTO_-_HIDE
  6
CONTINUOUS
 62
     7
100
AcDbLine
 10
53.1355240443
 20
248.3062819904
 30
0.0
 11
49.9355241251
 21
248.8396153102
 31
0.0
  0
LINE
  5
164
330
3C
100
AcDbEntity
  8
DV7_AUTO_-_HIDE
  6
CONTINUOUS
 62
     7
100
AcDbLine
 10
63.8355239634
 20
247.7729486705
 30
0.0
 11
60.6355240443
 21
248.3062819904
 31
0.0
  0
LINE
  5
165
330
3C
100
AcDbEntity
  8
DV7_AUTO_-_HIDE
  6
CONTINUOUS
 62
     7
100
AcDbLine
 10
60.6355240443
 20
248.3062819904
 30
0.0
 11
63.8355239634
 21
248.8396153102
 31
0.0
  0
LINE
  5
166
330
3C
100
AcDbEntity
  8
DV7_AUTO_-_HIDE
  6
CONTINUOUS
 62
     7
100
AcDbLine
 10
53.1355240443
 20
238.7591690151
 30
0.0
 11
53.1355240443
 21
249.9062819499
 31
0.0
  0
LINE
  5
167
330
3C
100
AcDbEntity
  8
DV7_AUTO_-_HIDE
  6
CONTINUOUS
 62
     7
100
AcDbLine
 10
60.6355240443
 20
238.9591690151
 30
0.0
 11
60.6355240443
 21
249.9062819499
 31
0.0
  0
LINE
  5
168
330
3C
100
AcDbEntity
  8
DV7_AUTO_-_HIDE
  6
CONTINUOUS
 62
     7
100
AcDbLine
 10
40.4939302304
 20
248.3062819904
 30
0.0
 11
67.035523715
 21
248.3062819904
 31
0.0
  0
TEXT
  5
169
330
3C
100
AcDbEntity
  8
DV7_AUTO_-_HIDE
  6
CONTINUOUS
 62
     7
100
AcDbText
 10
41.6139301558
 20
249.1062819904
 30
0.0
 40
3.2
  1
7.5
  7
SEACAD_ARIAL_TTF
 11
41.6139301558
 21
252.3062819904
 31
0.0
100
AcDbText
 73
     3
  0
LINE
  5
16A
330
3C
100
AcDbEntity
  8
DV7_ﾃﾞﾌｫﾙﾄ
  6
CONTINUOUS
 62
     7
100
AcDbLine
 10
61.1355240443
 20
205.1791690474
 30
0.0
 11
61.1355240443
 21
238.1791690474
 31
0.0
  0
LINE
  5
16B
330
3C
100
AcDbEntity
  8
DV7_AUTO_-_HIDE
  6
CONTINUOUS
 62
     7
100
AcDbLine
 10
25.3292949779
 20
208.3791689666
 30
0.0
 11
24.795961658
 21
205.1791690474
 31
0.0
  0
LINE
  5
16C
330
3C
100
AcDbEntity
  8
DV7_AUTO_-_HIDE
  6
CONTINUOUS
 62
     7
100
AcDbLine
 10
24.795961658
 20
205.1791690474
 30
0.0
 11
24.2626283381
 21
208.3791689666
 31
0.0
  0
LINE
  5
16D
330
3C
100
AcDbEntity
  8
DV7_AUTO_-_HIDE
  6
CONTINUOUS
 62
     7
100
AcDbLine
 10
25.3292949779
 20
234.9791689494
 30
0.0
 11
24.795961658
 21
238.1791688686
 31
0.0
  0
LINE
  5
16E
330
3C
100
AcDbEntity
  8
DV7_AUTO_-_HIDE
  6
CONTINUOUS
 62
     7
100
AcDbLine
 10
24.795961658
 20
238.1791688686
 30
0.0
 11
24.2626283381
 21
234.9791689494
 31
0.0
  0
LINE
  5
16F
330
3C
100
AcDbEntity
  8
DV7_AUTO_-_HIDE
  6
CONTINUOUS
 62
     7
100
AcDbLine
 10
59.8555240766
 20
205.1791690474
 30
0.0
 11
23.1959616984
 21
205.1791690474
 31
0.0
  0
LINE
  5
170
330
3C
100
AcDbEntity
  8
DV7_AUTO_-_HIDE
  6
CONTINUOUS
 62
     7
100
AcDbLine
 10
59.8555240766
 20
238.1791690474
 30
0.0
 11
23.1959616984
 21
238.1791690474
 31
0.0
  0
LINE
  5
171
330
3C
100
AcDbEntity
  8
DV7_AUTO_-_HIDE
  6
CONTINUOUS
 62
     7
100
AcDbLine
 10
24.795961658
 20
205.1791690474
 30
0.0
 11
24.795961658
 21
238.1791688686
 31
0.0
  0
TEXT
  5
172
330
3C
100
AcDbEntity
  8
DV7_AUTO_-_HIDE
  6
CONTINUOUS
 62
     7
100
AcDbText
 10
23.995961658
 20
219.3377055434
 30
0.0
 40
3.2
  1
33
 50
90.0
  7
SEACAD_ARIAL_TTF
 11
20.795961658
 21
219.3377055434
 31
0.0
100
AcDbText
 73
     3
  0
LINE
  5
173
330
3C
100
AcDbEntity
  8
DV7_AUTO_-_HIDE
  6
CONTINUOUS
 62
     7
100
AcDbLine
 10
57.4355241251
 20
201.3300347994
 30
0.0
 11
60.6355240443
 21
200.7967014795
 31
0.0
  0
LINE
  5
174
330
3C
100
AcDbEntity
  8
DV7_AUTO_-_HIDE
  6
CONTINUOUS
 62
     7
100
AcDbLine
 10
60.6355240443
 20
200.7967014795
 30
0.0
 11
57.4355241251
 21
200.2633681596
 31
0.0
  0
LINE
  5
175
330
3C
100
AcDbEntity
  8
DV7_AUTO_-_HIDE
  6
CONTINUOUS
 62
     7
100
AcDbLine
 10
64.3355239634
 20
201.3300347994
 30
0.0
 11
61.1355240443
 21
200.7967014795
 31
0.0
  0
LINE
  5
176
330
3C
100
AcDbEntity
  8
DV7_AUTO_-_HIDE
  6
CONTINUOUS
 62
     7
100
AcDbLine
 10
61.1355240443
 20
200.7967014795
 30
0.0
 11
64.3355239634
 21
200.2633681596
 31
0.0
  0
LINE
  5
177
330
3C
100
AcDbEntity
  8
DV7_AUTO_-_HIDE
  6
CONTINUOUS
 62
     7
100
AcDbLine
 10
60.6355240443
 20
204.3991689568
 30
0.0
 11
60.6355240443
 21
199.1967015199
 31
0.0
  0
LINE
  5
178
330
3C
100
AcDbEntity
  8
DV7_AUTO_-_HIDE
  6
CONTINUOUS
 62
     7
100
AcDbLine
 10
61.1355240443
 20
203.8991706556
 30
0.0
 11
61.1355240443
 21
199.1967015199
 31
0.0
  0
LINE
  5
179
330
3C
100
AcDbEntity
  8
DV7_AUTO_-_HIDE
  6
CONTINUOUS
 62
     7
100
AcDbLine
 10
54.235524206
 20
200.7967014795
 30
0.0
 11
73.1114961081
 21
200.7967014795
 31
0.0
  0
TEXT
  5
17A
330
3C
100
AcDbEntity
  8
DV7_AUTO_-_HIDE
  6
CONTINUOUS
 62
     7
100
AcDbText
 10
66.3329595974
 20
201.5967014795
 30
0.0
 40
3.2
  1
0.5
  7
SEACAD_ARIAL_TTF
 11
66.3329595974
 21
204.7967014795
 31
0.0
100
AcDbText
 73
     3
  0
LINE
  5
17B
330
3C
100
AcDbEntity
  8
DV7_ﾃﾞﾌｫﾙﾄ
  6
CONTINUOUS
 62
     7
100
AcDbLine
 10
61.1355240443
 20
238.1791690474
 30
0.0
 11
60.6355240443
 21
237.6791690474
 31
0.0
  0
LINE
  5
17C
330
3C
100
AcDbEntity
  8
DV7_ﾃﾞﾌｫﾙﾄ
  6
CONTINUOUS
 62
     7
100
AcDbLine
 10
60.6355240443
 20
205.6791690474
 30
0.0
 11
61.1355240443
 21
205.1791690474
 31
0.0
  0
LINE
  5
17D
330
3C
100
AcDbEntity
  8
DV7_ﾃﾞﾌｫﾙﾄ
  6
CONTINUOUS
 62
     7
100
AcDbLine
 10
61.1355240443
 20
205.1791690474
 30
0.0
 11
62.0695240443
 21
205.1791690474
 31
0.0
  0
LINE
  5
17E
330
3C
100
AcDbEntity
  8
DV7_ﾃﾞﾌｫﾙﾄ
  6
CONTINUOUS
 62
     7
100
AcDbLine
 10
61.1355240443
 20
238.1791690474
 30
0.0
 11
62.0695240443
 21
238.1791690474
 31
0.0
  0
LINE
  5
17F
330
3C
100
AcDbEntity
  8
DV7_ﾃﾞﾌｫﾙﾄ
  6
CONTINUOUS
 62
     7
100
AcDbLine
 10
67.2779147574
 20
238.1791690474
 30
0.0
 11
69.0611968893
 21
238.1791690474
 31
0.0
  0
LINE
  5
180
330
3C
100
AcDbEntity
  8
DEFAULT
  6
CONTINUOUS
 62
     7
100
AcDbLine
 10
33.6493740359
 20
234.9791691283
 30
0.0
 11
33.1160407161
 21
238.1791690474
 31
0.0
  0
LINE
  5
181
330
3C
100
AcDbEntity
  8
DEFAULT
  6
CONTINUOUS
 62
     7
100
AcDbLine
 10
33.1160407161
 20
238.1791690474
 30
0.0
 11
32.5827073962
 21
234.9791691283
 31
0.0
  0
LINE
  5
182
330
3C
100
AcDbEntity
  8
DEFAULT
  6
CONTINUOUS
 62
     7
100
AcDbLine
 10
33.6493740359
 20
208.3791691454
 30
0.0
 11
33.1160407161
 21
205.1791692262
 31
0.0
  0
LINE
  5
183
330
3C
100
AcDbEntity
  8
DEFAULT
  6
CONTINUOUS
 62
     7
100
AcDbLine
 10
33.1160407161
 20
205.1791692262
 30
0.0
 11
32.5827073962
 21
208.3791691454
 31
0.0
  0
LINE
  5
184
330
3C
100
AcDbEntity
  8
DEFAULT
  6
CONTINUOUS
 62
     7
100
AcDbLine
 10
60.7895240766
 20
238.1791690474
 30
0.0
 11
31.5160407565
 21
238.1791690474
 31
0.0
  0
LINE
  5
185
330
3C
100
AcDbEntity
  8
DEFAULT
  6
CONTINUOUS
 62
     7
100
AcDbLine
 10
60.7895240766
 20
205.1791690474
 30
0.0
 11
31.5160407565
 21
205.1791690474
 31
0.0
  0
LINE
  5
186
330
3C
100
AcDbEntity
  8
DEFAULT
  6
CONTINUOUS
 62
     7
100
AcDbLine
 10
33.1160407161
 20
238.1791690474
 30
0.0
 11
33.1160407161
 21
205.1791692262
 31
0.0
  0
TEXT
  5
187
330
3C
100
AcDbEntity
  8
DEFAULT
  6
CONTINUOUS
 62
     7
100
AcDbText
 10
32.3160407161
 20
217.3531443187
 30
0.0
 40
3.2
  1
O
 50
90.0
  7
SEACAD_ARIAL_TTF
 11
29.1160407161
 21
217.3531443187
 31
0.0
100
AcDbText
 73
     3
  0
TEXT
  5
188
330
3C
100
AcDbEntity
  8
DEFAULT
  6
CONTINUOUS
 62
     7
100
AcDbText
 10
32.3160407161
 20
221.3222671257
 30
0.0
 40
3.2
  1
33
 50
90.0
  7
SEACAD_ARIAL_TTF
 11
29.1160407161
 21
221.3222671257
 31
0.0
100
AcDbText
 73
     3
  0
LINE
  5
189
330
3C
100
AcDbEntity
  8
DEFAULT
  6
CONTINUOUS
 62
     7
100
AcDbLine
 10
39.4334418682
 20
233.7291691283
 30
0.0
 11
38.9001085483
 21
236.9291690474
 31
0.0
  0
LINE
  5
18A
330
3C
100
AcDbEntity
  8
DEFAULT
  6
CONTINUOUS
 62
     7
100
AcDbLine
 10
38.9001085483
 20
236.9291690474
 30
0.0
 11
38.3667752285
 21
233.7291691283
 31
0.0
  0
LINE
  5
18B
330
3C
100
AcDbEntity
  8
DEFAULT
  6
CONTINUOUS
 62
     7
100
AcDbLine
 10
39.4334418682
 20
209.6291686239
 30
0.0
 11
38.9001085483
 21
206.4291687047
 31
0.0
  0
LINE
  5
18C
330
3C
100
AcDbEntity
  8
DEFAULT
  6
CONTINUOUS
 62
     7
100
AcDbLine
 10
38.9001085483
 20
206.4291687047
 30
0.0
 11
38.3667752285
 21
209.6291686239
 31
0.0
  0
LINE
  5
18D
330
3C
100
AcDbEntity
  8
DEFAULT
  6
CONTINUOUS
 62
     7
100
AcDbLine
 10
51.8555240766
 20
236.9291690474
 30
0.0
 11
37.3001085888
 21
236.9291690474
 31
0.0
  0
LINE
  5
18E
330
3C
100
AcDbEntity
  8
DEFAULT
  6
CONTINUOUS
 62
     7
100
AcDbLine
 10
51.8555240766
 20
206.4291690474
 30
0.0
 11
37.3001085888
 21
206.4291690474
 31
0.0
  0
LINE
  5
18F
330
3C
100
AcDbEntity
  8
DEFAULT
  6
CONTINUOUS
 62
     7
100
AcDbLine
 10
38.9001085483
 20
236.9291690474
 30
0.0
 11
38.9001085483
 21
206.4291687047
 31
0.0
  0
TEXT
  5
190
330
3C
100
AcDbEntity
  8
DEFAULT
  6
CONTINUOUS
 62
     7
100
AcDbText
 10
38.1001085483
 20
213.2564046484
 30
0.0
 40
3.2
  1
30.5
 50
90.0
  7
SEACAD_ARIAL_TTF
 11
34.9001085483
 21
213.2564046484
 31
0.0
100
AcDbText
 73
     3
  0
TEXT
  5
191
330
3C
100
AcDbEntity
  8
DEFAULT
  6
CONTINUOUS
 62
     7
100
AcDbText
 10
38.1001085483
 20
209.4892501769
 30
0.0
 40
3.2
  1
M
 50
90.0
  7
SEACAD_ARIAL_TTF
 11
34.9001085483
 21
209.4892501769
 31
0.0
100
AcDbText
 73
     3
  0
TEXT
  5
192
330
3C
100
AcDbEntity
  8
DEFAULT
  6
CONTINUOUS
 62
     7
100
AcDbText
 10
38.1001085483
 20
221.5764046484
 30
0.0
 40
3.2
  1
 P=0.5
 50
90.0
  7
SEACAD_ARIAL_TTF
 11
34.9001085483
 21
221.5764046484
 31
0.0
100
AcDbText
 73
     3
  0
LINE
  5
193
330
3C
100
AcDbEntity
  8
DEFAULT
  6
CONTINUOUS
 62
     7
100
AcDbLine
 10
99.9355241251
 20
183.8255025665
 30
0.0
 11
103.1355240443
 21
183.2921692466
 31
0.0
  0
LINE
  5
194
330
3C
100
AcDbEntity
  8
DEFAULT
  6
CONTINUOUS
 62
     7
100
AcDbLine
 10
103.1355240443
 20
183.2921692466
 30
0.0
 11
99.9355241251
 21
182.7588359268
 31
0.0
  0
LINE
  5
195
330
3C
100
AcDbEntity
  8
DEFAULT
  6
CONTINUOUS
 62
     7
100
AcDbLine
 10
113.0365239634
 20
183.8255025665
 30
0.0
 11
109.8365240443
 21
183.2921692466
 31
0.0
  0
LINE
  5
196
330
3C
100
AcDbEntity
  8
DEFAULT
  6
CONTINUOUS
 62
     7
100
AcDbLine
 10
109.8365240443
 20
183.2921692466
 30
0.0
 11
113.0365239634
 21
182.7588359268
 31
0.0
  0
LINE
  5
197
330
3C
100
AcDbEntity
  8
DEFAULT
  6
CONTINUOUS
 62
     7
100
AcDbLine
 10
103.1355240443
 20
204.3991690798
 30
0.0
 11
103.1355240443
 21
181.692169287
 31
0.0
  0
LINE
  5
198
330
3C
100
AcDbEntity
  8
DEFAULT
  6
CONTINUOUS
 62
     7
100
AcDbLine
 10
109.8365240443
 20
211.3629917907
 30
0.0
 11
109.8365240443
 21
181.692169287
 31
0.0
  0
LINE
  5
199
330
3C
100
AcDbEntity
  8
DEFAULT
  6
CONTINUOUS
 62
     7
100
AcDbLine
 10
96.735524206
 20
183.2921692466
 30
0.0
 11
116.2365243831
 21
183.2921692466
 31
0.0
  0
TEXT
  5
19A
330
3C
100
AcDbEntity
  8
DEFAULT
  6
CONTINUOUS
 62
     7
100
AcDbText
 10
103.656755769
 20
184.0921692466
 30
0.0
 40
3.2
  1
6.7
  7
SEACAD_ARIAL_TTF
 11
103.656755769
 21
187.2921692466
 31
0.0
100
AcDbText
 73
     3
  0
LINE
  5
19B
330
3C
100
AcDbEntity
  8
DEFAULT
  6
CONTINUOUS
 62
     7
100
AcDbLine
 10
99.9355241251
 20
191.8631833265
 30
0.0
 11
103.1355240443
 21
191.3298500066
 31
0.0
  0
LINE
  5
19C
330
3C
100
AcDbEntity
  8
DEFAULT
  6
CONTINUOUS
 62
     7
100
AcDbLine
 10
103.1355240443
 20
191.3298500066
 30
0.0
 11
99.9355241251
 21
190.7965166868
 31
0.0
  0
LINE
  5
19D
330
3C
100
AcDbEntity
  8
DEFAULT
  6
CONTINUOUS
 62
     7
100
AcDbLine
 10
110.3355239634
 20
191.8631833265
 30
0.0
 11
107.1355240443
 21
191.3298500066
 31
0.0
  0
LINE
  5
19E
330
3C
100
AcDbEntity
  8
DEFAULT
  6
CONTINUOUS
 62
     7
100
AcDbLine
 10
107.1355240443
 20
191.3298500066
 30
0.0
 11
110.3355239634
 21
190.7965166868
 31
0.0
  0
LINE
  5
19F
330
3C
100
AcDbEntity
  8
DEFAULT
  6
CONTINUOUS
 62
     7
100
AcDbLine
 10
103.1355240443
 20
204.3991690798
 30
0.0
 11
103.1355240443
 21
189.7298500471
 31
0.0
  0
LINE
  5
1A0
330
3C
100
AcDbEntity
  8
DEFAULT
  6
CONTINUOUS
 62
     7
100
AcDbLine
 10
107.1355240443
 20
208.3991690798
 30
0.0
 11
107.1355240443
 21
189.7298500471
 31
0.0
  0
LINE
  5
1A1
330
3C
100
AcDbEntity
  8
DEFAULT
  6
CONTINUOUS
 62
     7
100
AcDbLine
 10
96.735524206
 20
191.3298500066
 30
0.0
 11
113.5355240726
 21
191.3298500066
 31
0.0
  0
TEXT
  5
1A2
330
3C
100
AcDbEntity
  8
DEFAULT
  6
CONTINUOUS
 62
     7
100
AcDbText
 10
103.964792432
 20
192.1298500066
 30
0.0
 40
3.2
  1
4
  7
SEACAD_ARIAL_TTF
 11
103.964792432
 21
195.3298500066
 31
0.0
100
AcDbText
 73
     3
  0
LINE
  5
1A3
330
3C
100
AcDbEntity
  8
DEFAULT
  6
CONTINUOUS
 62
     7
100
AcDbLine
 10
141.4504360686
 20
229.4791691283
 30
0.0
 11
141.9837693884
 21
232.6791690474
 31
0.0
  0
LINE
  5
1A4
330
3C
100
AcDbEntity
  8
DEFAULT
  6
CONTINUOUS
 62
     7
100
AcDbLine
 10
141.9837693884
 20
232.6791690474
 30
0.0
 11
142.5171027083
 21
229.4791691283
 31
0.0
  0
LINE
  5
1A5
330
3C
100
AcDbEntity
  8
DEFAULT
  6
CONTINUOUS
 62
     7
100
AcDbLine
 10
141.4504360686
 20
213.8791690858
 30
0.0
 11
141.9837693884
 21
210.6791691666
 31
0.0
  0
LINE
  5
1A6
330
3C
100
AcDbEntity
  8
DEFAULT
  6
CONTINUOUS
 62
     7
100
AcDbLine
 10
141.9837693884
 20
210.6791691666
 30
0.0
 11
142.5171027083
 21
213.8791690858
 31
0.0
  0
LINE
  5
1A7
330
3C
100
AcDbEntity
  8
DEFAULT
  6
CONTINUOUS
 62
     7
100
AcDbLine
 10
110.1255240119
 20
232.6791690474
 30
0.0
 11
143.583769348
 21
232.6791690474
 31
0.0
  0
LINE
  5
1A8
330
3C
100
AcDbEntity
  8
DEFAULT
  6
CONTINUOUS
 62
     7
100
AcDbLine
 10
110.1255240119
 20
210.6791690474
 30
0.0
 11
143.583769348
 21
210.6791690474
 31
0.0
  0
LINE
  5
1A9
330
3C
100
AcDbEntity
  8
DEFAULT
  6
CONTINUOUS
 62
     7
100
AcDbLine
 10
141.9837693884
 20
232.6791690474
 30
0.0
 11
141.9837693884
 21
210.6791691666
 31
0.0
  0
TEXT
  5
1AA
330
3C
100
AcDbEntity
  8
DEFAULT
  6
CONTINUOUS
 62
     7
100
AcDbText
 10
141.1837693884
 20
217.3531442889
 30
0.0
 40
3.2
  1
O
 50
90.0
  7
SEACAD_ARIAL_TTF
 11
137.9837693884
 21
217.3531442889
 31
0.0
100
AcDbText
 73
     3
  0
TEXT
  5
1AB
330
3C
100
AcDbEntity
  8
DEFAULT
  6
CONTINUOUS
 62
     7
100
AcDbText
 10
141.1837693884
 20
221.3222670959
 30
0.0
 40
3.2
  1
22
 50
90.0
  7
SEACAD_ARIAL_TTF
 11
137.9837693884
 21
221.3222670959
 31
0.0
100
AcDbText
 73
     3
  0
LINE
  5
1AC
330
3C
100
AcDbEntity
  8
DEFAULT
  6
CONTINUOUS
 62
     7
100
AcDbLine
 10
135.5100181891
 20
227.7291691283
 30
0.0
 11
136.043351509
 21
230.9291690474
 31
0.0
  0
LINE
  5
1AD
330
3C
100
AcDbEntity
  8
DEFAULT
  6
CONTINUOUS
 62
     7
100
AcDbLine
 10
136.043351509
 20
230.9291690474
 30
0.0
 11
136.5766848288
 21
227.7291691283
 31
0.0
  0
LINE
  5
1AE
330
3C
100
AcDbEntity
  8
DEFAULT
  6
CONTINUOUS
 62
     7
100
AcDbLine
 10
135.5100181891
 20
215.6291687282
 30
0.0
 11
136.043351509
 21
212.429168809
 31
0.0
  0
LINE
  5
1AF
330
3C
100
AcDbEntity
  8
DEFAULT
  6
CONTINUOUS
 62
     7
100
AcDbLine
 10
136.043351509
 20
212.429168809
 30
0.0
 11
136.5766848288
 21
215.6291687282
 31
0.0
  0
LINE
  5
1B0
330
3C
100
AcDbEntity
  8
DEFAULT
  6
CONTINUOUS
 62
     7
100
AcDbLine
 10
110.4165240119
 20
230.9291690474
 30
0.0
 11
137.6433514686
 21
230.9291690474
 31
0.0
  0
LINE
  5
1B1
330
3C
100
AcDbEntity
  8
DEFAULT
  6
CONTINUOUS
 62
     7
100
AcDbLine
 10
110.4165240119
 20
212.4291690474
 30
0.0
 11
137.6433514686
 21
212.4291690474
 31
0.0
  0
LINE
  5
1B2
330
3C
100
AcDbEntity
  8
DEFAULT
  6
CONTINUOUS
 62
     7
100
AcDbLine
 10
136.043351509
 20
230.9291690474
 30
0.0
 11
136.043351509
 21
212.429168809
 31
0.0
  0
TEXT
  5
1B3
330
3C
100
AcDbEntity
  8
DEFAULT
  6
CONTINUOUS
 62
     7
100
AcDbText
 10
135.243351509
 20
215.6946075247
 30
0.0
 40
3.2
  1
O
 50
90.0
  7
SEACAD_ARIAL_TTF
 11
132.043351509
 21
215.6946075247
 31
0.0
100
AcDbText
 73
     3
  0
TEXT
  5
1B4
330
3C
100
AcDbEntity
  8
DEFAULT
  6
CONTINUOUS
 62
     7
100
AcDbText
 10
135.243351509
 20
219.6637303317
 30
0.0
 40
3.2
  1
18.5
 50
90.0
  7
SEACAD_ARIAL_TTF
 11
132.043351509
 21
219.6637303317
 31
0.0
100
AcDbText
 73
     3
  0
LINE
  5
1B5
330
3C
100
AcDbEntity
  8
DEFAULT
  6
CONTINUOUS
 62
     7
100
AcDbLine
 10
148.0011711214
 20
231.1791691283
 30
0.0
 11
148.5345044413
 21
234.3791690474
 31
0.0
  0
LINE
  5
1B6
330
3C
100
AcDbEntity
  8
DEFAULT
  6
CONTINUOUS
 62
     7
100
AcDbLine
 10
148.5345044413
 20
234.3791690474
 30
0.0
 11
149.0678377611
 21
231.1791691283
 31
0.0
  0
LINE
  5
1B7
330
3C
100
AcDbEntity
  8
DEFAULT
  6
CONTINUOUS
 62
     7
100
AcDbLine
 10
148.0011711214
 20
212.1791692735
 30
0.0
 11
148.5345044413
 21
208.9791693544
 31
0.0
  0
LINE
  5
1B8
330
3C
100
AcDbEntity
  8
DEFAULT
  6
CONTINUOUS
 62
     7
100
AcDbLine
 10
148.5345044413
 20
208.9791693544
 30
0.0
 11
149.0678377611
 21
212.1791692735
 31
0.0
  0
LINE
  5
1B9
330
3C
100
AcDbEntity
  8
DEFAULT
  6
CONTINUOUS
 62
     7
100
AcDbLine
 10
107.7155240119
 20
234.3791690474
 30
0.0
 11
150.1345044008
 21
234.3791690474
 31
0.0
  0
LINE
  5
1BA
330
3C
100
AcDbEntity
  8
DEFAULT
  6
CONTINUOUS
 62
     7
100
AcDbLine
 10
107.7155240119
 20
208.9791690474
 30
0.0
 11
150.1345044008
 21
208.9791690474
 31
0.0
  0
LINE
  5
1BB
330
3C
100
AcDbEntity
  8
DEFAULT
  6
CONTINUOUS
 62
     7
100
AcDbLine
 10
148.5345044413
 20
234.3791690474
 30
0.0
 11
148.5345044413
 21
208.9791693544
 31
0.0
  0
TEXT
  5
1BC
330
3C
100
AcDbEntity
  8
DEFAULT
  6
CONTINUOUS
 62
     7
100
AcDbText
 10
147.7345044413
 20
210.0069740789
 30
0.0
 40
3.2
  1
1-32UN-2A
 50
90.0
  7
SEACAD_ARIAL_TTF
 11
144.5345044413
 21
210.0069740789
 31
0.0
100
AcDbText
 73
     3
  0
LINE
  5
1BD
330
3C
100
AcDbEntity
  8
DEFAULT
  6
CONTINUOUS
 62
     7
100
AcDbLine
 10
56.3355239634
 20
175.894978259
 30
0.0
 11
53.1355240443
 21
175.3616449391
 31
0.0
  0
LINE
  5
1BE
330
3C
100
AcDbEntity
  8
DEFAULT
  6
CONTINUOUS
 62
     7
100
AcDbLine
 10
53.1355240443
 20
175.3616449391
 30
0.0
 11
56.3355239634
 21
174.8283116193
 31
0.0
  0
LINE
  5
1BF
330
3C
100
AcDbEntity
  8
DEFAULT
  6
CONTINUOUS
 62
     7
100
AcDbLine
 10
99.9355248702
 20
175.894978259
 30
0.0
 11
103.1355247893
 21
175.3616449391
 31
0.0
  0
LINE
  5
1C0
330
3C
100
AcDbEntity
  8
DEFAULT
  6
CONTINUOUS
 62
     7
100
AcDbLine
 10
103.1355247893
 20
175.3616449391
 30
0.0
 11
99.9355248702
 21
174.8283116193
 31
0.0
  0
LINE
  5
1C1
330
3C
100
AcDbEntity
  8
DEFAULT
  6
CONTINUOUS
 62
     7
100
AcDbLine
 10
53.1355240443
 20
204.5991690798
 30
0.0
 11
53.1355240443
 21
173.7616449795
 31
0.0
  0
LINE
  5
1C2
330
3C
100
AcDbEntity
  8
DEFAULT
  6
CONTINUOUS
 62
     7
100
AcDbLine
 10
103.1355240443
 20
204.3991690798
 30
0.0
 11
103.1355240443
 21
173.7616449795
 31
0.0
  0
LINE
  5
1C3
330
3C
100
AcDbEntity
  8
DEFAULT
  6
CONTINUOUS
 62
     7
100
AcDbLine
 10
53.1355240443
 20
175.3616449391
 30
0.0
 11
103.1355247893
 21
175.3616449391
 31
0.0
  0
TEXT
  5
1C4
330
3C
100
AcDbEntity
  8
DEFAULT
  6
CONTINUOUS
 62
     7
100
AcDbText
 10
75.7940610022
 20
176.1616449391
 30
0.0
 40
3.2
  1
50
  7
SEACAD_ARIAL_TTF
 11
75.7940610022
 21
179.3616449391
 31
0.0
100
AcDbText
 73
     3
  0
LINE
  5
1C5
330
3C
100
AcDbEntity
  8
DEFAULT
  6
CONTINUOUS
 62
     7
100
AcDbLine
 10
106.3355239634
 20
175.8949779192
 30
0.0
 11
103.1355240443
 21
175.3616445994
 31
0.0
  0
LINE
  5
1C6
330
3C
100
AcDbEntity
  8
DEFAULT
  6
CONTINUOUS
 62
     7
100
AcDbLine
 10
103.1355240443
 20
175.3616445994
 30
0.0
 11
106.3355239634
 21
174.8283112795
 31
0.0
  0
LINE
  5
1C7
330
3C
100
AcDbEntity
  8
DEFAULT
  6
CONTINUOUS
 62
     7
100
AcDbLine
 10
117.4615248633
 20
175.8949779192
 30
0.0
 11
120.6615247824
 21
175.3616445994
 31
0.0
  0
LINE
  5
1C8
330
3C
100
AcDbEntity
  8
DEFAULT
  6
CONTINUOUS
 62
     7
100
AcDbLine
 10
120.6615247824
 20
175.3616445994
 30
0.0
 11
117.4615248633
 21
174.8283112795
 31
0.0
  0
LINE
  5
1C9
330
3C
100
AcDbEntity
  8
DEFAULT
  6
CONTINUOUS
 62
     7
100
AcDbLine
 10
103.1355240443
 20
204.3991690798
 30
0.0
 11
103.1355240443
 21
173.7616446398
 31
0.0
  0
LINE
  5
1CA
330
3C
100
AcDbEntity
  8
DEFAULT
  6
CONTINUOUS
 62
     7
100
AcDbLine
 10
120.6615240443
 20
220.3991690798
 30
0.0
 11
120.6615240443
 21
173.7616446398
 31
0.0
  0
LINE
  5
1CB
330
3C
100
AcDbEntity
  8
DEFAULT
  6
CONTINUOUS
 62
     7
100
AcDbLine
 10
103.1355240443
 20
175.3616445994
 30
0.0
 11
120.6615247824
 21
175.3616445994
 31
0.0
  0
TEXT
  5
1CC
330
3C
100
AcDbEntity
  8
DEFAULT
  6
CONTINUOUS
 62
     7
100
AcDbText
 10
105.5570609987
 20
176.1616445994
 30
0.0
 40
3.2
  1
17.526
  7
SEACAD_ARIAL_TTF
 11
105.5570609987
 21
179.3616445994
 31
0.0
100
AcDbText
 73
     3
  0
ENDBLK
  5
1CE
330
3C
100
AcDbEntity
  8
0
100
AcDbBlockEnd
  0
ENDSEC
  0
SECTION
  2
ENTITIES
  0
INSERT
  5
3D
330
1F
100
AcDbEntity
  8
DEFAULT
100
AcDbBlockReference
  2
SE
 10
0.0
 20
0.0
 30
0.0
  0
ENDSEC
  0
SECTION
  2
OBJECTS
  0
DICTIONARY
  5
C
330
0
100
AcDbDictionary
  3
ACAD_GROUP
350
D
  3
ACAD_LAYOUT
350
1A
  3
ACAD_MLEADERSTYLE
350
1D1
  3
ACAD_MLINESTYLE
350
17
  3
ACAD_PLOTSETTINGS
350
19
  3
ACAD_SCALELIST
350
3E
  3
ACAD_VISUALSTYLE
350
2A
  3
ACDBVARIABLEDICTIONARY
350
1CF
1001
ACAD
1000
TREAT_AS_HARD
1070
     0
  0
DICTIONARY
  5
D
102
{ACAD_REACTORS
330
C
102
}
330
C
100
AcDbDictionary
1001
ACAD
1000
TREAT_AS_HARD
1070
     0
  0
DICTIONARY
  5
1A
102
{ACAD_REACTORS
330
C
102
}
330
C
100
AcDbDictionary
1001
ACAD
1000
TREAT_AS_HARD
1070
     0
  0
DICTIONARY
  5
1D1
102
{ACAD_REACTORS
330
C
102
}
330
C
100
AcDbDictionary
1001
ACAD
1000
TREAT_AS_HARD
1070
     0
  0
DICTIONARY
  5
17
102
{ACAD_REACTORS
330
C
102
}
330
C
100
AcDbDictionary
  3
STANDARD
350
18
1001
ACAD
1000
TREAT_AS_HARD
1070
     0
  0
DICTIONARY
  5
19
102
{ACAD_REACTORS
330
C
102
}
330
C
100
AcDbDictionary
1001
ACAD
1000
TREAT_AS_HARD
1070
     0
  0
DICTIONARY
  5
3E
102
{ACAD_REACTORS
330
C
102
}
330
C
100
AcDbDictionary
  3
A0
350
3F
  3
A1
350
40
  3
A2
350
41
  3
A3
350
42
  3
A4
350
43
  3
A5
350
44
  3
A6
350
45
  3
A7
350
46
  3
A8
350
47
  3
A9
350
48
  3
B0
350
49
  3
B1
350
4A
  3
B2
350
4B
  3
B3
350
4C
  3
B4
350
4D
  3
B5
350
4E
  3
B6
350
4F
  3
B7
350
50
  3
B8
350
51
  3
B9
350
52
  3
C0
350
53
  3
C1
350
54
  3
C2
350
55
  3
C3
350
56
  3
C4
350
57
  3
C5
350
58
  3
C6
350
59
  3
C7
350
5A
  3
C8
350
5B
  3
C9
350
5C
  3
D0
350
5D
  3
D1
350
5E
  3
D2
350
5F
1001
ACAD
1000
TREAT_AS_HARD
1070
     0
  0
DICTIONARY
  5
2A
102
{ACAD_REACTORS
330
C
102
}
330
C
100
AcDbDictionary
  3
2DWIREFRAME
350
2F
  3
3D_HIDDEN
350
31
  3
3DWIREFRAME
350
30
  3
BASIC
350
32
  3
BRIGHTEN
350
36
  3
COLORCHANGE
350
3A
  3
CONCEPTUAL
350
34
  3
DIM
350
35
  3
FACEPATTERN
350
39
  3
FLAT
350
2B
  3
FLATWITHEDGES
350
2C
  3
GOURAUD
350
2D
  3
GOURAUDWITHEDGES
350
2E
  3
LINEPATTERN
350
38
  3
REALISTIC
350
33
  3
THICKEN
350
37
1001
ACAD
1000
TREAT_AS_HARD
1070
     0
  0
DICTIONARY
  5
1CF
102
{ACAD_REACTORS
330
C
102
}
330
C
100
AcDbDictionary
  3
CANNOSCALE
350
1D4
  3
PSOLHEIGHT
350
1D3
  3
PSOLWIDTH
350
1D2
1001
ACAD
1000
TREAT_AS_HARD
1070
     0
  0
MLINESTYLE
  5
18
102
{ACAD_REACTORS
330
17
102
}
330
17
100
AcDbMlineStyle
  2
Standard
 70
     0
  3

 62
   256
 51
90.0
 52
90.0
 71
     2
 49
0.5
 62
   256
  6
BYLAYER
 49
-0.5
 62
   256
  6
BYLAYER
  0
ACAD_PROXY_OBJECT
  5
3F
102
{ACAD_REACTORS
330
3E
102
}
330
3E
100
AcDbZombieObject
 90
      499
 91
      502
 93
       41
310
903313A31580
  0
ACAD_PROXY_OBJECT
  5
40
102
{ACAD_REACTORS
330
3E
102
}
330
3E
100
AcDbZombieObject
 90
      499
 91
      502
 93
      105
310
903313A324000000000000004000
  0
ACAD_PROXY_OBJECT
  5
41
102
{ACAD_REACTORS
330
3E
102
}
330
3E
100
AcDbZombieObject
 90
      499
 91
      502
 93
      105
310
903313A344000000000000104000
  0
ACAD_PROXY_OBJECT
  5
42
102
{ACAD_REACTORS
330
3E
102
}
330
3E
100
AcDbZombieObject
 90
      499
 91
      502
 93
      105
310
903313A354000000000000144000
  0
ACAD_PROXY_OBJECT
  5
43
102
{ACAD_REACTORS
330
3E
102
}
330
3E
100
AcDbZombieObject
 90
      499
 91
      502
 93
      105
310
903313A384000000000000204000
  0
ACAD_PROXY_OBJECT
  5
44
102
{ACAD_REACTORS
330
3E
102
}
330
3E
100
AcDbZombieObject
 90
      499
 91
      502
 93
      113
310
904313A31304000000000000244000
  0
ACAD_PROXY_OBJECT
  5
45
102
{ACAD_REACTORS
330
3E
102
}
330
3E
100
AcDbZombieObject
 90
      499
 91
      502
 93
      113
310
904313A31364000000000000304000
  0
ACAD_PROXY_OBJECT
  5
46
102
{ACAD_REACTORS
330
3E
102
}
330
3E
100
AcDbZombieObject
 90
      499
 91
      502
 93
      113
310
904313A32304000000000000344000
  0
ACAD_PROXY_OBJECT
  5
47
102
{ACAD_REACTORS
330
3E
102
}
330
3E
100
AcDbZombieObject
 90
      499
 91
      502
 93
      113
310
904313A333040000000000003E4000
  0
ACAD_PROXY_OBJECT
  5
48
102
{ACAD_REACTORS
330
3E
102
}
330
3E
100
AcDbZombieObject
 90
      499
 91
      502
 93
      113
310
904313A34304000000000000444000
  0
ACAD_PROXY_OBJECT
  5
49
102
{ACAD_REACTORS
330
3E
102
}
330
3E
100
AcDbZombieObject
 90
      499
 91
      502
 93
      113
310
904313A35304000000000000494000
  0
ACAD_PROXY_OBJECT
  5
4A
102
{ACAD_REACTORS
330
3E
102
}
330
3E
100
AcDbZombieObject
 90
      499
 91
      502
 93
      121
310
905313A3130304000000000000594000
  0
ACAD_PROXY_OBJECT
  5
4B
102
{ACAD_REACTORS
330
3E
102
}
330
3E
100
AcDbZombieObject
 90
      499
 91
      502
 93
      105
310
903323A310000000000000010100
  0
ACAD_PROXY_OBJECT
  5
4C
102
{ACAD_REACTORS
330
3E
102
}
330
3E
100
AcDbZombieObject
 90
      499
 91
      502
 93
      105
310
903343A310000000000000410100
  0
ACAD_PROXY_OBJECT
  5
4D
102
{ACAD_REACTORS
330
3E
102
}
330
3E
100
AcDbZombieObject
 90
      499
 91
      502
 93
      105
310
903383A310000000000000810100
  0
ACAD_PROXY_OBJECT
  5
4E
102
{ACAD_REACTORS
330
3E
102
}
330
3E
100
AcDbZombieObject
 90
      499
 91
      502
 93
      113
310
90431303A310000000000000910100
  0
ACAD_PROXY_OBJECT
  5
4F
102
{ACAD_REACTORS
330
3E
102
}
330
3E
100
AcDbZombieObject
 90
      499
 91
      502
 93
      121
310
9053130303A310000000000001650100
  0
ACAD_PROXY_OBJECT
  5
50
102
{ACAD_REACTORS
330
3E
102
}
330
3E
100
AcDbZombieObject
 90
      499
 91
      502
 93
      257
310
90E312F31323822203D2031272D3022000000000000200FC000000000000284000
  0
ACAD_PROXY_OBJECT
  5
51
102
{ACAD_REACTORS
330
3E
102
}
330
3E
100
AcDbZombieObject
 90
      499
 91
      502
 93
      249
310
90D312F363422203D2031272D3022000000000000240FC000000000000284000
  0
ACAD_PROXY_OBJECT
  5
52
102
{ACAD_REACTORS
330
3E
102
}
330
3E
100
AcDbZombieObject
 90
      499
 91
      502
 93
      249
310
90D312F333222203D2031272D3022000000000000280FC000000000000284000
  0
ACAD_PROXY_OBJECT
  5
53
102
{ACAD_REACTORS
330
3E
102
}
330
3E
100
AcDbZombieObject
 90
      499
 91
      502
 93
      249
310
90D312F313622203D2031272D30220000000000002C0FC000000000000284000
  0
ACAD_PROXY_OBJECT
  5
54
102
{ACAD_REACTORS
330
3E
102
}
330
3E
100
AcDbZombieObject
 90
      499
 91
      502
 93
      249
310
90D332F333222203D2031272D30220000000000002E0FC000000000000284000
  0
ACAD_PROXY_OBJECT
  5
55
102
{ACAD_REACTORS
330
3E
102
}
330
3E
100
AcDbZombieObject
 90
      499
 91
      502
 93
      241
310
90C312F3822203D2031272D3022000000000000300FC000000000000284000
  0
ACAD_PROXY_OBJECT
  5
56
102
{ACAD_REACTORS
330
3E
102
}
330
3E
100
AcDbZombieObject
 90
      499
 91
      502
 93
      249
310
90D332F313622203D2031272D3022000000000000320FC000000000000284000
  0
ACAD_PROXY_OBJECT
  5
57
102
{ACAD_REACTORS
330
3E
102
}
330
3E
100
AcDbZombieObject
 90
      499
 91
      502
 93
      241
310
90C312F3422203D2031272D3022000000000000340FC000000000000284000
  0
ACAD_PROXY_OBJECT
  5
58
102
{ACAD_REACTORS
330
3E
102
}
330
3E
100
AcDbZombieObject
 90
      499
 91
      502
 93
      241
310
90C332F3822203D2031272D3022000000000000360FC000000000000284000
  0
ACAD_PROXY_OBJECT
  5
59
102
{ACAD_REACTORS
330
3E
102
}
330
3E
100
AcDbZombieObject
 90
      499
 91
      502
 93
      241
310
90C312F3222203D2031272D3022000000000000380FC000000000000284000
  0
ACAD_PROXY_OBJECT
  5
5A
102
{ACAD_REACTORS
330
3E
102
}
330
3E
100
AcDbZombieObject
 90
      499
 91
      502
 93
      241
310
90C332F3422203D2031272D30220000000000003A0FC000000000000284000
  0
ACAD_PROXY_OBJECT
  5
5B
102
{ACAD_REACTORS
330
3E
102
}
330
3E
100
AcDbZombieObject
 90
      499
 91
      502
 93
      161
310
90A3122203D2031272D30224000000000000284000
  0
ACAD_PROXY_OBJECT
  5
5C
102
{ACAD_REACTORS
330
3E
102
}
330
3E
100
AcDbZombieObject
 90
      499
 91
      502
 93
      257
310
90E312D312F3222203D2031272D30220000000000003E0FC000000000000284000
  0
ACAD_PROXY_OBJECT
  5
5D
102
{ACAD_REACTORS
330
3E
102
}
330
3E
100
AcDbZombieObject
 90
      499
 91
      502
 93
      225
310
90A3322203D2031272D302200000000000002100000000000000284000
  0
ACAD_PROXY_OBJECT
  5
5E
102
{ACAD_REACTORS
330
3E
102
}
330
3E
100
AcDbZombieObject
 90
      499
 91
      502
 93
      225
310
90A3622203D2031272D302200000000000006100000000000000284000
  0
ACAD_PROXY_OBJECT
  5
5F
102
{ACAD_REACTORS
330
3E
102
}
330
3E
100
AcDbZombieObject
 90
      499
 91
      502
 93
      249
310
90D31272D3022203D2031272D30220000000000000A100000000000000284000
  0
ACAD_PROXY_OBJECT
  5
2F
102
{ACAD_REACTORS
330
2A
102
}
330
2A
100
AcDbZombieObject
 90
      499
 91
      501
 93
      436
310
42CC9915DA5C99599C985B595049028333333333333E3BF0000000000000FB0107901411070040501600405405064090741402480A0340
1001
ACAD
1000
AcDbSavedByObjectVersion
1070
     0
  0
ACAD_PROXY_OBJECT
  5
31
102
{ACAD_REACTORS
330
2A
102
}
330
2A
100
AcDbZombieObject
 90
      499
 91
      501
 93
      500
310
424CD108121A5919195B90640502408333333333333E3BF0000000000000FB01079024090700405020000000000001110200405405064090740C02480A0340
1001
ACAD
1000
AcDbSavedByObjectVersion
1070
     0
  0
ACAD_PROXY_OBJECT
  5
30
102
{ACAD_REACTORS
330
2A
102
}
330
2A
100
AcDbZombieObject
 90
      499
 91
      501
 93
      436
310
42CCD915DA5C99599C985B595059028333333333333E3BF0000000000000FB0107901411070040501600405405064090741402480A0340
1001
ACAD
1000
AcDbSavedByObjectVersion
1070
     0
  0
ACAD_PROXY_OBJECT
  5
32
102
{ACAD_REACTORS
330
2A
102
}
330
2A
100
AcDbZombieObject
 90
      499
 91
      501
 93
      388
310
4150985CDA58D07406404333333333333E3BF0000000000000FB0107A41107004050150841D405064090741402480A0350
1001
ACAD
1000
AcDbSavedByObjectVersion
1070
     0
  0
ACAD_PROXY_OBJECT
  5
36
102
{ACAD_REACTORS
330
2A
102
}
330
2A
100
AcDbZombieObject
 90
      499
 91
      501
 93
      428
310
42109C9A59DA1D195B90C409028333333333333E3BF0000000000000FB010790141107004050150841D405064090741402480A029950
1001
ACAD
1000
AcDbSavedByObjectVersion
1070
     0
  0
ACAD_PROXY_OBJECT
  5
3A
102
{ACAD_REACTORS
330
2A
102
}
330
2A
100
AcDbZombieObject
 90
      499
 91
      501
 93
      452
310
42D0DBDB1BDC90DA185B99D95104090240C333333333333E3BF0000000000000FB0108901411070040501508421405064090741402480A0350
1001
ACAD
1000
AcDbSavedByObjectVersion
1070
     0
  0
ACAD_PROXY_OBJECT
  5
34
102
{ACAD_REACTORS
330
2A
102
}
330
2A
100
AcDbZombieObject
 90
      499
 91
      501
 93
      500
310
4290DBDB98D95C1D1D585B10940D028333333333333E3BF0000000000000FB0107902409070040501000000000000111010841D405064090740C02480A0340
1001
ACAD
1000
AcDbSavedByObjectVersion
1070
     0
  0
ACAD_PROXY_OBJECT
  5
35
102
{ACAD_REACTORS
330
2A
102
}
330
2A
100
AcDbZombieObject
 90
      499
 91
      501
 93
      412
310
40D11A5B50B409028333333333333E3BF0000000000000FB010790141107004050150841D405064090741402480A02677FFFFFD0
1001
ACAD
1000
AcDbSavedByObjectVersion
1070
     0
  0
ACAD_PROXY_OBJECT
  5
39
102
{ACAD_REACTORS
330
2A
102
}
330
2A
100
AcDbZombieObject
 90
      499
 91
      501
 93
      444
310
42D19858D95C185D1D195C9B90F409028333333333333E3BF0000000000000FB010790141107004050150841D405064090741402480A0350
1001
ACAD
1000
AcDbSavedByObjectVersion
1070
     0
  0
ACAD_PROXY_OBJECT
  5
2B
102
{ACAD_REACTORS
330
2A
102
}
330
2A
100
AcDbZombieObject
 90
      499
 91
      501
 93
      388
310
41119B185D240901404333333333333E3BF0000000000000F9010740A41107004050150841D405064090741402480A1B50
1001
ACAD
1000
AcDbSavedByObjectVersion
1070
     0
  0
ACAD_PROXY_OBJECT
  5
2C
102
{ACAD_REACTORS
330
2A
102
}
330
2A
100
AcDbZombieObject
 90
      499
 91
      501
 93
      476
310
43519B185D15DA5D1A115919D95CD0140901404333333333333E3BF0000000000000F9010740901411070040501600405405064090741402480A1B50
1001
ACAD
1000
AcDbSavedByObjectVersion
1070
     0
  0
ACAD_PROXY_OBJECT
  5
2D
102
{ACAD_REACTORS
330
2A
102
}
330
2A
100
AcDbZombieObject
 90
      499
 91
      501
 93
      412
310
41D1DBDD5C985D5910240902404333333333333E3BF0000000000000F9010740A411070040501641D405064090741402480A1B50
1001
ACAD
1000
AcDbSavedByObjectVersion
1070
     0
  0
ACAD_PROXY_OBJECT
  5
2E
102
{ACAD_REACTORS
330
2A
102
}
330
2A
100
AcDbZombieObject
 90
      499
 91
      501
 93
      500
310
4411DBDD5C985D5915DA5D1A115919D95CD0340902404333333333333E3BF0000000000000F9010740901411070040501600405405064090741402480A1B50
1001
ACAD
1000
AcDbSavedByObjectVersion
1070
     0
  0
ACAD_PROXY_OBJECT
  5
38
102
{ACAD_REACTORS
330
2A
102
}
330
2A
100
AcDbZombieObject
 90
      499
 91
      501
 93
      444
310
42D31A5B995C185D1D195C9B90E409028333333333333E3BF0000000000000FB010790141107004050750841D405064090741402483A0350
1001
ACAD
1000
AcDbSavedByObjectVersion
1070
     0
  0
ACAD_PROXY_OBJECT
  5
33
102
{ACAD_REACTORS
330
2A
102
}
330
2A
100
AcDbZombieObject
 90
      499
 91
      501
 93
      420
310
425499585B1A5CDD1A58D08409028333333333333E3BF0000000000000FB01079019070040501508421405064090741402480A1B40
1001
ACAD
1000
AcDbSavedByObjectVersion
1070
     0
  0
ACAD_PROXY_OBJECT
  5
37
102
{ACAD_REACTORS
330
2A
102
}
330
2A
100
AcDbZombieObject
 90
      499
 91
      501
 93
      412
310
41D51A1A58DAD95B90D409028333333333333E3BF0000000000000FB010790141107004050150C41D405064090741402480A0350
1001
ACAD
1000
AcDbSavedByObjectVersion
1070
     0
  0
DICTIONARYVAR
  5
1D4
102
{ACAD_REACTORS
330
1CF
102
}
330
1CF
100
DictionaryVariables
280
     0
  1
1:1
  0
DICTIONARYVAR
  5
1D3
102
{ACAD_REACTORS
330
1CF
102
}
330
1CF
100
DictionaryVariables
280
     0
  1
80.000000
  0
DICTIONARYVAR
  5
1D2
102
{ACAD_REACTORS
330
1CF
102
}
330
1CF
100
DictionaryVariables
280
     0
  1
5.000000
  0
ENDSEC
  0
EOF
