  0
SECTION
  2
HEADER
  9
$ACADVER
  1
AC1012
  9
$DWGCODEPAGE
  3
ansi_932
  9
$INSBASE
 10
0.0
 20
0.0
 30
0.0
  9
$EXTMIN
 10
0.0
 20
0.0
 30
0.0
  9
$EXTMAX
 10
297.0
 20
210.0
 30
0.0
  9
$LIMMIN
 10
0.0
 20
0.0
  9
$LIMMAX
 10
297.0
 20
210.0
  9
$ORTHOMODE
 70
     0
  9
$REGENMODE
 70
     1
  9
$FILLMODE
 70
     1
  9
$QTEXTMODE
 70
     0
  9
$MIRRTEXT
 70
     1
  9
$DRAGMODE
 70
     2
  9
$LTSCALE
 40
1.0
  9
$OSMODE
 70
    37
  9
$ATTMODE
 70
     1
  9
$TEXTSIZE
 40
2.5
  9
$TRACEWID
 40
1.0
  9
$TEXTSTYLE
  7
STANDARD
  9
$CLAYER
  8
0
  9
$CELTYPE
  6
BYLAYER
  9
$CECOLOR
 62
   256
  9
$CELTSCALE
 40
1.0
  9
$DELOBJ
 70
     1
  9
$DISPSILH
 70
     0
  9
$DIMSCALE
 40
1.0
  9
$DIMASZ
 40
2.5
  9
$DIMEXO
 40
0.625
  9
$DIMDLI
 40
3.75
  9
$DIMRND
 40
0.0
  9
$DIMDLE
 40
0.0
  9
$DIMEXE
 40
1.25
  9
$DIMTP
 40
0.0
  9
$DIMTM
 40
0.0
  9
$DIMTXT
 40
2.5
  9
$DIMCEN
 40
2.5
  9
$DIMTSZ
 40
0.0
  9
$DIMTOL
 70
     0
  9
$DIMLIM
 70
     0
  9
$DIMTIH
 70
     0
  9
$DIMTOH
 70
     0
  9
$DIMSE1
 70
     0
  9
$DIMSE2
 70
     0
  9
$DIMTAD
 70
     1
  9
$DIMZIN
 70
     8
  9
$DIMBLK
  1

  9
$DIMASO
 70
     1
  9
$DIMSHO
 70
     1
  9
$DIMPOST
  1

  9
$DIMAPOST
  1

  9
$DIMALT
 70
     0
  9
$DIMALTD
 70
     3
  9
$DIMALTF
 40
0.0393700787
  9
$DIMLFAC
 40
1.0
  9
$DIMTOFL
 70
     1
  9
$DIMTVP
 40
0.0
  9
$DIMTIX
 70
     0
  9
$DIMSOXD
 70
     0
  9
$DIMSAH
 70
     0
  9
$DIMBLK1
  1

  9
$DIMBLK2
  1

  9
$DIMSTYLE
  2
ISO-25
  9
$DIMCLRD
 70
     0
  9
$DIMCLRE
 70
     0
  9
$DIMCLRT
 70
     0
  9
$DIMTFAC
 40
1.0
  9
$DIMGAP
 40
0.625
  9
$DIMJUST
 70
     0
  9
$DIMSD1
 70
     0
  9
$DIMSD2
 70
     0
  9
$DIMTOLJ
 70
     0
  9
$DIMTZIN
 70
     8
  9
$DIMALTZ
 70
     0
  9
$DIMALTTZ
 70
     0
  9
$DIMFIT
 70
     3
  9
$DIMUPT
 70
     0
  9
$DIMUNIT
 70
     2
  9
$DIMDEC
 70
     2
  9
$DIMTDEC
 70
     2
  9
$DIMALTU
 70
     2
  9
$DIMALTTD
 70
     3
  9
$DIMTXSTY
  7
STANDARD
  9
$DIMAUNIT
 70
     0
  9
$LUNITS
 70
     2
  9
$LUPREC
 70
     4
  9
$SKETCHINC
 40
1.0
  9
$FILLETRAD
 40
10.0
  9
$AUNITS
 70
     0
  9
$AUPREC
 70
     0
  9
$MENU
  1
.
  9
$ELEVATION
 40
0.0
  9
$PELEVATION
 40
0.0
  9
$THICKNESS
 40
0.0
  9
$LIMCHECK
 70
     0
  9
$CHAMFERA
 40
10.0
  9
$CHAMFERB
 40
10.0
  9
$CHAMFERC
 40
20.0
  9
$CHAMFERD
 40
0.0
  9
$SKPOLY
 70
     0
  9
$TDCREATE
 40
2456542.65005743
  9
$TDUPDATE
 40
2456542.650057442
  9
$TDINDWG
 40
0.0000000116
  9
$TDUSRTIMER
 40
0.0000000116
  9
$USRTIMER
 70
     1
  9
$ANGBASE
 50
0.0
  9
$ANGDIR
 70
     0
  9
$PDMODE
 70
     0
  9
$PDSIZE
 40
0.0
  9
$PLINEWID
 40
0.0
  9
$COORDS
 70
     1
  9
$SPLFRAME
 70
     0
  9
$SPLINETYPE
 70
     6
  9
$SPLINESEGS
 70
     8
  9
$ATTDIA
 70
     0
  9
$ATTREQ
 70
     1
  9
$HANDLING
 70
     1
  9
$HANDSEED
  5
169
  9
$SURFTAB1
 70
     6
  9
$SURFTAB2
 70
     6
  9
$SURFTYPE
 70
     6
  9
$SURFU
 70
     6
  9
$SURFV
 70
     6
  9
$UCSNAME
  2

  9
$UCSORG
 10
0.0
 20
0.0
 30
0.0
  9
$UCSXDIR
 10
1.0
 20
0.0
 30
0.0
  9
$UCSYDIR
 10
0.0
 20
1.0
 30
0.0
  9
$PUCSNAME
  2

  9
$PUCSORG
 10
0.0
 20
0.0
 30
0.0
  9
$PUCSXDIR
 10
1.0
 20
0.0
 30
0.0
  9
$PUCSYDIR
 10
0.0
 20
1.0
 30
0.0
  9
$USERI1
 70
     0
  9
$USERI2
 70
     0
  9
$USERI3
 70
     0
  9
$USERI4
 70
     0
  9
$USERI5
 70
     0
  9
$USERR1
 40
0.0
  9
$USERR2
 40
0.0
  9
$USERR3
 40
0.0
  9
$USERR4
 40
0.0
  9
$USERR5
 40
0.0
  9
$WORLDVIEW
 70
     1
  9
$SHADEDGE
 70
     3
  9
$SHADEDIF
 70
    70
  9
$TILEMODE
 70
     1
  9
$MAXACTVP
 70
    64
  9
$PINSBASE
 10
0.0
 20
0.0
 30
0.0
  9
$PLIMCHECK
 70
     0
  9
$PEXTMIN
 10
0.0
 20
0.0
 30
0.0
  9
$PEXTMAX
 10
297.0
 20
210.0
 30
0.0
  9
$PLIMMIN
 10
0.0
 20
0.0
  9
$PLIMMAX
 10
297.0
 20
210.0
  9
$UNITMODE
 70
     0
  9
$VISRETAIN
 70
     1
  9
$PLINEGEN
 70
     0
  9
$PSLTSCALE
 70
     1
  9
$TREEDEPTH
 70
  3020
  9
$PICKSTYLE
 70
     1
  9
$CMLSTYLE
  2
STANDARD
  9
$CMLJUST
 70
     0
  9
$CMLSCALE
 40
20.0
  9
$SAVEIMAGES
 70
     1
  0
ENDSEC
  0
SECTION
  2
CLASSES
  0
CLASS
  1
ACDBDICTIONARYWDFLT
  2
AcDbDictionaryWithDefault
  3
ObjectDBX Classes
 90
    32768
280
     0
281
     0
  0
CLASS
  1
VISUALSTYLE
  2
AcDbVisualStyle
  3
ObjectDBX Classes
 90
     4095
280
     0
281
     0
  0
CLASS
  1
SCALE
  2
AcDbScale
  3
ObjectDBX Classes
 90
     1153
280
     0
281
     0
  0
CLASS
  1
DICTIONARYVAR
  2
AcDbDictionaryVar
  3
ObjectDBX Classes
 90
        0
280
     0
281
     0
  0
CLASS
  1
XRECORD
  2
AcDbXrecord
  3
AutoCAD 2000
 90
    32768
280
     0
281
     0
  0
CLASS
  1
LWPOLYLINE
  2
AcDbPolyline
  3
AutoCAD 2000
 90
    32768
280
     0
281
     1
  0
CLASS
  1
HATCH
  2
AcDbHatch
  3
AutoCAD 2000
 90
    32768
280
     0
281
     1
  0
CLASS
  1
ACDBPLACEHOLDER
  2
AcDbPlaceHolder
  3
ObjectDBX Classes
 90
        0
280
     0
281
     0
  0
CLASS
  1
LAYOUT
  2
AcDbLayout
  3
ObjectDBX Classes
 90
        0
280
     0
281
     0
  0
ENDSEC
  0
SECTION
  2
TABLES
  0
TABLE
  2
VPORT
  5
8
330
0
100
AcDbSymbolTable
 70
     1
  0
VPORT
  5
29
330
8
100
AcDbSymbolTableRecord
100
AcDbViewportTableRecord
  2
*ACTIVE
 70
     0
 10
0.0
 20
0.0
 11
1.0
 21
1.0
 12
344.1869158879
 22
148.5
 13
0.0
 23
0.0
 14
10.0
 24
10.0
 15
10.0
 25
10.0
 16
0.0
 26
0.0
 36
1.0
 17
0.0
 27
0.0
 37
0.0
 40
297.0
 41
1.9729729729
 42
50.0
 43
0.0
 44
0.0
 50
0.0
 51
0.0
 71
     0
 72
   100
 73
     1
 74
     3
 75
     0
 76
     0
 77
     0
 78
     0
  0
ENDTAB
  0
TABLE
  2
LTYPE
  5
5
330
0
100
AcDbSymbolTable
 70
     2
  0
LTYPE
  5
14
330
5
100
AcDbSymbolTableRecord
100
AcDbLinetypeTableRecord
  2
BYBLOCK
 70
     0
  3

 72
    65
 73
     0
 40
0.0
  0
LTYPE
  5
15
330
5
100
AcDbSymbolTableRecord
100
AcDbLinetypeTableRecord
  2
BYLAYER
 70
     0
  3

 72
    65
 73
     0
 40
0.0
  0
LTYPE
  5
16
330
5
100
AcDbSymbolTableRecord
100
AcDbLinetypeTableRecord
  2
CONTINUOUS
 70
     0
  3
Solid line
 72
    65
 73
     0
 40
0.0
  0
LTYPE
  5
11B
330
5
100
AcDbSymbolTableRecord
100
AcDbLinetypeTableRecord
  2
CENTER2
 70
     0
  3
Center (.5x) ___ _ ___ _ ___ _ ___ _ ___ _ ___
 72
    65
 73
     4
 40
28.575
 49
19.05
 74
     4
 75
     0
340
0
 46
0.0
 50
0.0
 44
0.0
 45
0.0
 49
-3.175
 74
     4
 75
     0
340
0
 46
0.0
 50
0.0
 44
0.0
 45
0.0
 49
3.175
 74
     4
 75
     0
340
0
 46
0.0
 50
0.0
 44
0.0
 45
0.0
 49
-3.175
 74
     4
 75
     0
340
0
 46
0.0
 50
0.0
 44
0.0
 45
0.0
  0
ENDTAB
  0
TABLE
  2
LAYER
  5
2
330
0
100
AcDbSymbolTable
 70
     4
  0
LAYER
  5
10
330
2
100
AcDbSymbolTableRecord
100
AcDbLayerTableRecord
  2
0
 70
     0
 62
     7
  6
CONTINUOUS
  0
LAYER
  5
3B
330
2
100
AcDbSymbolTableRecord
100
AcDbLayerTableRecord
  2
DEFAULT
 70
     0
 62
     7
  6
CONTINUOUS
  0
LAYER
  5
6D
330
2
100
AcDbSymbolTableRecord
100
AcDbLayerTableRecord
  2
DV1_デフォルト
 70
     0
 62
     7
  6
CONTINUOUS
  0
LAYER
  5
11A
330
2
100
AcDbSymbolTableRecord
100
AcDbLayerTableRecord
  2
DV1_ﾃ_ﾌｫﾙﾄ
 70
     0
 62
     7
  6
CONTINUOUS
  0
ENDTAB
  0
TABLE
  2
STYLE
  5
3
330
0
100
AcDbSymbolTable
 70
     3
  0
STYLE
  5
11
330
3
100
AcDbSymbolTableRecord
100
AcDbTextStyleTableRecord
  2
STANDARD
 70
     0
 40
0.0
 41
1.0
 50
0.0
 71
     0
 42
2.5
  3
txt
  4

  0
STYLE
  5
65
330
3
100
AcDbSymbolTableRecord
100
AcDbTextStyleTableRecord
  2
SEACAD_SEANSI_TTF
 70
     0
 40
0.0
 41
1.0
 50
0.0
 71
     0
 42
0.2
  3
seansi.ttf
  4

  0
STYLE
  5
67
330
3
100
AcDbSymbolTableRecord
100
AcDbTextStyleTableRecord
  2
SEACAD_SEMECA1_TTF
 70
     0
 40
0.0
 41
1.0
 50
0.0
 71
     0
 42
0.2
  3
semeca1.ttf
  4

  0
ENDTAB
  0
TABLE
  2
VIEW
  5
6
330
0
100
AcDbSymbolTable
 70
     0
  0
ENDTAB
  0
TABLE
  2
UCS
  5
7
330
0
100
AcDbSymbolTable
 70
     0
  0
ENDTAB
  0
TABLE
  2
APPID
  5
9
330
0
100
AcDbSymbolTable
 70
     1
  0
APPID
  5
12
330
9
100
AcDbSymbolTableRecord
100
AcDbRegAppTableRecord
  2
ACAD
 70
     0
  0
ENDTAB
  0
TABLE
  2
DIMSTYLE
  5
A
330
0
100
AcDbSymbolTable
 70
     1
  0
DIMSTYLE
105
27
330
A
100
AcDbSymbolTableRecord
100
AcDbDimStyleTableRecord
  2
ISO-25
 70
     0
  3

  4

  5

  6

  7

 40
1.0
 41
2.5
 42
0.625
 43
3.75
 44
1.25
 45
0.0
 46
0.0
 47
0.0
 48
0.0
140
2.5
141
2.5
142
0.0
143
0.0393700787
144
1.0
145
0.0
146
1.0
147
0.625
 71
     0
 72
     0
 73
     0
 74
     0
 75
     0
 76
     0
 77
     1
 78
     8
170
     0
171
     3
172
     1
173
     0
174
     0
175
     0
176
     0
177
     0
178
     0
270
     2
271
     2
272
     2
273
     2
274
     3
340
11
275
     0
280
     0
281
     0
282
     0
283
     0
284
     8
285
     0
286
     0
287
     3
288
     0
  0
ENDTAB
  0
TABLE
  2
BLOCK_RECORD
  5
1
330
0
100
AcDbSymbolTable
 70
     6
  0
BLOCK_RECORD
  5
1F
330
1
100
AcDbSymbolTableRecord
100
AcDbBlockTableRecord
  2
*MODEL_SPACE
  0
BLOCK_RECORD
  5
1B
330
1
100
AcDbSymbolTableRecord
100
AcDbBlockTableRecord
  2
*PAPER_SPACE
  0
BLOCK_RECORD
  5
3C
330
1
100
AcDbSymbolTableRecord
100
AcDbBlockTableRecord
  2
GDIMGGROUP
  0
BLOCK_RECORD
  5
6B
330
1
100
AcDbSymbolTableRecord
100
AcDbBlockTableRecord
  2
SE
  0
BLOCK_RECORD
  5
123
330
1
100
AcDbSymbolTableRecord
100
AcDbBlockTableRecord
  2
GDIMGGROUP1
  0
BLOCK_RECORD
  5
12D
330
1
100
AcDbSymbolTableRecord
100
AcDbBlockTableRecord
  2
GDIMGGROUP2
  0
BLOCK_RECORD
  5
137
330
1
100
AcDbSymbolTableRecord
100
AcDbBlockTableRecord
  2
GDIMGGROUP3
  0
ENDTAB
  0
ENDSEC
  0
SECTION
  2
BLOCKS
  0
BLOCK
  5
20
330
1F
100
AcDbEntity
  8
0
100
AcDbBlockBegin
  2
*MODEL_SPACE
 70
     0
 10
0.0
 20
0.0
 30
0.0
  3
*MODEL_SPACE
  1

  0
ENDBLK
  5
21
330
1F
100
AcDbEntity
  8
0
100
AcDbBlockEnd
  0
BLOCK
  5
1C
330
1B
100
AcDbEntity
 67
     1
  8
0
100
AcDbBlockBegin
  2
*PAPER_SPACE
 70
     0
 10
0.0
 20
0.0
 30
0.0
  3
*PAPER_SPACE
  1

  0
ENDBLK
  5
1D
330
1B
100
AcDbEntity
 67
     1
  8
0
100
AcDbBlockEnd
  0
BLOCK
  5
69
330
3C
100
AcDbEntity
  8
0
100
AcDbBlockBegin
  2
GDIMGGROUP
 70
     0
 10
0.0
 20
0.0
 30
0.0
  3
GDIMGGROUP
  1

  0
POLYLINE
  5
3E
330
3C
100
AcDbEntity
  8
DEFAULT
  6
CONTINUOUS
 62
   136
100
AcDb2dPolyline
 66
     1
 10
0.0
 20
0.0
 30
0.0
  0
VERTEX
  5
149
330
3E
100
AcDbEntity
  8
DEFAULT
  6
CONTINUOUS
 62
   136
100
AcDbVertex
100
AcDb2dVertex
 10
118.526346637
 20
107.5679693414
 30
0.0
  0
VERTEX
  5
14A
330
3E
100
AcDbEntity
  8
DEFAULT
  6
CONTINUOUS
 62
   136
100
AcDbVertex
100
AcDb2dVertex
 10
117.9930133172
 20
104.3679694223
 30
0.0
  0
VERTEX
  5
14B
330
3E
100
AcDbEntity
  8
DEFAULT
  6
CONTINUOUS
 62
   136
100
AcDbVertex
100
AcDb2dVertex
 10
117.4596799973
 20
107.5679693414
 30
0.0
  0
SEQEND
  5
14C
330
3E
100
AcDbEntity
  8
DEFAULT
  6
CONTINUOUS
 62
   136
  0
POLYLINE
  5
3F
330
3C
100
AcDbEntity
  8
DEFAULT
  6
CONTINUOUS
 62
   136
100
AcDb2dPolyline
 66
     1
 10
0.0
 20
0.0
 30
0.0
  0
VERTEX
  5
14D
330
3F
100
AcDbEntity
  8
DEFAULT
  6
CONTINUOUS
 62
   136
100
AcDbVertex
100
AcDb2dVertex
 10
118.526346637
 20
133.167971023
 30
0.0
  0
VERTEX
  5
14E
330
3F
100
AcDbEntity
  8
DEFAULT
  6
CONTINUOUS
 62
   136
100
AcDbVertex
100
AcDb2dVertex
 10
117.9930133172
 20
136.3679709422
 30
0.0
  0
VERTEX
  5
14F
330
3F
100
AcDbEntity
  8
DEFAULT
  6
CONTINUOUS
 62
   136
100
AcDbVertex
100
AcDb2dVertex
 10
117.4596799973
 20
133.167971023
 30
0.0
  0
SEQEND
  5
150
330
3F
100
AcDbEntity
  8
DEFAULT
  6
CONTINUOUS
 62
   136
  0
LINE
  5
40
330
3C
100
AcDbEntity
  8
DEFAULT
  6
CONTINUOUS
 62
   136
100
AcDbLine
 10
135.1067496821
 20
104.3679694223
 30
0.0
 11
116.3930133576
 21
104.3679694223
 31
0.0
  0
LINE
  5
41
330
3C
100
AcDbEntity
  8
DEFAULT
  6
CONTINUOUS
 62
   136
100
AcDbLine
 10
134.9067496821
 20
136.3679694223
 30
0.0
 11
116.3930133576
 21
136.3679694223
 31
0.0
  0
LINE
  5
42
330
3C
100
AcDbEntity
  8
DEFAULT
  6
CONTINUOUS
 62
   136
100
AcDbLine
 10
117.9930133172
 20
104.3679694223
 30
0.0
 11
117.9930133172
 21
136.3679709422
 31
0.0
  0
TEXT
  5
66
330
3C
100
AcDbEntity
  8
DEFAULT
  6
CONTINUOUS
 62
   136
100
AcDbText
 10
117.1930133172
 20
120.0110681711
 30
0.0
 40
3.2
  1
32
 50
90.0
  7
SEACAD_SEANSI_TTF
 11
113.9930133172
 21
120.0110681711
 31
0.0
100
AcDbText
 73
     3
  0
TEXT
  5
68
330
3C
100
AcDbEntity
  8
DEFAULT
  6
CONTINUOUS
 62
   136
100
AcDbText
 10
117.1930133172
 20
116.0419453641
 30
0.0
 40
3.2
  1
O
 50
90.0
  7
SEACAD_SEMECA1_TTF
 11
113.9930133172
 21
116.0419453641
 31
0.0
100
AcDbText
 73
     3
  0
ENDBLK
  5
6A
330
3C
100
AcDbEntity
  8
0
100
AcDbBlockEnd
  0
BLOCK
  5
121
330
6B
100
AcDbEntity
  8
0
100
AcDbBlockBegin
  2
SE
 70
     0
 10
0.0
 20
0.0
 30
0.0
  3
SE
  1

  0
ELLIPSE
  5
6E
330
6B
100
AcDbEntity
  8
DV1_デフォルト
  6
CONTINUOUS
 62
     7
100
AcDbEllipse
 10
175.1867496498
 20
104.4784895798
 30
0.0
 11
-0.7499999999999997
 21
1.157064035134973E-47
 31
0.0
210
0.0
220
0.0
230
1.0
 40
0.2588190451
 41
0.6057224332587862
 42
2.535870220330941
  0
ELLIPSE
  5
6F
330
6B
100
AcDbEntity
  8
DV1_デフォルト
  6
CONTINUOUS
 62
     7
100
AcDbEllipse
 10
175.1867496498
 20
104.4784895798
 30
0.0
 11
1.000000002384286
 21
-2.314128070269946E-47
 31
0.0
210
0.0
220
0.0
230
1.0
 40
0.2588190451
 41
3.582784068329488
 42
5.841993892439824
  0
LINE
  5
70
330
6B
100
AcDbEntity
  8
DV1_デフォルト
  6
CONTINUOUS
 62
     7
100
AcDbLine
 10
174.1964878655
 20
104.3679694223
 30
0.0
 11
174.212558792
 21
104.1905857896
 31
0.0
  0
LINE
  5
71
330
6B
100
AcDbEntity
  8
DV1_デフォルト
  6
CONTINUOUS
 62
     7
100
AcDbLine
 10
176.1609405076
 20
104.1905857896
 30
0.0
 11
176.1770114341
 21
104.3679694223
 31
0.0
  0
SPLINE
  5
72
330
6B
100
AcDbEntity
  8
DV1_デフォルト
  6
CONTINUOUS
 62
     7
100
AcDbSpline
210
0.0
220
0.0
230
1.0
 70
     8
 71
     3
 72
    27
 73
    23
 74
     0
 42
0.0000000044383179
 43
0.0000000001
 40
0.0
 40
0.0
 40
0.0
 40
0.0
 40
0.0355168869924102
 40
0.0722272854910201
 40
0.1110093974093253
 40
0.1565964561837305
 40
0.2149924691120851
 40
0.2753020809433915
 40
0.338124655977128
 40
0.3982962137855442
 40
0.4572449016366488
 40
0.5156974165582551
 40
0.5740922289367565
 40
0.6327128905263978
 40
0.6919860682807333
 40
0.7526402281748213
 40
0.8161924671909028
 40
0.8757628320420511
 40
0.9183079378033451
 40
0.9572800001447399
 40
0.9949685511731322
 40
1.0
 40
1.0
 40
1.0
 40
1.0
 10
174.214226206629
 20
104.1843007466749
 30
0.0
 10
174.2194801668293
 20
104.1562905330307
 30
0.0
 10
174.2290620580808
 20
104.1082772463232
 30
0.0
 10
174.2719223021423
 20
104.0426026582519
 30
0.0
 10
174.3267553139024
 20
103.9901059424475
 30
0.0
 10
174.3996175544444
 20
103.9439922447032
 30
0.0
 10
174.494100916905
 20
103.9038898583793
 30
0.0
 10
174.6159002119184
 20
103.8689193975328
 30
0.0
 10
174.7570274047561
 20
103.8419048031959
 30
0.0
 10
174.9118787718126
 20
103.8233304377819
 30
0.0
 10
175.0723788204235
 20
103.8133559483461
 30
0.0
 10
175.2351555794135
 20
103.8116909848345
 30
0.0
 10
175.3959810352002
 20
103.8182318472399
 30
0.0
 10
175.5505019644293
 20
103.832877307781
 30
0.0
 10
175.6949134996265
 20
103.8556148391425
 30
0.0
 10
175.8268016199308
 20
103.8869649791465
 30
0.0
 10
175.9401408067969
 20
103.9272519726654
 30
0.0
 10
176.0273130648677
 20
103.9749628352167
 30
0.0
 10
176.0943547467286
 20
104.0329757180887
 30
0.0
 10
176.1379633512018
 20
104.0991710771879
 30
0.0
 10
176.161534779187
 20
104.1581600506474
 30
0.0
 10
176.1595659362203
 20
104.187503226821
 30
0.0
 10
176.1592896260253
 20
104.1915245170159
 30
0.0
  0
LINE
  5
73
330
6B
100
AcDbEntity
  8
DV1_デフォルト
  6
CONTINUOUS
 62
     7
100
AcDbLine
 10
154.4867496498
 20
136.4679694223
 30
0.0
 11
155.8867496498
 21
136.4679694223
 31
0.0
  0
LINE
  5
74
330
6B
100
AcDbEntity
  8
DV1_デフォルト
  6
CONTINUOUS
 62
     7
100
AcDbLine
 10
155.8867496498
 20
136.287570629
 30
0.0
 11
155.8867496498
 21
136.4679694223
 31
0.0
  0
LINE
  5
75
330
6B
100
AcDbEntity
  8
DV1_デフォルト
  6
CONTINUOUS
 62
     7
100
AcDbLine
 10
154.4867496498
 20
136.4679694223
 30
0.0
 11
154.4867496498
 21
136.2879207093
 31
0.0
  0
ELLIPSE
  5
76
330
6B
100
AcDbEntity
  8
DV1_デフォルト
  6
CONTINUOUS
 62
     7
100
AcDbEllipse
 10
175.1867496498
 20
124.6255427142
 30
0.0
 11
-1.000000002384288
 21
-3.122502256758253E-14
 31
0.0
210
0.0
220
0.0
230
1.0
 40
0.9659258263
 41
5.95057420162464
 42
6.283185307179554
  0
ELLIPSE
  5
77
330
6B
100
AcDbEntity
  8
DV1_デフォルト
  6
CONTINUOUS
 62
     7
100
AcDbEllipse
 10
175.1867496498
 20
124.6255427142
 30
0.0
 11
-1.000000002384288
 21
-3.122502256758253E-14
 31
0.0
210
0.0
220
0.0
230
1.0
 40
0.9659258263
 41
0.0
 42
3.474203759144853
  0
ELLIPSE
  5
78
330
6B
100
AcDbEntity
  8
DV1_デフォルト
  6
CONTINUOUS
 62
     7
100
AcDbEllipse
 10
175.1867496498
 20
124.7011020792
 30
0.0
 11
-0.974458652217203
 21
-1.908195823574488E-14
 31
0.0
210
0.0
220
0.0
230
1.0
 40
0.9659258263
 41
2.912226751152414
 42
6.283185307179581
  0
ELLIPSE
  5
79
330
6B
100
AcDbEntity
  8
DV1_デフォルト
  6
CONTINUOUS
 62
     7
100
AcDbEllipse
 10
175.1867496498
 20
124.7011020792
 30
0.0
 11
-0.974458652217203
 21
-1.908195823574488E-14
 31
0.0
210
0.0
220
0.0
230
1.0
 40
0.9659258263
 41
0.0
 42
0.1644977586278863
  0
ELLIPSE
  5
7A
330
6B
100
AcDbEntity
  8
DV1_デフォルト
  6
CONTINUOUS
 62
     7
100
AcDbEllipse
 10
175.3494206473
 20
121.5367348611
 30
0.0
 11
6.820154039604234
 21
9.871448530950881
 31
0.0
210
0.0
220
0.0
230
1.0
 40
0.150572571
 41
1.30284779426481
 42
1.326205194918131
  0
ELLIPSE
  5
7B
330
6B
100
AcDbEntity
  8
DV1_デフォルト
  6
CONTINUOUS
 62
     7
100
AcDbEllipse
 10
175.5590810238
 20
122.1519336852
 30
0.0
 11
-9.630065920176534
 21
7.131074954251103
 31
0.0
210
0.0
220
0.0
230
0.9999999999999998
 40
0.2105117538
 41
-1.43284788572007
 42
-1.399465493548976
  0
ELLIPSE
  5
7C
330
6B
100
AcDbEntity
  8
DV1_デフォルト
  6
CONTINUOUS
 62
     7
100
AcDbEllipse
 10
175.0240786632
 20
121.7615126604
 30
0.0
 11
6.820154036007688
 21
9.871448525013449
 31
0.0
210
0.0
220
0.0
230
1.0
 40
0.150572571
 41
1.302847794350103
 42
1.326205195016432
  0
ARC
  5
7D
330
6B
100
AcDbEntity
  8
DV1_デフォルト
  6
CONTINUOUS
 62
     7
100
AcDbCircle
 10
175.1028919103
 20
125.2490266729
 30
0.0
 40
0.1649235114011502
100
AcDbArc
 50
235.84378522
 51
322.3749231939
  0
ELLIPSE
  5
7E
330
6B
100
AcDbEntity
  8
DV1_デフォルト
  6
CONTINUOUS
 62
     7
100
AcDbEllipse
 10
175.3031032029
 20
121.8062517745
 30
0.0
 11
-9.642451851382056
 21
7.140246757987522
 31
0.0
210
0.0
220
0.0
230
0.9999999999999999
 40
0.210511755
 41
-1.386148017117014
 42
-1.362790616789946
  0
ELLIPSE
  5
7F
330
6B
100
AcDbEntity
  8
DV1_デフォルト
  6
CONTINUOUS
 62
     7
100
AcDbEllipse
 10
174.6662024514
 20
122.0087681929
 30
0.0
 11
6.811393500417848
 21
9.858768593922985
 31
0.0
210
0.0
220
0.0
230
1.0
 40
0.1505725721
 41
1.339522667874083
 42
1.372905060046859
  0
ELLIPSE
  5
80
330
6B
100
AcDbEntity
  8
DV1_デフォルト
  6
CONTINUOUS
 62
     7
100
AcDbEllipse
 10
175.0703961046
 20
121.4919955511
 30
0.0
 11
-9.642451849735544
 21
7.140246756480836
 31
0.0
210
0.0
220
0.0
230
1.0
 40
0.210511755
 41
-1.38614801717788
 42
-1.362790616846763
  0
ARC
  5
81
330
6B
100
AcDbEntity
  8
DV1_デフォルト
  6
CONTINUOUS
 62
     7
100
AcDbCircle
 10
174.6933677224
 20
124.6728302797
 30
0.0
 40
0.1511105800849539
100
AcDbArc
 50
323.3747814534
 51
56.1276760048
  0
ELLIPSE
  5
82
330
6B
100
AcDbEntity
  8
DV1_デフォルト
  6
CONTINUOUS
 62
     7
100
AcDbEllipse
 10
175.0240786608
 20
121.7615125666
 30
0.0
 11
6.820154130940484
 21
9.871448683118587
 31
0.0
210
0.0
220
0.0
230
0.9999999999999999
 40
0.1505725729
 41
1.38622253412189
 42
1.409579934447679
  0
ELLIPSE
  5
83
330
6B
100
AcDbEntity
  8
DV1_デフォルト
  6
CONTINUOUS
 62
     7
100
AcDbEllipse
 10
174.8144182758
 20
121.14631372
 30
0.0
 11
-9.630065919942256
 21
7.131074954025991
 31
0.0
210
0.0
220
0.0
230
0.9999999999999998
 40
0.2105117538
 41
-1.432847885732881
 42
-1.399465493561112
  0
ELLIPSE
  5
84
330
6B
100
AcDbEntity
  8
DV1_デフォルト
  6
CONTINUOUS
 62
     7
100
AcDbEllipse
 10
175.3494206447
 20
121.5367347697
 30
0.0
 11
6.820154131841495
 21
9.871448684661319
 31
0.0
210
0.0
220
0.0
230
1.0
 40
0.1505725729
 41
1.386222534074088
 42
1.409579934396679
  0
ARC
  5
85
330
6B
100
AcDbEntity
  8
DV1_デフォルト
  6
CONTINUOUS
 62
     7
100
AcDbCircle
 10
175.2700365012
 20
124.2607791983
 30
0.0
 40
0.1623165447562274
100
AcDbArc
 50
54.9713647894
 51
143.2473436245
  0
ELLIPSE
  5
86
330
6B
100
AcDbEntity
  8
DV1_デフォルト
  6
CONTINUOUS
 62
     7
100
AcDbEllipse
 10
175.0703961089
 20
121.4919956371
 30
0.0
 11
-9.642451714757176
 21
7.140246643581829
 31
0.0
210
0.0
220
0.0
230
1.0
 40
0.2105117521
 41
-1.469522762386128
 42
-1.446165361719938
  0
ELLIPSE
  5
87
330
6B
100
AcDbEntity
  8
DV1_デフォルト
  6
CONTINUOUS
 62
     7
100
AcDbEllipse
 10
175.7072968482
 20
121.289479213
 30
0.0
 11
6.811393500246336
 21
9.858768593650568
 31
0.0
210
0.0
220
0.0
230
1.0
 40
0.1505725721
 41
1.339522667871782
 42
1.372905060045614
  0
ELLIPSE
  5
88
330
6B
100
AcDbEntity
  8
DV1_デフォルト
  6
CONTINUOUS
 62
     7
100
AcDbEllipse
 10
175.3031032054
 20
121.8062518554
 30
0.0
 11
-9.642451726011128
 21
7.14024665268278
 31
0.0
210
0.0
220
0.0
230
0.9999999999999999
 40
0.2105117524
 41
-1.469522762275407
 42
-1.446165361637142
  0
ARC
  5
89
330
6B
100
AcDbEntity
  8
DV1_デフォルト
  6
CONTINUOUS
 62
     7
100
AcDbCircle
 10
175.6805896957
 20
124.8334938695
 30
0.0
 40
0.1514316510216053
100
AcDbArc
 50
143.502095395
 51
236.0003620632
  0
LINE
  5
8A
330
6B
100
AcDbEntity
  8
DV1_デフォルト
  6
CONTINUOUS
 62
     7
100
AcDbLine
 10
174.7825560004
 20
125.2668725048
 30
0.0
 11
174.7825560004
 21
125.2199610301
 31
0.0
  0
LINE
  5
8B
330
6B
100
AcDbEntity
  8
DV1_デフォルト
  6
CONTINUOUS
 62
     7
100
AcDbLine
 10
175.3964100318
 20
125.3652987831
 30
0.0
 11
175.3964100318
 21
125.3183873084
 31
0.0
  0
ELLIPSE
  5
8C
330
6B
100
AcDbEntity
  8
DV1_デフォルト
  6
CONTINUOUS
 62
     7
100
AcDbEllipse
 10
175.6890344818
 20
124.7837255328
 30
0.0
 11
0.1600291457890647
 21
-6.071532165918825E-15
 31
0.0
210
0.0
220
0.0
230
1.0
 40
0.9659258263
 41
3.141592653589793
 42
4.091306464191757
  0
LINE
  5
8D
330
6B
100
AcDbEntity
  8
DV1_デフォルト
  6
CONTINUOUS
 62
     7
100
AcDbLine
 10
175.5959109844
 20
124.6580165238
 30
0.0
 11
175.8005940352
 21
124.5166016211
 31
0.0
  0
LINE
  5
8E
330
6B
100
AcDbEntity
  8
DV1_デフォルト
  6
CONTINUOUS
 62
     7
100
AcDbLine
 10
174.6747837784
 20
124.3438766724
 30
0.0
 11
174.8146422696
 21
124.5327467234
 31
0.0
  0
ELLIPSE
  5
8F
330
6B
100
AcDbEntity
  8
DV1_デフォルト
  6
CONTINUOUS
 62
     7
100
AcDbEllipse
 10
174.6844648178
 20
124.6226513226
 30
0.0
 11
-0.1600291457890448
 21
1.734723475976807E-15
 31
0.0
210
0.0
220
0.0
230
1.0
 40
0.9659258263
 41
2.52087436024415
 42
3.141592653589804
  0
LINE
  5
90
330
6B
100
AcDbEntity
  8
DV1_デフォルト
  6
CONTINUOUS
 62
     7
100
AcDbLine
 10
174.5730183209
 20
124.9369936404
 30
0.0
 11
174.7825560004
 21
125.2199610301
 31
0.0
  0
LINE
  5
91
330
6B
100
AcDbEntity
  8
DV1_デフォルト
  6
CONTINUOUS
 62
     7
100
AcDbLine
 10
174.7825560004
 20
125.2199610301
 30
0.0
 11
175.0102954132
 21
125.0626165564
 31
0.0
  0
ELLIPSE
  5
92
330
6B
100
AcDbEntity
  8
DV1_デフォルト
  6
CONTINUOUS
 62
     7
100
AcDbEllipse
 10
175.1033781222
 20
125.1883198041
 30
0.0
 11
-0.160000562386681
 21
-4.336808689942018E-15
 31
0.0
210
0.0
220
0.0
230
1.0
 40
0.9659258263
 41
0.9498994369238473
 42
2.520688733922214
  0
LINE
  5
93
330
6B
100
AcDbEntity
  8
DV1_デフォルト
  6
CONTINUOUS
 62
     7
100
AcDbLine
 10
175.233515046
 20
125.0984079279
 30
0.0
 11
175.3964100318
 21
125.3183873084
 31
0.0
  0
LINE
  5
94
330
6B
100
AcDbEntity
  8
DV1_デフォルト
  6
CONTINUOUS
 62
     7
100
AcDbLine
 10
175.3964100318
 20
125.3183873084
 30
0.0
 11
175.6985091048
 21
125.1096679696
 31
0.0
  0
LINE
  5
95
330
6B
100
AcDbEntity
  8
DV1_デフォルト
  6
CONTINUOUS
 62
     7
100
AcDbLine
 10
176.131942661
 20
124.940929221
 30
0.0
 11
176.1078011554
 21
125.0084331888
 31
0.0
  0
LINE
  5
96
330
6B
100
AcDbEntity
  8
DV1_デフォルト
  6
CONTINUOUS
 62
     7
100
AcDbLine
 10
174.2656981442
 20
125.0084331888
 30
0.0
 11
174.2415566386
 21
124.940929221
 31
0.0
  0
LINE
  5
97
330
6B
100
AcDbEntity
  8
DV1_デフォルト
  6
CONTINUOUS
 62
     7
100
AcDbLine
 10
175.5290053361
 20
124.8354893419
 30
0.0
 11
175.5290053361
 21
124.7837255328
 31
0.0
  0
LINE
  5
98
330
6B
100
AcDbEntity
  8
DV1_デフォルト
  6
CONTINUOUS
 62
     7
100
AcDbLine
 10
174.8444939636
 20
124.6226513226
 30
0.0
 11
174.8444939636
 21
124.6744151316
 31
0.0
  0
LINE
  5
99
330
6B
100
AcDbEntity
  8
DV1_デフォルト
  6
CONTINUOUS
 62
     7
100
AcDbLine
 10
136.1867496498
 20
104.5679694223
 30
0.0
 11
136.1867496498
 21
136.1679694223
 31
0.0
  0
LINE
  5
9A
330
6B
100
AcDbEntity
  8
DV1_デフォルト
  6
CONTINUOUS
 62
     7
100
AcDbLine
 10
136.3867496498
 20
104.3679694223
 30
0.0
 11
136.3867496498
 21
136.3679694223
 31
0.0
  0
LINE
  5
9B
330
6B
100
AcDbEntity
  8
DV1_デフォルト
  6
CONTINUOUS
 62
     7
100
AcDbLine
 10
158.7867496498
 20
104.3679694223
 30
0.0
 11
158.7867496498
 21
136.3679694223
 31
0.0
  0
LINE
  5
9C
330
6B
100
AcDbEntity
  8
DV1_デフォルト
  6
CONTINUOUS
 62
     7
100
AcDbLine
 10
158.9867496498
 20
104.5679694223
 30
0.0
 11
158.9867496498
 21
136.1679694223
 31
0.0
  0
SPLINE
  5
9D
330
6B
100
AcDbEntity
  8
DV1_デフォルト
  6
CONTINUOUS
 62
     7
100
AcDbSpline
210
0.0
220
0.0
230
1.0
 70
    11
 71
     3
 72
    62
 73
    58
 74
     0
 42
0.0000000034243127
 43
0.0000000001
 40
0.0
 40
0.0
 40
0.0
 40
0.0
 40
0.0536787503120001
 40
0.0536787503120001
 40
0.0536787503120001
 40
0.1073558917877266
 40
0.1073558917877266
 40
0.1073558917877266
 40
0.1610571574130505
 40
0.1610571574130505
 40
0.1610571574130505
 40
0.2147748756015762
 40
0.2147748756015762
 40
0.2147748756015762
 40
0.2684666024539656
 40
0.2684666024539656
 40
0.2684666024539656
 40
0.3221304923085575
 40
0.3221304923085575
 40
0.3221304923085575
 40
0.3758080878013135
 40
0.3758080878013135
 40
0.3758080878013135
 40
0.4295195657002874
 40
0.4295195657002874
 40
0.4295195657002874
 40
0.4832322611210898
 40
0.4832322611210898
 40
0.4832322611210898
 40
0.5369115420058758
 40
0.5369115420058758
 40
0.5369115420058758
 40
0.5905749530583394
 40
0.5905749530583394
 40
0.5905749530583394
 40
0.6442647877524806
 40
0.6442647877524806
 40
0.6442647877524806
 40
0.6979821071939925
 40
0.6979821071939925
 40
0.6979821071939925
 40
0.7516850860869715
 40
0.7516850860869715
 40
0.7516850860869715
 40
0.8053543095916494
 40
0.8053543095916494
 40
0.8053543095916494
 40
0.859023017112068
 40
0.859023017112068
 40
0.859023017112068
 40
0.9127252279718475
 40
0.9127252279718475
 40
0.9127252279718475
 40
0.9664427451127714
 40
0.9664427451127714
 40
0.9664427451127714
 40
1.0
 40
1.0
 40
1.0
 40
1.0
 10
151.1867496498119
 20
134.5146296694001
 30
0.0
 10
151.253877633846
 20
134.5146296694001
 30
0.0
 10
151.3219312413955
 20
134.5092231139767
 30
0.0
 10
151.3852738964692
 20
134.4987995036933
 30
0.0
 10
151.4486154723991
 20
134.4883760709928
 30
0.0
 10
151.5089930188592
 20
134.472643448906
 30
0.0
 10
151.5614150650398
 20
134.4527520771955
 30
0.0
 10
151.6138602861618
 20
134.4328519118303
 30
0.0
 10
151.6597895431236
 20
134.4082321382625
 30
0.0
 10
151.6954033633121
 20
134.3807507121472
 30
0.0
 10
151.7310274395281
 20
134.3532613719619
 30
0.0
 10
151.757312469973
 20
134.3221419849627
 30
0.0
 10
151.772077039033
 20
134.2898442709873
 30
0.0
 10
151.7868345240689
 20
134.2575620534194
 30
0.0
 10
151.7904892850986
 20
134.223208085871
 30
0.0
 10
151.7827376212331
 20
134.1896110052418
 30
0.0
 10
151.7749898202142
 20
134.156030666872
 30
0.0
 10
151.7556341650836
 20
134.1222826328026
 30
0.0
 10
151.7262754596361
 20
134.0912553929117
 30
0.0
 10
151.6969091144362
 20
134.0602200790807
 30
0.0
 10
151.6567258510945
 20
134.0310580688499
 30
0.0
 10
151.6090490408974
 20
134.0063487599853
 30
0.0
 10
151.5613429946235
 20
133.981624299032
 30
0.0
 10
151.5048178432861
 20
133.9606846796821
 30
0.0
 10
151.4441504254775
 20
133.9454327355586
 30
0.0
 10
151.3834824086366
 20
133.9301806408368
 30
0.0
 10
151.3169970281167
 20
133.9202025763735
 30
0.0
 10
151.2502047896881
 20
133.9164211663883
 30
0.0
 10
151.1834532715979
 20
133.9126420617653
 30
0.0
 10
151.1145538802323
 20
133.9149496582016
 30
0.0
 10
151.0492150538055
 20
133.9231298565512
 30
0.0
 10
150.9838943532598
 20
133.9313077856022
 30
0.0
 10
150.9203315032965
 20
133.9455760591702
 30
0.0
 10
150.8637817539105
 20
133.9646244404319
 30
0.0
 10
150.8072044096718
 20
133.9836821168238
 30
0.0
 10
150.7560868622925
 20
134.0080419519426
 30
0.0
 10
150.7146548719159
 20
134.0355112991238
 30
0.0
 10
150.6732025074721
 20
134.0629941542809
 30
0.0
 10
150.6403019960297
 20
134.0943398615312
 30
0.0
 10
150.6186810231353
 20
134.1268029418908
 30
0.0
 10
150.5970659183345
 20
134.1592572115277
 30
0.0
 10
150.5861285111068
 20
134.1937188404145
 30
0.0
 10
150.5867776823234
 20
134.2272748960601
 30
0.0
 10
150.5874264573135
 20
134.2608104705166
 30
0.0
 10
150.5996651261161
 20
134.2943665683145
 30
0.0
 10
150.6224780004592
 20
134.3252274044872
 30
0.0
 10
150.6452909390614
 20
134.3560883275886
 30
0.0
 10
150.6793059068345
 20
134.3851102723116
 30
0.0
 10
150.7217081590655
 20
134.4100482820178
 30
0.0
 10
150.76413634331
 20
134.4350015431026
 30
0.0
 10
150.8161321611819
 20
134.4565624836639
 30
0.0
 10
150.8733954233619
 20
134.4731250893386
 30
0.0
 10
150.9306739716296
 20
134.4896921163025
 30
0.0
 10
150.9948042441587
 20
134.5017226610098
 30
0.0
 10
151.0604733004949
 20
134.5083422132778
 30
0.0
 10
151.1018541036601
 20
134.5125134684278
 30
0.0
 10
151.1444195175965
 20
134.5146296694001
 30
0.0
 10
151.1867496498119
 20
134.5146296694001
 30
0.0
  0
SPLINE
  5
9E
330
6B
100
AcDbEntity
  8
DV1_デフォルト
  6
CONTINUOUS
 62
     7
100
AcDbSpline
210
0.0
220
0.0
230
1.0
 70
    11
 71
     3
 72
    62
 73
    58
 74
     0
 42
0.0000000034243216
 43
0.0000000001
 40
0.0
 40
0.0
 40
0.0
 40
0.0
 40
0.053671193598924
 40
0.053671193598924
 40
0.053671193598924
 40
0.1073411686944106
 40
0.1073411686944106
 40
0.1073411686944106
 40
0.1610310247442968
 40
0.1610310247442968
 40
0.1610310247442968
 40
0.2147483627588473
 40
0.2147483627588473
 40
0.2147483627588473
 40
0.2684513588194405
 40
0.2684513588194405
 40
0.2684513588194405
 40
0.3221206022669211
 40
0.3221206022669211
 40
0.3221206022669211
 40
0.3757893342552865
 40
0.3757893342552865
 40
0.3757893342552865
 40
0.4294915724959747
 40
0.4294915724959747
 40
0.4294915724959747
 40
0.4832091157823235
 40
0.4832091157823235
 40
0.4832091157823235
 40
0.5368998140580209
 40
0.5368998140580209
 40
0.5368998140580209
 40
0.5905634129397989
 40
0.5905634129397989
 40
0.5905634129397989
 40
0.6442419518079459
 40
0.6442419518079459
 40
0.6442419518079459
 40
0.6979541426133155
 40
0.6979541426133155
 40
0.6979541426133155
 40
0.7516661971546481
 40
0.7516661971546481
 40
0.7516661971546481
 40
0.8053445595314678
 40
0.8053445595314678
 40
0.8053445595314678
 40
0.8590082633158094
 40
0.8590082633158094
 40
0.8590082633158094
 40
0.9126991578906349
 40
0.9126991578906349
 40
0.9126991578906349
 40
0.9664167229594745
 40
0.9664167229594745
 40
0.9664167229594745
 40
1.0
 40
1.0
 40
1.0
 40
1.0
 10
151.2502050940961
 20
106.2228620356714
 30
0.0
 10
151.1834633794482
 20
106.2195422702239
 30
0.0
 10
151.1145745558322
 20
106.2215568738536
 30
0.0
 10
151.0492445438379
 20
106.228760975746
 30
0.0
 10
150.9839153266218
 20
106.2359649899962
 30
0.0
 10
150.9203437113528
 20
106.2485604265362
 30
0.0
 10
150.8637868935473
 20
106.2656323658753
 30
0.0
 10
150.8072091812877
 20
106.2827106123029
 30
0.0
 10
150.7560911610838
 20
106.3047471255974
 30
0.0
 10
150.7146586331899
 20
106.3300981477677
 30
0.0
 10
150.6732057330769
 20
106.3554616349409
 30
0.0
 10
150.6403046054351
 20
106.3848514232273
 30
0.0
 10
150.6186829867748
 20
106.4159845375151
 30
0.0
 10
150.5970672369087
 20
106.4471092012865
 30
0.0
 10
150.5861291366454
 20
106.4808406771652
 30
0.0
 10
150.586777623231
 20
106.5144387137353
 30
0.0
 10
150.5874257140417
 20
106.5480162452402
 30
0.0
 10
150.5996636892747
 20
106.5823862657125
 30
0.0
 10
150.6224759173006
 20
106.614640670302
 30
0.0
 10
150.6452882114753
 20
106.6468951684196
 30
0.0
 10
150.6793025659861
 20
106.6779177199995
 30
0.0
 10
150.7217042869644
 20
106.7049910444621
 30
0.0
 10
150.7641319418347
 20
106.7320809276081
 30
0.0
 10
150.8161272988316
 20
106.7559554559347
 30
0.0
 10
150.8733902071423
 20
106.7744617395774
 30
0.0
 10
150.9306684000548
 20
106.7929729629128
 30
0.0
 10
150.9947984145201
 20
106.8066158183571
 30
0.0
 10
151.06046733101
 20
106.8141339811397
 30
0.0
 10
151.1261037440245
 20
106.8216484227338
 30
0.0
 10
151.1950887701385
 20
106.8232477507321
 30
0.0
 10
151.2617044169192
 20
106.8187834994675
 30
0.0
 10
151.328287785058
 20
106.8143214113579
 30
0.0
 10
151.3943397936074
 20
106.8036812076986
 30
0.0
 10
151.4543959655597
 20
106.7878443662496
 30
0.0
 10
151.5144691014723
 20
106.7720030513962
 30
0.0
 10
151.5701993184583
 20
106.7505327948926
 30
0.0
 10
151.6169811337832
 20
106.7253799327428
 30
0.0
 10
151.6637914178591
 20
106.7002117639923
 30
0.0
 10
151.7029334760452
 20
106.6706706155921
 30
0.0
 10
151.7311656352337
 20
106.639368333897
 30
0.0
 10
151.759397379581
 20
106.608066512155
 30
0.0
 10
151.7774978113641
 20
106.5741459880183
 30
0.0
 10
151.7839634016746
 20
106.5405090018069
 30
0.0
 10
151.7904250205485
 20
106.5068926768429
 30
0.0
 10
151.7854443114093
 20
106.4726338768213
 30
0.0
 10
151.7694349428845
 20
106.440545087493
 30
0.0
 10
151.7534296605274
 20
106.4084644883799
 30
0.0
 10
151.7259612198346
 20
106.3776643931668
 30
0.0
 10
151.6893044772663
 20
106.3505605188425
 30
0.0
 10
151.6526293493216
 20
106.3234430504317
 30
0.0
 10
151.6057459368544
 20
106.2992698596016
 30
0.0
 10
151.5525309256934
 20
106.2798607143584
 30
0.0
 10
151.4992905524972
 20
106.2604423188039
 30
0.0
 10
151.4382428182171
 20
106.245248636845
 30
0.0
 10
151.3744423022506
 20
106.2353908941814
 30
0.0
 10
151.3342083270206
 20
106.229174390002
 30
0.0
 10
151.2923297524398
 20
106.2249573367285
 30
0.0
 10
151.2502050940961
 20
106.2228620356714
 30
0.0
  0
ARC
  5
9F
330
6B
100
AcDbEntity
  8
DV1_デフォルト
  6
CONTINUOUS
 62
     7
100
AcDbCircle
 10
155.186683291
 20
152.2691096916
 30
0.0
 40
15.99715581253714
100
AcDbArc
 50
263.7203426047
 51
276.2806425711
  0
ARC
  5
A0
330
6B
100
AcDbEntity
  8
DV1_デフォルト
  6
CONTINUOUS
 62
     7
100
AcDbCircle
 10
151.1867222187
 20
152.3521895835
 30
0.0
 40
15.99954166768514
100
AcDbArc
 50
267.4927409499
 51
272.5076580799
  0
LINE
  5
A1
330
6B
100
AcDbEntity
  8
DV1_デフォルト
  6
CONTINUOUS
 62
     7
100
AcDbLine
 10
136.3867496498
 20
136.3679694223
 30
0.0
 11
136.1867496498
 21
136.1679694223
 31
0.0
  0
LINE
  5
A2
330
6B
100
AcDbEntity
  8
DV1_デフォルト
  6
CONTINUOUS
 62
     7
100
AcDbLine
 10
136.1867496498
 20
104.5679694223
 30
0.0
 11
136.3867496498
 21
104.3679694223
 31
0.0
  0
LINE
  5
A3
330
6B
100
AcDbEntity
  8
DV1_デフォルト
  6
CONTINUOUS
 62
     7
100
AcDbLine
 10
158.7867496498
 20
104.3679694223
 30
0.0
 11
158.9867496498
 21
104.5679694223
 31
0.0
  0
LINE
  5
A4
330
6B
100
AcDbEntity
  8
DV1_デフォルト
  6
CONTINUOUS
 62
     7
100
AcDbLine
 10
158.9867496498
 20
136.1679694223
 30
0.0
 11
158.7867496498
 21
136.3679694223
 31
0.0
  0
LINE
  5
A5
330
6B
100
AcDbEntity
  8
DV1_デフォルト
  6
CONTINUOUS
 62
     7
100
AcDbLine
 10
136.3867496498
 20
104.3679694223
 30
0.0
 11
158.7867496498
 21
104.3679694223
 31
0.0
  0
LINE
  5
A6
330
6B
100
AcDbEntity
  8
DV1_デフォルト
  6
CONTINUOUS
 62
     7
100
AcDbLine
 10
150.4957080859
 20
136.3679694223
 30
0.0
 11
136.3867496498
 21
136.3679694223
 31
0.0
  0
LINE
  5
A7
330
6B
100
AcDbEntity
  8
DV1_デフォルト
  6
CONTINUOUS
 62
     7
100
AcDbLine
 10
153.4424653444
 20
136.3679694223
 30
0.0
 11
151.8856767957
 21
136.3679694223
 31
0.0
  0
LINE
  5
A8
330
6B
100
AcDbEntity
  8
DV1_デフォルト
  6
CONTINUOUS
 62
     7
100
AcDbLine
 10
158.7867496498
 20
136.3679694223
 30
0.0
 11
156.9365481849
 21
136.3679694223
 31
0.0
  0
LINE
  5
A9
330
6B
100
AcDbEntity
  8
DV1_デフォルト
  6
CONTINUOUS
 62
     7
100
AcDbLine
 10
179.7173366679
 20
120.9248306103
 30
0.0
 11
178.8305119979
 21
120.0380059403
 31
0.0
  0
LINE
  5
AA
330
6B
100
AcDbEntity
  8
DV1_デフォルト
  6
CONTINUOUS
 62
     7
100
AcDbLine
 10
179.9388140216
 20
120.6937596241
 30
0.0
 11
179.0608342779
 21
119.8157798804
 31
0.0
  0
LINE
  5
AB
330
6B
100
AcDbEntity
  8
DV1_デフォルト
  6
CONTINUOUS
 62
     7
100
AcDbLine
 10
186.6867496498
 20
108.3679694223
 30
0.0
 11
186.6867496498
 21
132.3679694223
 31
0.0
  0
LINE
  5
AC
330
6B
100
AcDbEntity
  8
DV1_デフォルト
  6
CONTINUOUS
 62
     7
100
AcDbLine
 10
185.9867496498
 20
107.6679694223
 30
0.0
 11
185.9867496498
 21
133.0679694223
 31
0.0
  0
LINE
  5
AD
330
6B
100
AcDbEntity
  8
DV1_デフォルト
  6
CONTINUOUS
 62
     7
100
AcDbLine
 10
183.4867496498
 20
107.6679694223
 30
0.0
 11
183.4867496498
 21
133.0679694223
 31
0.0
  0
LINE
  5
AE
330
6B
100
AcDbEntity
  8
DV1_デフォルト
  6
CONTINUOUS
 62
     7
100
AcDbLine
 10
182.6867496498
 20
105.1179694223
 30
0.0
 11
182.6867496498
 21
135.6179694222
 31
0.0
  0
LINE
  5
AF
330
6B
100
AcDbEntity
  8
DV1_デフォルト
  6
CONTINUOUS
 62
     7
100
AcDbLine
 10
182.1867496498
 20
104.6179694223
 30
0.0
 11
182.1867496498
 21
136.1179694223
 31
0.0
  0
LINE
  5
B0
330
6B
100
AcDbEntity
  8
DV1_デフォルト
  6
CONTINUOUS
 62
     7
100
AcDbLine
 10
178.0867496498
 20
104.6179694223
 30
0.0
 11
178.0867496498
 21
136.1179694223
 31
0.0
  0
LINE
  5
B1
330
6B
100
AcDbEntity
  8
DV1_デフォルト
  6
CONTINUOUS
 62
     7
100
AcDbLine
 10
177.8867496498
 20
104.8179694223
 30
0.0
 11
177.8867496498
 21
135.9179694222
 31
0.0
  0
CIRCLE
  5
B2
330
6B
100
AcDbEntity
  8
DV1_デフォルト
  6
CONTINUOUS
 62
     7
100
AcDbCircle
 10
179.3867496498
 20
120.3679694223
 30
0.0
 40
0.65
  0
ARC
  5
B3
330
6B
100
AcDbEntity
  8
DV1_デフォルト
  6
CONTINUOUS
 62
     7
100
AcDbCircle
 10
179.3867261048
 20
151.8549067078
 30
0.0
 40
15.75035636863217
100
AcDbArc
 50
267.6350567552
 51
272.3652916455
  0
ARC
  5
B4
330
6B
100
AcDbEntity
  8
DV1_デフォルト
  6
CONTINUOUS
 62
     7
100
AcDbCircle
 10
179.3867261047
 20
88.8810321434
 30
0.0
 40
15.7503563618955
100
AcDbArc
 50
87.6347083535
 51
92.3649432458
  0
LINE
  5
B5
330
6B
100
AcDbEntity
  8
DV1_デフォルト
  6
CONTINUOUS
 62
     7
100
AcDbLine
 10
185.9867496498
 20
107.6679694223
 30
0.0
 11
186.6867496498
 21
108.3679694223
 31
0.0
  0
LINE
  5
B6
330
6B
100
AcDbEntity
  8
DV1_デフォルト
  6
CONTINUOUS
 62
     7
100
AcDbLine
 10
186.6867496498
 20
132.3679694223
 30
0.0
 11
185.9867496498
 21
133.0679694223
 31
0.0
  0
LINE
  5
B7
330
6B
100
AcDbEntity
  8
DV1_デフォルト
  6
CONTINUOUS
 62
     7
100
AcDbLine
 10
183.4867496498
 20
107.6679694223
 30
0.0
 11
185.9867496498
 21
107.6679694223
 31
0.0
  0
LINE
  5
B8
330
6B
100
AcDbEntity
  8
DV1_デフォルト
  6
CONTINUOUS
 62
     7
100
AcDbLine
 10
185.9867496498
 20
133.0679694223
 30
0.0
 11
183.4867496498
 21
133.0679694223
 31
0.0
  0
LINE
  5
B9
330
6B
100
AcDbEntity
  8
DV1_デフォルト
  6
CONTINUOUS
 62
     7
100
AcDbLine
 10
182.6867496498
 20
108.1679694223
 30
0.0
 11
183.4867496498
 21
108.1679694223
 31
0.0
  0
LINE
  5
BA
330
6B
100
AcDbEntity
  8
DV1_デフォルト
  6
CONTINUOUS
 62
     7
100
AcDbLine
 10
183.4867496498
 20
132.5679694223
 30
0.0
 11
182.6867496498
 21
132.5679694223
 31
0.0
  0
LINE
  5
BB
330
6B
100
AcDbEntity
  8
DV1_デフォルト
  6
CONTINUOUS
 62
     7
100
AcDbLine
 10
182.1867496498
 20
104.6179694223
 30
0.0
 11
182.6867496498
 21
105.1179694223
 31
0.0
  0
LINE
  5
BC
330
6B
100
AcDbEntity
  8
DV1_デフォルト
  6
CONTINUOUS
 62
     7
100
AcDbLine
 10
182.6867496498
 20
135.6179694222
 30
0.0
 11
182.1867496498
 21
136.1179694223
 31
0.0
  0
LINE
  5
BD
330
6B
100
AcDbEntity
  8
DV1_デフォルト
  6
CONTINUOUS
 62
     7
100
AcDbLine
 10
180.0367496463
 20
104.6179694223
 30
0.0
 11
182.1867496498
 21
104.6179694223
 31
0.0
  0
LINE
  5
BE
330
6B
100
AcDbEntity
  8
DV1_デフォルト
  6
CONTINUOUS
 62
     7
100
AcDbLine
 10
178.0867496498
 20
104.6179694223
 30
0.0
 11
178.7447130117
 21
104.6179694223
 31
0.0
  0
LINE
  5
BF
330
6B
100
AcDbEntity
  8
DV1_デフォルト
  6
CONTINUOUS
 62
     7
100
AcDbLine
 10
178.7447130103
 20
136.1179694223
 30
0.0
 11
178.0867496498
 21
136.1179694223
 31
0.0
  0
LINE
  5
C0
330
6B
100
AcDbEntity
  8
DV1_デフォルト
  6
CONTINUOUS
 62
     7
100
AcDbLine
 10
182.1867496498
 20
136.1179694223
 30
0.0
 11
180.0367496487
 21
136.1179694223
 31
0.0
  0
LINE
  5
C1
330
6B
100
AcDbEntity
  8
DV1_デフォルト
  6
CONTINUOUS
 62
     7
100
AcDbLine
 10
178.0867496498
 20
136.1179694223
 30
0.0
 11
177.8867496498
 21
135.9179694222
 31
0.0
  0
LINE
  5
C2
330
6B
100
AcDbEntity
  8
DV1_デフォルト
  6
CONTINUOUS
 62
     7
100
AcDbLine
 10
177.8867496498
 20
104.8179694223
 30
0.0
 11
178.0867496498
 21
104.6179694223
 31
0.0
  0
LINE
  5
C3
330
6B
100
AcDbEntity
  8
DV1_デフォルト
  6
CONTINUOUS
 62
     7
100
AcDbLine
 10
177.7867496498
 20
105.2679694223
 30
0.0
 11
177.8867496498
 21
105.2679694223
 31
0.0
  0
LINE
  5
C4
330
6B
100
AcDbEntity
  8
DV1_デフォルト
  6
CONTINUOUS
 62
     7
100
AcDbLine
 10
177.8867496498
 20
135.4679694223
 30
0.0
 11
177.7867496498
 21
135.4679694223
 31
0.0
  0
LINE
  5
C5
330
6B
100
AcDbEntity
  8
DV1_デフォルト
  6
CONTINUOUS
 62
     7
100
AcDbLine
 10
158.9867496498
 20
120.6179694223
 30
0.0
 11
164.6867496498
 21
120.6179694223
 31
0.0
  0
LINE
  5
C6
330
6B
100
AcDbEntity
  8
DV1_デフォルト
  6
CONTINUOUS
 62
     7
100
AcDbLine
 10
158.9867496498
 20
120.1179694223
 30
0.0
 11
164.6867496498
 21
120.1179694223
 31
0.0
  0
LINE
  5
C7
330
6B
100
AcDbEntity
  8
DV1_デフォルト
  6
CONTINUOUS
 62
     7
100
AcDbLine
 10
158.9867496498
 20
105.4679694223
 30
0.0
 11
164.6867496498
 21
105.4679694223
 31
0.0
  0
LINE
  5
C8
330
6B
100
AcDbEntity
  8
DV1_デフォルト
  6
CONTINUOUS
 62
     7
100
AcDbLine
 10
164.6867496498
 20
135.2679694223
 30
0.0
 11
158.9867496498
 21
135.2679694223
 31
0.0
  0
LINE
  5
C9
330
6B
100
AcDbEntity
  8
DV1_デフォルト
  6
CONTINUOUS
 62
     7
100
AcDbLine
 10
151.0267496498
 20
106.8069836895
 30
0.0
 11
151.0267496498
 21
106.2770356569
 31
0.0
  0
LINE
  5
CA
330
6B
100
AcDbEntity
  8
DV1_デフォルト
  6
CONTINUOUS
 62
     7
100
AcDbLine
 10
151.3467496498
 20
106.8051283817
 30
0.0
 11
151.3467496498
 21
106.2770356569
 31
0.0
  0
ELLIPSE
  5
CB
330
6B
100
AcDbEntity
  8
DV1_デフォルト
  6
CONTINUOUS
 62
     7
100
AcDbEllipse
 10
161.6867496498
 20
133.7480619107
 30
0.0
 11
-1.000000002384288
 21
1.157064035134973E-47
 31
0.0
210
0.0
220
0.0
230
1.0
 40
0.5
 41
6.23265219963961
 42
6.283185307179586
  0
ELLIPSE
  5
CC
330
6B
100
AcDbEntity
  8
DV1_デフォルト
  6
CONTINUOUS
 62
     7
100
AcDbEllipse
 10
161.6867496498
 20
133.7480619107
 30
0.0
 11
-1.000000002384288
 21
1.157064035134973E-47
 31
0.0
210
0.0
220
0.0
230
1.0
 40
0.5
 41
0.0
 42
3.192125761130332
  0
ELLIPSE
  5
CD
330
6B
100
AcDbEntity
  8
DV1_デフォルト
  6
CONTINUOUS
 62
     7
100
AcDbEllipse
 10
161.8122090819
 20
123.7108919412
 30
0.0
 11
6.327864492568605
 21
10.19402409077135
 31
0.0
210
0.0
220
0.0
230
0.9999999999999998
 40
0.6744432794
 41
0.6905940299057102
 42
0.7139514305423315
  0
ELLIPSE
  5
CE
330
6B
100
AcDbEntity
  8
DV1_デフォルト
  6
CONTINUOUS
 62
     7
100
AcDbEllipse
 10
162.1851688835
 20
123.9895048829
 30
0.0
 11
-4.476621138982287
 21
11.11531657451674
 31
0.0
210
0.0
220
0.0
230
1.0
 40
0.5432552479
 41
-0.6546346937476448
 42
-0.6212523015727491
  0
ELLIPSE
  5
CF
330
6B
100
AcDbEntity
  8
DV1_デフォルト
  6
CONTINUOUS
 62
     7
100
AcDbEllipse
 10
161.5612902315
 20
123.8666479677
 30
0.0
 11
6.327864495498078
 21
10.19402406461192
 31
0.0
210
0.0
220
0.0
230
0.9999999999999999
 40
0.6744432795
 41
0.690594031332327
 42
0.7139514319946837
  0
ARC
  5
D0
330
6B
100
AcDbEntity
  8
DV1_デフォルト
  6
CONTINUOUS
 62
     7
100
AcDbCircle
 10
161.744016033
 20
134.6475034327
 30
0.0
 40
0.2981958346504133
100
AcDbArc
 50
244.721036008
 51
289.1121971053
  0
ELLIPSE
  5
D1
330
6B
100
AcDbEntity
  8
DV1_デフォルト
  6
CONTINUOUS
 62
     7
100
AcDbEllipse
 10
161.8425056561
 20
123.8514993814
 30
0.0
 11
-4.482378818995838
 21
11.1296128585617
 31
0.0
210
0.0
220
0.0
230
0.9999999999999999
 40
0.5432552467
 41
-0.6079348212998452
 42
-0.584577420966566
  0
ELLIPSE
  5
D2
330
6B
100
AcDbEntity
  8
DV1_デフォルト
  6
CONTINUOUS
 62
     7
100
AcDbEllipse
 10
161.2852794701
 20
124.0379794085
 30
0.0
 11
6.31973623873692
 21
10.18092988447043
 31
0.0
210
0.0
220
0.0
230
0.9999999999999999
 40
0.6744432785
 41
0.7272688961905102
 42
0.760651288363171
  0
ELLIPSE
  5
D3
330
6B
100
AcDbEntity
  8
DV1_デフォルト
  6
CONTINUOUS
 62
     7
100
AcDbEllipse
 10
161.5309936494
 20
123.7260399522
 30
0.0
 11
-4.482378818839071
 21
11.12961286255182
 31
0.0
210
0.0
220
0.0
230
1.0
 40
0.5432552467
 41
-0.6079348211438429
 42
-0.5845774208148686
  0
SPLINE
  5
D4
330
6B
100
AcDbEntity
  8
DV1_デフォルト
  6
CONTINUOUS
 62
     7
100
AcDbSpline
210
0.0
220
0.0
230
1.0
 70
     8
 71
     3
 72
    20
 73
    16
 74
     0
 42
0.00000006392078
 43
0.0000000001
 40
0.0
 40
0.0
 40
0.0
 40
0.0
 40
0.2137915819336864
 40
0.2137915819336864
 40
0.2137915819336864
 40
0.4287078754073324
 40
0.4287078754073324
 40
0.4287078754073324
 40
0.643515028288448
 40
0.643515028288448
 40
0.643515028288448
 40
0.8582734605648061
 40
0.8582734605648061
 40
0.8582734605648061
 40
1.0
 40
1.0
 40
1.0
 40
1.0
 10
161.2809294183873
 20
134.1399174155407
 30
0.0
 10
161.2947948419964
 20
134.1459665622813
 30
0.0
 10
161.3069345771793
 20
134.1532094154425
 30
0.0
 10
161.316352109372
 20
134.161053276349
 30
0.0
 10
161.325819047183
 20
134.1689382871862
 30
0.0
 10
161.3327946641023
 20
134.1776478610079
 30
0.0
 10
161.336699443884
 20
134.1864602700854
 30
0.0
 10
161.3406022819917
 20
134.1952682971419
 30
0.0
 10
161.3415450094791
 20
134.2044220286277
 30
0.0
 10
161.3394498192001
 20
134.2131631362775
 30
0.0
 10
161.3373550754721
 20
134.2219023809218
 30
0.0
 10
161.3321661427458
 20
134.2304700973021
 30
0.0
 10
161.3243141617793
 20
134.2381576316628
 30
0.0
 10
161.3190911721274
 20
134.243271234534
 30
0.0
 10
161.312628778081
 20
134.2480790971701
 30
0.0
 10
161.3051666807501
 20
134.2524035870387
 30
0.0
  0
ELLIPSE
  5
D5
330
6B
100
AcDbEntity
  8
DV1_デフォルト
  6
CONTINUOUS
 62
     7
100
AcDbEllipse
 10
161.5612902162
 20
123.8666479763
 30
0.0
 11
6.327864504280938
 21
10.19402405514893
 31
0.0
210
0.0
220
0.0
230
1.0
 40
0.6744432784
 41
0.7739687753540716
 42
0.797326176033132
  0
ELLIPSE
  5
D6
330
6B
100
AcDbEntity
  8
DV1_デフォルト
  6
CONTINUOUS
 62
     7
100
AcDbEllipse
 10
161.1883304161
 20
123.5880347044
 30
0.0
 11
-4.476621139010996
 21
11.11531657318414
 31
0.0
210
0.0
220
0.0
230
1.0
 40
0.5432552479
 41
-0.6546346938032102
 42
-0.6212523016262894
  0
ELLIPSE
  5
D7
330
6B
100
AcDbEntity
  8
DV1_デフォルト
  6
CONTINUOUS
 62
     7
100
AcDbEllipse
 10
161.8122090676
 20
123.7108919729
 30
0.0
 11
6.327864504038217
 21
10.19402405522427
 31
0.0
210
0.0
220
0.0
230
1.0
 40
0.6744432785
 41
0.7739687753629498
 42
0.7973261760416158
  0
ARC
  5
D8
330
6B
100
AcDbEntity
  8
DV1_デフォルト
  6
CONTINUOUS
 62
     7
100
AcDbCircle
 10
161.6316632882
 20
133.7428726528
 30
0.0
 40
0.2611193279105679
100
AcDbArc
 50
61.3595985352
 51
112.4736345781
  0
ELLIPSE
  5
D9
330
6B
100
AcDbEntity
  8
DV1_デフォルト
  6
CONTINUOUS
 62
     7
100
AcDbEllipse
 10
161.5309936526
 20
123.7260402466
 30
0.0
 11
-4.482378832276406
 21
11.12961255607693
 31
0.0
210
0.0
220
0.0
230
1.0
 40
0.5432552487
 41
-0.6913095768182931
 42
-0.6679521761559881
  0
ELLIPSE
  5
DA
330
6B
100
AcDbEntity
  8
DV1_デフォルト
  6
CONTINUOUS
 62
     7
100
AcDbEllipse
 10
162.0882198296
 20
123.5395601723
 30
0.0
 11
6.319736238418604
 21
10.18092988735005
 31
0.0
210
0.0
220
0.0
230
1.0
 40
0.6744432785
 41
0.7272688960281359
 42
0.7606512881967993
  0
ELLIPSE
  5
DB
330
6B
100
AcDbEntity
  8
DV1_デフォルト
  6
CONTINUOUS
 62
     7
100
AcDbEllipse
 10
161.8425056584
 20
123.8514996572
 30
0.0
 11
-4.482378831200627
 21
11.12961257145914
 31
0.0
210
0.0
220
0.0
230
1.0
 40
0.5432552487
 41
-0.6913095761644259
 42
-0.6679521755192628
  0
SPLINE
  5
DC
330
6B
100
AcDbEntity
  8
DV1_デフォルト
  6
CONTINUOUS
 62
     7
100
AcDbSpline
210
0.0
220
0.0
230
1.0
 70
     8
 71
     3
 72
    20
 73
    16
 74
     0
 42
0.0000000636802409
 43
0.0000000001
 40
0.0
 40
0.0
 40
0.0
 40
0.0
 40
0.2137915819337176
 40
0.2137915819337176
 40
0.2137915819337176
 40
0.4287078754074082
 40
0.4287078754074082
 40
0.4287078754074082
 40
0.6435150282885326
 40
0.6435150282885326
 40
0.6435150282885326
 40
0.8582734605648848
 40
0.8582734605648848
 40
0.8582734605648848
 40
1.0
 40
1.0
 40
1.0
 40
1.0
 10
162.0925698812364
 20
134.209988377904
 30
0.0
 10
162.0787044576273
 20
134.2048649431705
 30
0.0
 10
162.0665647224445
 20
134.1984016171736
 30
0.0
 10
162.0571471902518
 20
134.1911271376092
 30
0.0
 10
162.0476802524408
 20
134.1838144951638
 30
0.0
 10
162.0407046355215
 20
134.1754806088607
 30
0.0
 10
162.0367998557397
 20
134.1668159989703
 30
0.0
 10
162.0328970176321
 20
134.158155697607
 30
0.0
 10
162.0319542901447
 20
134.1489261067022
 30
0.0
 10
162.0340494804237
 20
134.1398918535875
 30
0.0
 10
162.0361442241516
 20
134.1308595259568
 30
0.0
 10
162.041333156878
 20
134.121773465611
 30
0.0
 10
162.0491851378444
 20
134.1133852999316
 30
0.0
 10
162.0544081274964
 20
134.107805650321
 30
0.0
 10
162.0608705215428
 20
134.1024452531721
 30
0.0
 10
162.0683326188737
 20
134.0975022064059
 30
0.0
  0
LINE
  5
DD
330
6B
100
AcDbEntity
  8
DV1_デフォルト
  6
CONTINUOUS
 62
     7
100
AcDbLine
 10
161.4410354734
 20
134.476777715
 30
0.0
 11
161.4410354734
 21
134.3198088614
 31
0.0
  0
LINE
  5
DE
330
6B
100
AcDbEntity
  8
DV1_デフォルト
  6
CONTINUOUS
 62
     7
100
AcDbLine
 10
162.0597094581
 20
134.4434514771
 30
0.0
 11
162.0597094581
 21
134.2864826234
 31
0.0
  0
ELLIPSE
  5
DF
330
6B
100
AcDbEntity
  8
DV1_デフォルト
  6
CONTINUOUS
 62
     7
100
AcDbEllipse
 10
162.192978399
 20
133.9806004043
 30
0.0
 11
0.1600291457890569
 21
0.0
 31
0.0
210
0.0
220
0.0
230
1.0
 40
0.5
 41
3.141592653589793
 42
3.819488231696954
  0
LINE
  5
E0
330
6B
100
AcDbEntity
  8
DV1_デフォルト
  6
CONTINUOUS
 62
     7
100
AcDbLine
 10
162.0683326189
 20
133.9304188415
 30
0.0
 11
162.0891966466
 21
133.917467652
 31
0.0
  0
LINE
  5
E1
330
6B
100
AcDbEntity
  8
DV1_デフォルト
  6
CONTINUOUS
 62
     7
100
AcDbLine
 10
161.2175735039
 20
133.94731787
 30
0.0
 11
161.2809294184
 21
133.9728340506
 31
0.0
  0
ELLIPSE
  5
E2
330
6B
100
AcDbEntity
  8
DV1_デフォルト
  6
CONTINUOUS
 62
     7
100
AcDbEllipse
 10
161.1805209006
 20
134.0351386593
 30
0.0
 11
-0.1600291457890465
 21
-3.270746212837328E-32
 31
0.0
210
0.0
220
0.0
230
1.0
 40
0.5
 41
2.249056127749392
 42
3.141592653589793
  0
LINE
  5
E3
330
6B
100
AcDbEntity
  8
DV1_デフォルト
  6
CONTINUOUS
 62
     7
100
AcDbLine
 10
161.2922341045
 20
134.2598800823
 30
0.0
 11
161.4410354734
 21
134.3198088614
 31
0.0
  0
LINE
  5
E4
330
6B
100
AcDbEntity
  8
DV1_デフォルト
  6
CONTINUOUS
 62
     7
100
AcDbLine
 10
161.4410354734
 20
134.3198088614
 30
0.0
 11
161.6166786874
 21
134.2107796475
 31
0.0
  0
ELLIPSE
  5
E5
330
6B
100
AcDbEntity
  8
DV1_デフォルト
  6
CONTINUOUS
 62
     7
100
AcDbEllipse
 10
161.7412835753
 20
134.2609638131
 30
0.0
 11
-0.1600005623866793
 21
-1.734723475976807E-15
 31
0.0
210
0.0
220
0.0
230
1.0
 40
0.5
 41
0.678081204429301
 42
2.248870501427389
  0
LINE
  5
E6
330
6B
100
AcDbEntity
  8
DV1_デフォルト
  6
CONTINUOUS
 62
     7
100
AcDbLine
 10
161.8416510304
 20
134.1986610163
 30
0.0
 11
162.0597094581
 21
134.2864826234
 31
0.0
  0
LINE
  5
E7
330
6B
100
AcDbEntity
  8
DV1_デフォルト
  6
CONTINUOUS
 62
     7
100
AcDbLine
 10
162.0597094581
 20
134.2864826234
 30
0.0
 11
162.1494214037
 21
134.2307946029
 31
0.0
  0
LINE
  5
E8
330
6B
100
AcDbEntity
  8
DV1_デフォルト
  6
CONTINUOUS
 62
     7
100
AcDbLine
 10
162.6854731264
 20
133.7733177125
 30
0.0
 11
162.6599643804
 21
134.0254992081
 31
0.0
  0
LINE
  5
E9
330
6B
100
AcDbEntity
  8
DV1_デフォルト
  6
CONTINUOUS
 62
     7
100
AcDbLine
 10
160.7135349192
 20
134.0254992081
 30
0.0
 11
160.6880261732
 21
133.7733177125
 31
0.0
  0
SPLINE
  5
EA
330
6B
100
AcDbEntity
  8
DV1_デフォルト
  6
CONTINUOUS
 62
     7
100
AcDbSpline
210
0.0
220
0.0
230
1.0
 70
     8
 71
     3
 72
    25
 73
    21
 74
     0
 42
0.000000004189624
 43
0.0000000001
 40
0.0
 40
0.0
 40
0.0
 40
0.0
 40
0.0141347954274096
 40
0.0651753200000227
 40
0.1165806686288497
 40
0.1708371012624287
 40
0.2292520376727956
 40
0.2910091145514598
 40
0.3536643973423086
 40
0.4157860229987752
 40
0.4773635720194631
 40
0.5386860256393637
 40
0.6000996534001547
 40
0.6618630256054006
 40
0.7243909251319215
 40
0.788144651143288
 40
0.8534195875012546
 40
0.9094190907802133
 40
0.9615142790172612
 40
1.0
 40
1.0
 40
1.0
 40
1.0
 10
162.6566438465349
 20
134.0283162422265
 30
0.0
 10
162.6564828492815
 20
134.0391449806295
 30
0.0
 10
162.6556494997257
 20
134.0818780340346
 30
0.0
 10
162.6251038517672
 20
134.161577807313
 30
0.0
 10
162.5686844702754
 20
134.2538534989046
 30
0.0
 10
162.4867883420831
 20
134.3376302420624
 30
0.0
 10
162.3814852725089
 20
134.411873191406
 30
0.0
 10
162.2525771814982
 20
134.4748937987178
 30
0.0
 10
162.1046543970533
 20
134.5238371416852
 30
0.0
 10
161.9441248811573
 20
134.556982344776
 30
0.0
 10
161.7767800779124
 20
134.5738175360054
 30
0.0
 10
161.6072740438685
 20
134.5743204777798
 30
0.0
 10
161.4400736164272
 20
134.5585477699008
 30
0.0
 10
161.279435140758
 20
134.5265834749796
 30
0.0
 10
161.1292559842934
 20
134.4783196888924
 30
0.0
 10
160.9932485879935
 20
134.4132333972859
 30
0.0
 10
160.8814047258768
 20
134.3339655109703
 30
0.0
 10
160.797901327707
 20
134.2448582086694
 30
0.0
 10
160.7442460006962
 20
134.1544156840334
 30
0.0
 10
160.7281715702166
 20
134.0978813600739
 30
0.0
 10
160.7204770548026
 20
134.0694382703845
 30
0.0
  0
LINE
  5
EB
330
6B
100
AcDbEntity
  8
DV1_デフォルト
  6
CONTINUOUS
 62
     7
100
AcDbLine
 10
160.7204770548
 20
134.0694382704
 30
0.0
 11
160.7157485334
 21
134.0272200884
 31
0.0
  0
LINE
  5
EC
330
6B
100
AcDbEntity
  8
DV1_デフォルト
  6
CONTINUOUS
 62
     7
100
AcDbLine
 10
162.0329492533
 20
134.1538054851
 30
0.0
 11
162.0329492533
 21
133.9806004043
 31
0.0
  0
LINE
  5
ED
330
6B
100
AcDbEntity
  8
DV1_デフォルト
  6
CONTINUOUS
 62
     7
100
AcDbLine
 10
161.3405500464
 20
134.0351386593
 30
0.0
 11
161.3405500464
 21
134.2083437401
 31
0.0
  0
ELLIPSE
  5
EE
330
6B
100
AcDbEntity
  8
DV1_デフォルト
  6
CONTINUOUS
 62
     7
100
AcDbEllipse
 10
161.6867496498
 20
106.9878769338
 30
0.0
 11
1.000000002384284
 21
-1.734723475976807E-15
 31
0.0
210
0.0
220
0.0
230
1.0
 40
0.5
 41
6.232652199639118
 42
6.283185307179586
  0
ELLIPSE
  5
EF
330
6B
100
AcDbEntity
  8
DV1_デフォルト
  6
CONTINUOUS
 62
     7
100
AcDbEllipse
 10
161.6867496498
 20
106.9878769338
 30
0.0
 11
1.000000002384284
 21
-1.734723475976807E-15
 31
0.0
210
0.0
220
0.0
230
1.0
 40
0.5
 41
0.0
 42
3.1921257611297
  0
ELLIPSE
  5
F0
330
6B
100
AcDbEntity
  8
DV1_デフォルト
  6
CONTINUOUS
 62
     7
100
AcDbEllipse
 10
161.8122090819
 20
116.8692909054
 30
0.0
 11
-6.327864498562429
 21
-10.19402409718994
 31
0.0
210
0.0
220
0.0
230
1.0
 40
0.6744432784
 41
0.7739687729507597
 42
0.7973261735873207
  0
ELLIPSE
  5
F1
330
6B
100
AcDbEntity
  8
DV1_デフォルト
  6
CONTINUOUS
 62
     7
100
AcDbEllipse
 10
162.1851688835
 20
117.1479041413
 30
0.0
 11
4.476621138960561
 21
-11.11531657449119
 31
0.0
210
0.0
220
0.0
230
1.0
 40
0.5432552479
 41
-0.6546346937491068
 42
-0.6212523015742031
  0
ELLIPSE
  5
F2
330
6B
100
AcDbEntity
  8
DV1_デフォルト
  6
CONTINUOUS
 62
     7
100
AcDbEllipse
 10
161.5612902318
 20
117.0250468788
 30
0.0
 11
-6.327864502941196
 21
-10.19402406337902
 31
0.0
210
0.0
220
0.0
230
1.0
 40
0.6744432785
 41
0.7739687748956723
 42
0.7973261755660966
  0
ARC
  5
F3
330
6B
100
AcDbEntity
  8
DV1_デフォルト
  6
CONTINUOUS
 62
     7
100
AcDbCircle
 10
161.7418360115
 20
106.9930661917
 30
0.0
 40
0.2611193279105695
100
AcDbArc
 50
241.3595985352
 51
292.4736345781
  0
ELLIPSE
  5
F4
330
6B
100
AcDbEntity
  8
DV1_デフォルト
  6
CONTINUOUS
 62
     7
100
AcDbEllipse
 10
161.8425056564
 20
117.0098988921
 30
0.0
 11
4.482378814896847
 21
-11.12961286278138
 31
0.0
210
0.0
220
0.0
230
0.9999999999999999
 40
0.5432552471
 41
-0.6913095636834585
 42
-0.667952163358617
  0
ELLIPSE
  5
F5
330
6B
100
AcDbEntity
  8
DV1_デフォルト
  6
CONTINUOUS
 62
     7
100
AcDbEllipse
 10
161.2852794701
 20
117.1963786695
 30
0.0
 11
-6.319736238782973
 21
-10.1809298843103
 31
0.0
210
0.0
220
0.0
230
0.9999999999999999
 40
0.6744432785
 41
0.7272688961982824
 42
0.7606512883712364
  0
ELLIPSE
  5
F6
330
6B
100
AcDbEntity
  8
DV1_デフォルト
  6
CONTINUOUS
 62
     7
100
AcDbEllipse
 10
161.5309936493
 20
116.8844394593
 30
0.0
 11
4.48237881542526
 21
-11.12961285506925
 31
0.0
210
0.0
220
0.0
230
1.0
 40
0.5432552471
 41
-0.6913095640117781
 42
-0.6679521636783443
  0
SPLINE
  5
F7
330
6B
100
AcDbEntity
  8
DV1_デフォルト
  6
CONTINUOUS
 62
     7
100
AcDbSpline
210
0.0
220
0.0
230
1.0
 70
     8
 71
     3
 72
    20
 73
    16
 74
     0
 42
0.0000000636802409
 43
0.0000000001
 40
0.0
 40
0.0
 40
0.0
 40
0.0
 40
0.2137915819336864
 40
0.2137915819336864
 40
0.2137915819336864
 40
0.4287078754073324
 40
0.4287078754073324
 40
0.4287078754073324
 40
0.643515028288448
 40
0.643515028288448
 40
0.643515028288448
 40
0.8582734605648061
 40
0.8582734605648061
 40
0.8582734605648061
 40
1.0
 40
1.0
 40
1.0
 40
1.0
 10
161.2809294183873
 20
106.5259504665966
 30
0.0
 10
161.2947948419964
 20
106.5310739013301
 30
0.0
 10
161.3069345771793
 20
106.5375372273269
 30
0.0
 10
161.316352109372
 20
106.5448117068913
 30
0.0
 10
161.325819047183
 20
106.5521243493368
 30
0.0
 10
161.3327946641023
 20
106.5604582356399
 30
0.0
 10
161.336699443884
 20
106.5691228455302
 30
0.0
 10
161.3406022819917
 20
106.5777831468935
 30
0.0
 10
161.3415450094791
 20
106.5870127377983
 30
0.0
 10
161.3394498192001
 20
106.5960469909131
 30
0.0
 10
161.3373550754721
 20
106.6050793185438
 30
0.0
 10
161.3321661427458
 20
106.6141653788895
 30
0.0
 10
161.3243141617793
 20
106.622553544569
 30
0.0
 10
161.3190911721274
 20
106.6281331941796
 30
0.0
 10
161.312628778081
 20
106.6334935913285
 30
0.0
 10
161.3051666807501
 20
106.6384366380946
 30
0.0
  0
ELLIPSE
  5
F8
330
6B
100
AcDbEntity
  8
DV1_デフォルト
  6
CONTINUOUS
 62
     7
100
AcDbEllipse
 10
161.5612902162
 20
117.025046865
 30
0.0
 11
-6.327864496923852
 21
-10.19402404743144
 31
0.0
210
0.0
220
0.0
230
1.0
 40
0.6744432796
 41
0.6905940322764204
 42
0.7139514329554213
  0
ELLIPSE
  5
F9
330
6B
100
AcDbEntity
  8
DV1_デフォルト
  6
CONTINUOUS
 62
     7
100
AcDbEllipse
 10
161.1883304161
 20
116.7464339602
 30
0.0
 11
4.47662113903544
 21
-11.11531657313993
 31
0.0
210
0.0
220
0.0
230
1.0
 40
0.5432552479
 41
-0.6546346938047627
 42
-0.6212523016277327
  0
ELLIPSE
  5
FA
330
6B
100
AcDbEntity
  8
DV1_デフォルト
  6
CONTINUOUS
 62
     7
100
AcDbEllipse
 10
161.812209079
 20
116.8692911816
 30
0.0
 11
-6.327864460229223
 21
-10.19402440953162
 31
0.0
210
0.0
220
0.0
230
1.0
 40
0.6744432779
 41
0.6905940124746008
 42
0.7139514127991585
  0
ARC
  5
FB
330
6B
100
AcDbEntity
  8
DV1_デフォルト
  6
CONTINUOUS
 62
     7
100
AcDbCircle
 10
161.6294832667
 20
106.0884354118
 30
0.0
 40
0.2981958346504234
100
AcDbArc
 50
64.721036008
 51
109.1121971053
  0
ELLIPSE
  5
FC
330
6B
100
AcDbEntity
  8
DV1_デフォルト
  6
CONTINUOUS
 62
     7
100
AcDbEllipse
 10
161.5309936527
 20
116.8844391612
 30
0.0
 11
4.482378824800989
 21
-11.12961254521606
 31
0.0
210
0.0
220
0.0
230
1.0
 40
0.5432552496
 41
-0.6079348336497263
 42
-0.5845774329833269
  0
ELLIPSE
  5
FD
330
6B
100
AcDbEntity
  8
DV1_デフォルト
  6
CONTINUOUS
 62
     7
100
AcDbEllipse
 10
162.0882198296
 20
116.6979594358
 30
0.0
 11
-6.319736238758136
 21
-10.18092988428369
 31
0.0
210
0.0
220
0.0
230
1.0
 40
0.6744432785
 41
0.7272688962009
 42
0.7606512883738351
  0
ELLIPSE
  5
FE
330
6B
100
AcDbEntity
  8
DV1_デフォルト
  6
CONTINUOUS
 62
     7
100
AcDbEllipse
 10
161.8425056584
 20
117.0098986059
 30
0.0
 11
4.482378824701454
 21
-11.12961256522919
 31
0.0
210
0.0
220
0.0
230
1.0
 40
0.5432552494
 41
-0.6079348328609759
 42
-0.5845774322156556
  0
SPLINE
  5
FF
330
6B
100
AcDbEntity
  8
DV1_デフォルト
  6
CONTINUOUS
 62
     7
100
AcDbSpline
210
0.0
220
0.0
230
1.0
 70
     8
 71
     3
 72
    20
 73
    16
 74
     0
 42
0.00000006392078
 43
0.0000000001
 40
0.0
 40
0.0
 40
0.0
 40
0.0
 40
0.2137915819337176
 40
0.2137915819337176
 40
0.2137915819337176
 40
0.4287078754074082
 40
0.4287078754074082
 40
0.4287078754074082
 40
0.6435150282885326
 40
0.6435150282885326
 40
0.6435150282885326
 40
0.8582734605648848
 40
0.8582734605648848
 40
0.8582734605648848
 40
1.0
 40
1.0
 40
1.0
 40
1.0
 10
162.0925698812364
 20
106.5960214289599
 30
0.0
 10
162.0787044576273
 20
106.5899722822192
 30
0.0
 10
162.0665647224445
 20
106.5827294290581
 30
0.0
 10
162.0571471902518
 20
106.5748855681516
 30
0.0
 10
162.0476802524408
 20
106.5670005573143
 30
0.0
 10
162.0407046355215
 20
106.5582909834927
 30
0.0
 10
162.0367998557397
 20
106.5494785744152
 30
0.0
 10
162.0328970176321
 20
106.5406705473587
 30
0.0
 10
162.0319542901447
 20
106.5315168158729
 30
0.0
 10
162.0340494804237
 20
106.5227757082231
 30
0.0
 10
162.0361442241516
 20
106.5140364635787
 30
0.0
 10
162.041333156878
 20
106.5054687471985
 30
0.0
 10
162.0491851378444
 20
106.4977812128378
 30
0.0
 10
162.0544081274964
 20
106.4926676099666
 30
0.0
 10
162.0608705215428
 20
106.4878597473305
 30
0.0
 10
162.0683326188737
 20
106.4835352574618
 30
0.0
  0
LINE
  5
100
330
6B
100
AcDbEntity
  8
DV1_デフォルト
  6
CONTINUOUS
 62
     7
100
AcDbLine
 10
161.9324638262
 20
106.2591611295
 30
0.0
 11
161.9324638262
 21
106.4161299831
 31
0.0
  0
LINE
  5
101
330
6B
100
AcDbEntity
  8
DV1_デフォルト
  6
CONTINUOUS
 62
     7
100
AcDbLine
 10
161.3137898415
 20
106.2924873674
 30
0.0
 11
161.3137898415
 21
106.4494562211
 31
0.0
  0
ELLIPSE
  5
102
330
6B
100
AcDbEntity
  8
DV1_デフォルト
  6
CONTINUOUS
 62
     7
100
AcDbEllipse
 10
162.192978399
 20
106.7008001852
 30
0.0
 11
0.1600291457890569
 21
-5.204170427930421E-15
 31
0.0
210
0.0
220
0.0
230
1.0
 40
0.5
 41
2.249056127749584
 42
3.141592653589793
  0
LINE
  5
103
330
6B
100
AcDbEntity
  8
DV1_デフォルト
  6
CONTINUOUS
 62
     7
100
AcDbLine
 10
162.0812651951
 20
106.4760587622
 30
0.0
 11
161.9324638262
 21
106.4161299831
 31
0.0
  0
LINE
  5
104
330
6B
100
AcDbEntity
  8
DV1_デフォルト
  6
CONTINUOUS
 62
     7
100
AcDbLine
 10
161.9324638262
 20
106.4161299831
 30
0.0
 11
161.7568206122
 21
106.525159197
 31
0.0
  0
ELLIPSE
  5
105
330
6B
100
AcDbEntity
  8
DV1_デフォルト
  6
CONTINUOUS
 62
     7
100
AcDbEllipse
 10
161.6322157243
 20
106.4749750314
 30
0.0
 11
0.1600005623866897
 21
0.0
 31
0.0
210
0.0
220
0.0
230
1.0
 40
0.5
 41
0.6780812044293871
 42
2.248870501427342
  0
LINE
  5
106
330
6B
100
AcDbEntity
  8
DV1_デフォルト
  6
CONTINUOUS
 62
     7
100
AcDbLine
 10
161.5318482692
 20
106.5372778282
 30
0.0
 11
161.3137898415
 21
106.4494562211
 31
0.0
  0
LINE
  5
107
330
6B
100
AcDbEntity
  8
DV1_デフォルト
  6
CONTINUOUS
 62
     7
100
AcDbLine
 10
161.3137898415
 20
106.4494562211
 30
0.0
 11
161.2240778959
 21
106.5051442416
 31
0.0
  0
ELLIPSE
  5
108
330
6B
100
AcDbEntity
  8
DV1_デフォルト
  6
CONTINUOUS
 62
     7
100
AcDbEllipse
 10
161.1805209006
 20
106.7553384402
 30
0.0
 11
-0.160029145789043
 21
-1.734723475976807E-15
 31
0.0
210
0.0
220
0.0
230
1.0
 40
0.5
 41
3.141592653589771
 42
3.819488231697124
  0
LINE
  5
109
330
6B
100
AcDbEntity
  8
DV1_デフォルト
  6
CONTINUOUS
 62
     7
100
AcDbLine
 10
161.3051666808
 20
106.805520003
 30
0.0
 11
161.284302653
 21
106.8184711925
 31
0.0
  0
LINE
  5
10A
330
6B
100
AcDbEntity
  8
DV1_デフォルト
  6
CONTINUOUS
 62
     7
100
AcDbLine
 10
162.1559257957
 20
106.7886209745
 30
0.0
 11
162.0925698812
 21
106.7631047939
 31
0.0
  0
LINE
  5
10B
330
6B
100
AcDbEntity
  8
DV1_デフォルト
  6
CONTINUOUS
 62
     7
100
AcDbLine
 10
160.6880261732
 20
106.962621132
 30
0.0
 11
160.7135349192
 21
106.7104396364
 31
0.0
  0
LINE
  5
10C
330
6B
100
AcDbEntity
  8
DV1_デフォルト
  6
CONTINUOUS
 62
     7
100
AcDbLine
 10
162.6599643804
 20
106.7104396364
 30
0.0
 11
162.6854731264
 21
106.962621132
 31
0.0
  0
SPLINE
  5
10D
330
6B
100
AcDbEntity
  8
DV1_デフォルト
  6
CONTINUOUS
 62
     7
100
AcDbSpline
210
0.0
220
0.0
230
1.0
 70
     8
 71
     3
 72
    25
 73
    21
 74
     0
 42
0.0000000041237907
 43
0.0000000001
 40
0.0
 40
0.0
 40
0.0
 40
0.0
 40
0.0302378765205911
 40
0.0801853245377016
 40
0.1312859021365253
 40
0.185730956134021
 40
0.2442657040425469
 40
0.3054669011310367
 40
0.3668902487596047
 40
0.4277250143149088
 40
0.4880964551275829
 40
0.5483156711033699
 40
0.6086989820284864
 40
0.6695384773548102
 40
0.7312614121348493
 40
0.7943127275281144
 40
0.8522035182988305
 40
0.90628639904969
 40
0.9567779935767086
 40
1.0
 40
1.0
 40
1.0
 40
1.0
 10
160.7170681806223
 20
106.7107257203966
 30
0.0
 10
160.7189084341749
 20
106.6871812224235
 30
0.0
 10
160.7235998368305
 20
106.6341460283113
 30
0.0
 10
160.7626645329505
 20
106.5458110819012
 30
0.0
 10
160.8266733983194
 20
106.4563338120016
 30
0.0
 10
160.915399553036
 20
106.3752535953807
 30
0.0
 10
161.0279530877769
 20
106.3040558071178
 30
0.0
 10
161.1631140945428
 20
106.2449433757288
 30
0.0
 10
161.315479947347
 20
106.200572277636
 30
0.0
 10
161.4785513164531
 20
106.1722537626694
 30
0.0
 10
161.647005029032
 20
106.1602694048905
 30
0.0
 10
161.8162754484044
 20
106.1646048835685
 30
0.0
 10
161.9819517687743
 20
106.1851872693407
 30
0.0
 10
162.1398675240455
 20
106.2219559252328
 30
0.0
 10
162.2862435621438
 20
106.2751322147062
 30
0.0
 10
162.4127472218387
 20
106.3430150221496
 30
0.0
 10
162.515172046975
 20
106.4234141076522
 30
0.0
 10
162.5902110758998
 20
106.5117281254064
 30
0.0
 10
162.6408064574685
 20
106.6071041173099
 30
0.0
 10
162.6520041185262
 20
106.6680638041647
 30
0.0
 10
162.6576394868431
 20
106.7013366448872
 30
0.0
  0
LINE
  5
10E
330
6B
100
AcDbEntity
  8
DV1_デフォルト
  6
CONTINUOUS
 62
     7
100
AcDbLine
 10
162.0329492533
 20
106.7008001852
 30
0.0
 11
162.0329492533
 21
106.5275951044
 31
0.0
  0
LINE
  5
10F
330
6B
100
AcDbEntity
  8
DV1_デフォルト
  6
CONTINUOUS
 62
     7
100
AcDbLine
 10
161.3405500464
 20
106.5821333594
 30
0.0
 11
161.3405500464
 21
106.7553384402
 31
0.0
  0
LINE
  5
110
330
6B
100
AcDbEntity
  8
DV1_デフォルト
  6
CONTINUOUS
 62
     7
100
AcDbLine
 10
164.6867496498
 20
104.5679694223
 30
0.0
 11
164.6867496498
 21
136.1679694223
 31
0.0
  0
LINE
  5
111
330
6B
100
AcDbEntity
  8
DV1_デフォルト
  6
CONTINUOUS
 62
     7
100
AcDbLine
 10
164.8867496498
 20
104.3679694223
 30
0.0
 11
164.8867496498
 21
136.3679694223
 31
0.0
  0
LINE
  5
112
330
6B
100
AcDbEntity
  8
DV1_デフォルト
  6
CONTINUOUS
 62
     7
100
AcDbLine
 10
177.5867496498
 20
104.3679694223
 30
0.0
 11
177.5867496498
 21
136.3679694223
 31
0.0
  0
LINE
  5
113
330
6B
100
AcDbEntity
  8
DV1_デフォルト
  6
CONTINUOUS
 62
     7
100
AcDbLine
 10
177.7867496498
 20
104.5679694223
 30
0.0
 11
177.7867496498
 21
136.1679694222
 31
0.0
  0
LINE
  5
114
330
6B
100
AcDbEntity
  8
DV1_デフォルト
  6
CONTINUOUS
 62
     7
100
AcDbLine
 10
164.8867496498
 20
136.3679694223
 30
0.0
 11
164.6867496498
 21
136.1679694223
 31
0.0
  0
LINE
  5
115
330
6B
100
AcDbEntity
  8
DV1_デフォルト
  6
CONTINUOUS
 62
     7
100
AcDbLine
 10
164.6867496498
 20
104.5679694223
 30
0.0
 11
164.8867496498
 21
104.3679694223
 31
0.0
  0
LINE
  5
116
330
6B
100
AcDbEntity
  8
DV1_デフォルト
  6
CONTINUOUS
 62
     7
100
AcDbLine
 10
164.8867496498
 20
104.3679694223
 30
0.0
 11
177.5867496498
 21
104.3679694223
 31
0.0
  0
LINE
  5
117
330
6B
100
AcDbEntity
  8
DV1_デフォルト
  6
CONTINUOUS
 62
     7
100
AcDbLine
 10
177.5867496498
 20
136.3679694223
 30
0.0
 11
164.8867496498
 21
136.3679694223
 31
0.0
  0
LINE
  5
118
330
6B
100
AcDbEntity
  8
DV1_デフォルト
  6
CONTINUOUS
 62
     7
100
AcDbLine
 10
177.5867496498
 20
104.3679694223
 30
0.0
 11
177.7867496498
 21
104.5679694223
 31
0.0
  0
LINE
  5
119
330
6B
100
AcDbEntity
  8
DV1_デフォルト
  6
CONTINUOUS
 62
     7
100
AcDbLine
 10
177.7867496498
 20
136.1679694222
 30
0.0
 11
177.5867496498
 21
136.3679694223
 31
0.0
  0
LINE
  5
11C
330
6B
100
AcDbEntity
  8
DV1_ﾃ_ﾌｫﾙﾄ
  6
CENTER2
 62
     7
100
AcDbLine
 10
135.7060149422
 20
120.3679694223
 30
0.0
 11
187.0751476947
 21
120.3679694223
 31
0.0
  0
LINE
  5
11D
330
6B
100
AcDbEntity
  8
DV1_ﾃ_ﾌｫﾙﾄ
  6
CENTER2
 62
     7
100
AcDbLine
 10
183.4867496498
 20
132.5679694223
 30
0.0
 11
186.4867496498
 21
132.5679694223
 31
0.0
  0
LINE
  5
11E
330
6B
100
AcDbEntity
  8
DV1_ﾃ_ﾌｫﾙﾄ
  6
CENTER2
 62
     7
100
AcDbLine
 10
183.4867496498
 20
108.1679694223
 30
0.0
 11
186.4867496498
 21
108.1679694223
 31
0.0
  0
LINE
  5
11F
330
6B
100
AcDbEntity
  8
DV1_ﾃ_ﾌｫﾙﾄ
  6
CENTER2
 62
     7
100
AcDbLine
 10
136.1867496498
 20
135.6179694223
 30
0.0
 11
137.1867496498
 21
135.6179694223
 31
0.0
  0
LINE
  5
120
330
6B
100
AcDbEntity
  8
DV1_ﾃ_ﾌｫﾙﾄ
  6
CENTER2
 62
     7
100
AcDbLine
 10
136.1867496498
 20
105.1179694223
 30
0.0
 11
137.1867496498
 21
105.1179694223
 31
0.0
  0
ENDBLK
  5
122
330
6B
100
AcDbEntity
  8
0
100
AcDbBlockEnd
  0
BLOCK
  5
12B
330
123
100
AcDbEntity
  8
0
100
AcDbBlockBegin
  2
GDIMGGROUP1
 70
     0
 10
0.0
 20
0.0
 30
0.0
  3
GDIMGGROUP1
  1

  0
POLYLINE
  5
125
330
123
100
AcDbEntity
  8
DEFAULT
  6
CONTINUOUS
 62
   136
100
AcDb2dPolyline
 66
     1
 10
0.0
 20
0.0
 30
0.0
  0
VERTEX
  5
151
330
125
100
AcDbEntity
  8
DEFAULT
  6
CONTINUOUS
 62
   136
100
AcDbVertex
100
AcDb2dVertex
 10
179.4867497307
 20
92.0567927084
 30
0.0
  0
VERTEX
  5
152
330
125
100
AcDbEntity
  8
DEFAULT
  6
CONTINUOUS
 62
   136
100
AcDbVertex
100
AcDb2dVertex
 10
182.6867496498
 20
91.5234593885
 30
0.0
  0
VERTEX
  5
153
330
125
100
AcDbEntity
  8
DEFAULT
  6
CONTINUOUS
 62
   136
100
AcDbVertex
100
AcDb2dVertex
 10
179.4867497307
 20
90.9901260687
 30
0.0
  0
SEQEND
  5
154
330
125
100
AcDbEntity
  8
DEFAULT
  6
CONTINUOUS
 62
   136
  0
POLYLINE
  5
126
330
123
100
AcDbEntity
  8
DEFAULT
  6
CONTINUOUS
 62
   136
100
AcDb2dPolyline
 66
     1
 10
0.0
 20
0.0
 30
0.0
  0
VERTEX
  5
155
330
126
100
AcDbEntity
  8
DEFAULT
  6
CONTINUOUS
 62
   136
100
AcDbVertex
100
AcDb2dVertex
 10
139.3867484663
 20
92.0567927084
 30
0.0
  0
VERTEX
  5
156
330
126
100
AcDbEntity
  8
DEFAULT
  6
CONTINUOUS
 62
   136
100
AcDbVertex
100
AcDb2dVertex
 10
136.1867485471
 20
91.5234593885
 30
0.0
  0
VERTEX
  5
157
330
126
100
AcDbEntity
  8
DEFAULT
  6
CONTINUOUS
 62
   136
100
AcDbVertex
100
AcDb2dVertex
 10
139.3867484663
 20
90.9901260687
 30
0.0
  0
SEQEND
  5
158
330
126
100
AcDbEntity
  8
DEFAULT
  6
CONTINUOUS
 62
   136
  0
LINE
  5
127
330
123
100
AcDbEntity
  8
DEFAULT
  6
CONTINUOUS
 62
   136
100
AcDbLine
 10
182.6867496498
 20
103.8379694546
 30
0.0
 11
182.6867496498
 21
89.9234594289
 31
0.0
  0
LINE
  5
128
330
123
100
AcDbEntity
  8
DEFAULT
  6
CONTINUOUS
 62
   136
100
AcDbLine
 10
136.1867496498
 20
103.2879694546
 30
0.0
 11
136.1867496498
 21
89.9234594289
 31
0.0
  0
LINE
  5
129
330
123
100
AcDbEntity
  8
DEFAULT
  6
CONTINUOUS
 62
   136
100
AcDbLine
 10
182.6867496498
 20
91.5234593885
 30
0.0
 11
136.1867485471
 21
91.5234593885
 31
0.0
  0
TEXT
  5
12A
330
123
100
AcDbEntity
  8
DEFAULT
  6
CONTINUOUS
 62
   136
100
AcDbText
 10
155.4367490985
 20
92.3234593885
 30
0.0
 40
3.2
  1
46.5
  7
SEACAD_SEANSI_TTF
 11
155.4367490985
 21
95.5234593885
 31
0.0
100
AcDbText
 73
     3
  0
ENDBLK
  5
12C
330
123
100
AcDbEntity
  8
0
100
AcDbBlockEnd
  0
BLOCK
  5
135
330
12D
100
AcDbEntity
  8
0
100
AcDbBlockBegin
  2
GDIMGGROUP2
 70
     0
 10
0.0
 20
0.0
 30
0.0
  3
GDIMGGROUP2
  1

  0
POLYLINE
  5
12F
330
12D
100
AcDbEntity
  8
DEFAULT
  6
CONTINUOUS
 62
   136
100
AcDb2dPolyline
 66
     1
 10
0.0
 20
0.0
 30
0.0
  0
VERTEX
  5
159
330
12F
100
AcDbEntity
  8
DEFAULT
  6
CONTINUOUS
 62
   136
100
AcDbVertex
100
AcDb2dVertex
 10
179.4867497307
 20
92.0567927084
 30
0.0
  0
VERTEX
  5
15A
330
12F
100
AcDbEntity
  8
DEFAULT
  6
CONTINUOUS
 62
   136
100
AcDbVertex
100
AcDb2dVertex
 10
182.6867496498
 20
91.5234593885
 30
0.0
  0
VERTEX
  5
15B
330
12F
100
AcDbEntity
  8
DEFAULT
  6
CONTINUOUS
 62
   136
100
AcDbVertex
100
AcDb2dVertex
 10
179.4867497307
 20
90.9901260687
 30
0.0
  0
SEQEND
  5
15C
330
12F
100
AcDbEntity
  8
DEFAULT
  6
CONTINUOUS
 62
   136
  0
POLYLINE
  5
130
330
12D
100
AcDbEntity
  8
DEFAULT
  6
CONTINUOUS
 62
   136
100
AcDb2dPolyline
 66
     1
 10
0.0
 20
0.0
 30
0.0
  0
VERTEX
  5
15D
330
130
100
AcDbEntity
  8
DEFAULT
  6
CONTINUOUS
 62
   136
100
AcDbVertex
100
AcDb2dVertex
 10
189.886749569
 20
92.0567927084
 30
0.0
  0
VERTEX
  5
15E
330
130
100
AcDbEntity
  8
DEFAULT
  6
CONTINUOUS
 62
   136
100
AcDbVertex
100
AcDb2dVertex
 10
186.6867496498
 20
91.5234593885
 30
0.0
  0
VERTEX
  5
15F
330
130
100
AcDbEntity
  8
DEFAULT
  6
CONTINUOUS
 62
   136
100
AcDbVertex
100
AcDb2dVertex
 10
189.886749569
 20
90.9901260687
 30
0.0
  0
SEQEND
  5
160
330
130
100
AcDbEntity
  8
DEFAULT
  6
CONTINUOUS
 62
   136
  0
LINE
  5
131
330
12D
100
AcDbEntity
  8
DEFAULT
  6
CONTINUOUS
 62
   136
100
AcDbLine
 10
182.6867496498
 20
103.8379694546
 30
0.0
 11
182.6867496498
 21
89.9234594289
 31
0.0
  0
LINE
  5
132
330
12D
100
AcDbEntity
  8
DEFAULT
  6
CONTINUOUS
 62
   136
100
AcDbLine
 10
186.6867496498
 20
107.0879694546
 30
0.0
 11
186.6867496498
 21
89.9234594289
 31
0.0
  0
LINE
  5
133
330
12D
100
AcDbEntity
  8
DEFAULT
  6
CONTINUOUS
 62
   136
100
AcDbLine
 10
176.2867498115
 20
91.5234593885
 30
0.0
 11
193.0867496781
 21
91.5234593885
 31
0.0
  0
TEXT
  5
134
330
12D
100
AcDbEntity
  8
DEFAULT
  6
CONTINUOUS
 62
   136
100
AcDbText
 10
183.5160180375
 20
92.3234593885
 30
0.0
 40
3.2
  1
4
  7
SEACAD_SEANSI_TTF
 11
183.5160180375
 21
95.5234593885
 31
0.0
100
AcDbText
 73
     3
  0
ENDBLK
  5
136
330
12D
100
AcDbEntity
  8
0
100
AcDbBlockEnd
  0
BLOCK
  5
141
330
137
100
AcDbEntity
  8
0
100
AcDbBlockBegin
  2
GDIMGGROUP3
 70
     0
 10
0.0
 20
0.0
 30
0.0
  3
GDIMGGROUP3
  1

  0
POLYLINE
  5
139
330
137
100
AcDbEntity
  8
DEFAULT
  6
CONTINUOUS
 62
   136
100
AcDb2dPolyline
 66
     1
 10
0.0
 20
0.0
 30
0.0
  0
VERTEX
  5
161
330
139
100
AcDbEntity
  8
DEFAULT
  6
CONTINUOUS
 62
   136
100
AcDbVertex
100
AcDb2dVertex
 10
127.7713452143
 20
132.4179695031
 30
0.0
  0
VERTEX
  5
162
330
139
100
AcDbEntity
  8
DEFAULT
  6
CONTINUOUS
 62
   136
100
AcDbVertex
100
AcDb2dVertex
 10
127.2380118944
 20
135.6179694223
 30
0.0
  0
VERTEX
  5
163
330
139
100
AcDbEntity
  8
DEFAULT
  6
CONTINUOUS
 62
   136
100
AcDbVertex
100
AcDb2dVertex
 10
126.7046785745
 20
132.4179695031
 30
0.0
  0
SEQEND
  5
164
330
139
100
AcDbEntity
  8
DEFAULT
  6
CONTINUOUS
 62
   136
  0
POLYLINE
  5
13A
330
137
100
AcDbEntity
  8
DEFAULT
  6
CONTINUOUS
 62
   136
100
AcDb2dPolyline
 66
     1
 10
0.0
 20
0.0
 30
0.0
  0
VERTEX
  5
165
330
13A
100
AcDbEntity
  8
DEFAULT
  6
CONTINUOUS
 62
   136
100
AcDbVertex
100
AcDb2dVertex
 10
127.7713452143
 20
108.3179689987
 30
0.0
  0
VERTEX
  5
166
330
13A
100
AcDbEntity
  8
DEFAULT
  6
CONTINUOUS
 62
   136
100
AcDbVertex
100
AcDb2dVertex
 10
127.2380118944
 20
105.1179690795
 30
0.0
  0
VERTEX
  5
167
330
13A
100
AcDbEntity
  8
DEFAULT
  6
CONTINUOUS
 62
   136
100
AcDbVertex
100
AcDb2dVertex
 10
126.7046785745
 20
108.3179689987
 30
0.0
  0
SEQEND
  5
168
330
13A
100
AcDbEntity
  8
DEFAULT
  6
CONTINUOUS
 62
   136
  0
LINE
  5
13B
330
137
100
AcDbEntity
  8
DEFAULT
  6
CONTINUOUS
 62
   136
100
AcDbLine
 10
134.9067496821
 20
135.6179694223
 30
0.0
 11
125.6380119348
 21
135.6179694223
 31
0.0
  0
LINE
  5
13C
330
137
100
AcDbEntity
  8
DEFAULT
  6
CONTINUOUS
 62
   136
100
AcDbLine
 10
134.9067496821
 20
105.1179694223
 30
0.0
 11
125.6380119348
 21
105.1179694223
 31
0.0
  0
LINE
  5
13D
330
137
100
AcDbEntity
  8
DEFAULT
  6
CONTINUOUS
 62
   136
100
AcDbLine
 10
127.2380118944
 20
135.6179694223
 30
0.0
 11
127.2380118944
 21
105.1179690795
 31
0.0
  0
TEXT
  5
13E
330
137
100
AcDbEntity
  8
DEFAULT
  6
CONTINUOUS
 62
   136
100
AcDbText
 10
126.4380118944
 20
108.077066384
 30
0.0
 40
3.2
  1
O
 50
90.0
  7
SEACAD_SEMECA1_TTF
 11
123.2380118944
 21
108.077066384
 31
0.0
100
AcDbText
 73
     3
  0
TEXT
  5
13F
330
137
100
AcDbEntity
  8
DEFAULT
  6
CONTINUOUS
 62
   136
100
AcDbText
 10
126.4380118944
 20
112.046189191
 30
0.0
 40
3.2
  1
30.5
 50
90.0
  7
SEACAD_SEANSI_TTF
 11
123.2380118944
 21
112.046189191
 31
0.0
100
AcDbText
 73
     3
  0
TEXT
  5
140
330
137
100
AcDbEntity
  8
DEFAULT
  6
CONTINUOUS
 62
   136
100
AcDbText
 10
126.4380118944
 20
120.366189191
 30
0.0
 40
3.2
  1
 P=0.5
 50
90.0
  7
SEACAD_SEANSI_TTF
 11
123.2380118944
 21
120.366189191
 31
0.0
100
AcDbText
 73
     3
  0
ENDBLK
  5
142
330
137
100
AcDbEntity
  8
0
100
AcDbBlockEnd
  0
ENDSEC
  0
SECTION
  2
ENTITIES
  0
INSERT
  5
3D
330
1F
100
AcDbEntity
  8
DEFAULT
100
AcDbBlockReference
  2
GDIMGGROUP
 10
0.0
 20
0.0
 30
0.0
  0
INSERT
  5
6C
330
1F
100
AcDbEntity
  8
DEFAULT
100
AcDbBlockReference
  2
SE
 10
0.0
 20
0.0
 30
0.0
  0
INSERT
  5
124
330
1F
100
AcDbEntity
  8
DEFAULT
100
AcDbBlockReference
  2
GDIMGGROUP1
 10
0.0
 20
0.0
 30
0.0
  0
INSERT
  5
12E
330
1F
100
AcDbEntity
  8
DEFAULT
100
AcDbBlockReference
  2
GDIMGGROUP2
 10
0.0
 20
0.0
 30
0.0
  0
INSERT
  5
138
330
1F
100
AcDbEntity
  8
DEFAULT
100
AcDbBlockReference
  2
GDIMGGROUP3
 10
0.0
 20
0.0
 30
0.0
  0
ENDSEC
  0
SECTION
  2
OBJECTS
  0
DICTIONARY
  5
C
330
0
100
AcDbDictionary
  3
ACAD_GROUP
350
D
  3
ACAD_LAYOUT
350
1A
  3
ACAD_MLEADERSTYLE
350
145
  3
ACAD_MLINESTYLE
350
17
  3
ACAD_PLOTSETTINGS
350
19
  3
ACAD_SCALELIST
350
43
  3
ACAD_VISUALSTYLE
350
2A
  3
ACDBVARIABLEDICTIONARY
350
143
1001
ACAD
1000
TREAT_AS_HARD
1070
     0
  0
DICTIONARY
  5
D
102
{ACAD_REACTORS
330
C
102
}
330
C
100
AcDbDictionary
1001
ACAD
1000
TREAT_AS_HARD
1070
     0
  0
DICTIONARY
  5
1A
102
{ACAD_REACTORS
330
C
102
}
330
C
100
AcDbDictionary
1001
ACAD
1000
TREAT_AS_HARD
1070
     0
  0
DICTIONARY
  5
145
102
{ACAD_REACTORS
330
C
102
}
330
C
100
AcDbDictionary
1001
ACAD
1000
TREAT_AS_HARD
1070
     0
  0
DICTIONARY
  5
17
102
{ACAD_REACTORS
330
C
102
}
330
C
100
AcDbDictionary
  3
STANDARD
350
18
1001
ACAD
1000
TREAT_AS_HARD
1070
     0
  0
DICTIONARY
  5
19
102
{ACAD_REACTORS
330
C
102
}
330
C
100
AcDbDictionary
1001
ACAD
1000
TREAT_AS_HARD
1070
     0
  0
DICTIONARY
  5
43
102
{ACAD_REACTORS
330
C
102
}
330
C
100
AcDbDictionary
  3
A0
350
44
  3
A1
350
45
  3
A2
350
46
  3
A3
350
47
  3
A4
350
48
  3
A5
350
49
  3
A6
350
4A
  3
A7
350
4B
  3
A8
350
4C
  3
A9
350
4D
  3
B0
350
4E
  3
B1
350
4F
  3
B2
350
50
  3
B3
350
51
  3
B4
350
52
  3
B5
350
53
  3
B6
350
54
  3
B7
350
55
  3
B8
350
56
  3
B9
350
57
  3
C0
350
58
  3
C1
350
59
  3
C2
350
5A
  3
C3
350
5B
  3
C4
350
5C
  3
C5
350
5D
  3
C6
350
5E
  3
C7
350
5F
  3
C8
350
60
  3
C9
350
61
  3
D0
350
62
  3
D1
350
63
  3
D2
350
64
1001
ACAD
1000
TREAT_AS_HARD
1070
     0
  0
DICTIONARY
  5
2A
102
{ACAD_REACTORS
330
C
102
}
330
C
100
AcDbDictionary
  3
2DWIREFRAME
350
2F
  3
3D_HIDDEN
350
31
  3
3DWIREFRAME
350
30
  3
BASIC
350
32
  3
BRIGHTEN
350
36
  3
COLORCHANGE
350
3A
  3
CONCEPTUAL
350
34
  3
DIM
350
35
  3
FACEPATTERN
350
39
  3
FLAT
350
2B
  3
FLATWITHEDGES
350
2C
  3
GOURAUD
350
2D
  3
GOURAUDWITHEDGES
350
2E
  3
LINEPATTERN
350
38
  3
REALISTIC
350
33
  3
THICKEN
350
37
1001
ACAD
1000
TREAT_AS_HARD
1070
     0
  0
DICTIONARY
  5
143
102
{ACAD_REACTORS
330
C
102
}
330
C
100
AcDbDictionary
  3
CANNOSCALE
350
148
  3
PSOLHEIGHT
350
147
  3
PSOLWIDTH
350
146
1001
ACAD
1000
TREAT_AS_HARD
1070
     0
  0
MLINESTYLE
  5
18
102
{ACAD_REACTORS
330
17
102
}
330
17
100
AcDbMlineStyle
  2
Standard
 70
     0
  3

 62
   256
 51
90.0
 52
90.0
 71
     2
 49
0.5
 62
   256
  6
BYLAYER
 49
-0.5
 62
   256
  6
BYLAYER
  0
ACAD_PROXY_OBJECT
  5
44
102
{ACAD_REACTORS
330
43
102
}
330
43
100
AcDbZombieObject
 90
      499
 91
      502
 93
       41
310
903313A31580
  0
ACAD_PROXY_OBJECT
  5
45
102
{ACAD_REACTORS
330
43
102
}
330
43
100
AcDbZombieObject
 90
      499
 91
      502
 93
      105
310
903313A324000000000000004000
  0
ACAD_PROXY_OBJECT
  5
46
102
{ACAD_REACTORS
330
43
102
}
330
43
100
AcDbZombieObject
 90
      499
 91
      502
 93
      105
310
903313A344000000000000104000
  0
ACAD_PROXY_OBJECT
  5
47
102
{ACAD_REACTORS
330
43
102
}
330
43
100
AcDbZombieObject
 90
      499
 91
      502
 93
      105
310
903313A354000000000000144000
  0
ACAD_PROXY_OBJECT
  5
48
102
{ACAD_REACTORS
330
43
102
}
330
43
100
AcDbZombieObject
 90
      499
 91
      502
 93
      105
310
903313A384000000000000204000
  0
ACAD_PROXY_OBJECT
  5
49
102
{ACAD_REACTORS
330
43
102
}
330
43
100
AcDbZombieObject
 90
      499
 91
      502
 93
      113
310
904313A31304000000000000244000
  0
ACAD_PROXY_OBJECT
  5
4A
102
{ACAD_REACTORS
330
43
102
}
330
43
100
AcDbZombieObject
 90
      499
 91
      502
 93
      113
310
904313A31364000000000000304000
  0
ACAD_PROXY_OBJECT
  5
4B
102
{ACAD_REACTORS
330
43
102
}
330
43
100
AcDbZombieObject
 90
      499
 91
      502
 93
      113
310
904313A32304000000000000344000
  0
ACAD_PROXY_OBJECT
  5
4C
102
{ACAD_REACTORS
330
43
102
}
330
43
100
AcDbZombieObject
 90
      499
 91
      502
 93
      113
310
904313A333040000000000003E4000
  0
ACAD_PROXY_OBJECT
  5
4D
102
{ACAD_REACTORS
330
43
102
}
330
43
100
AcDbZombieObject
 90
      499
 91
      502
 93
      113
310
904313A34304000000000000444000
  0
ACAD_PROXY_OBJECT
  5
4E
102
{ACAD_REACTORS
330
43
102
}
330
43
100
AcDbZombieObject
 90
      499
 91
      502
 93
      113
310
904313A35304000000000000494000
  0
ACAD_PROXY_OBJECT
  5
4F
102
{ACAD_REACTORS
330
43
102
}
330
43
100
AcDbZombieObject
 90
      499
 91
      502
 93
      121
310
905313A3130304000000000000594000
  0
ACAD_PROXY_OBJECT
  5
50
102
{ACAD_REACTORS
330
43
102
}
330
43
100
AcDbZombieObject
 90
      499
 91
      502
 93
      105
310
903323A310000000000000010100
  0
ACAD_PROXY_OBJECT
  5
51
102
{ACAD_REACTORS
330
43
102
}
330
43
100
AcDbZombieObject
 90
      499
 91
      502
 93
      105
310
903343A310000000000000410100
  0
ACAD_PROXY_OBJECT
  5
52
102
{ACAD_REACTORS
330
43
102
}
330
43
100
AcDbZombieObject
 90
      499
 91
      502
 93
      105
310
903383A310000000000000810100
  0
ACAD_PROXY_OBJECT
  5
53
102
{ACAD_REACTORS
330
43
102
}
330
43
100
AcDbZombieObject
 90
      499
 91
      502
 93
      113
310
90431303A310000000000000910100
  0
ACAD_PROXY_OBJECT
  5
54
102
{ACAD_REACTORS
330
43
102
}
330
43
100
AcDbZombieObject
 90
      499
 91
      502
 93
      121
310
9053130303A310000000000001650100
  0
ACAD_PROXY_OBJECT
  5
55
102
{ACAD_REACTORS
330
43
102
}
330
43
100
AcDbZombieObject
 90
      499
 91
      502
 93
      257
310
90E312F31323822203D2031272D3022000000000000200FC000000000000284000
  0
ACAD_PROXY_OBJECT
  5
56
102
{ACAD_REACTORS
330
43
102
}
330
43
100
AcDbZombieObject
 90
      499
 91
      502
 93
      249
310
90D312F363422203D2031272D3022000000000000240FC000000000000284000
  0
ACAD_PROXY_OBJECT
  5
57
102
{ACAD_REACTORS
330
43
102
}
330
43
100
AcDbZombieObject
 90
      499
 91
      502
 93
      249
310
90D312F333222203D2031272D3022000000000000280FC000000000000284000
  0
ACAD_PROXY_OBJECT
  5
58
102
{ACAD_REACTORS
330
43
102
}
330
43
100
AcDbZombieObject
 90
      499
 91
      502
 93
      249
310
90D312F313622203D2031272D30220000000000002C0FC000000000000284000
  0
ACAD_PROXY_OBJECT
  5
59
102
{ACAD_REACTORS
330
43
102
}
330
43
100
AcDbZombieObject
 90
      499
 91
      502
 93
      249
310
90D332F333222203D2031272D30220000000000002E0FC000000000000284000
  0
ACAD_PROXY_OBJECT
  5
5A
102
{ACAD_REACTORS
330
43
102
}
330
43
100
AcDbZombieObject
 90
      499
 91
      502
 93
      241
310
90C312F3822203D2031272D3022000000000000300FC000000000000284000
  0
ACAD_PROXY_OBJECT
  5
5B
102
{ACAD_REACTORS
330
43
102
}
330
43
100
AcDbZombieObject
 90
      499
 91
      502
 93
      249
310
90D332F313622203D2031272D3022000000000000320FC000000000000284000
  0
ACAD_PROXY_OBJECT
  5
5C
102
{ACAD_REACTORS
330
43
102
}
330
43
100
AcDbZombieObject
 90
      499
 91
      502
 93
      241
310
90C312F3422203D2031272D3022000000000000340FC000000000000284000
  0
ACAD_PROXY_OBJECT
  5
5D
102
{ACAD_REACTORS
330
43
102
}
330
43
100
AcDbZombieObject
 90
      499
 91
      502
 93
      241
310
90C332F3822203D2031272D3022000000000000360FC000000000000284000
  0
ACAD_PROXY_OBJECT
  5
5E
102
{ACAD_REACTORS
330
43
102
}
330
43
100
AcDbZombieObject
 90
      499
 91
      502
 93
      241
310
90C312F3222203D2031272D3022000000000000380FC000000000000284000
  0
ACAD_PROXY_OBJECT
  5
5F
102
{ACAD_REACTORS
330
43
102
}
330
43
100
AcDbZombieObject
 90
      499
 91
      502
 93
      241
310
90C332F3422203D2031272D30220000000000003A0FC000000000000284000
  0
ACAD_PROXY_OBJECT
  5
60
102
{ACAD_REACTORS
330
43
102
}
330
43
100
AcDbZombieObject
 90
      499
 91
      502
 93
      161
310
90A3122203D2031272D30224000000000000284000
  0
ACAD_PROXY_OBJECT
  5
61
102
{ACAD_REACTORS
330
43
102
}
330
43
100
AcDbZombieObject
 90
      499
 91
      502
 93
      257
310
90E312D312F3222203D2031272D30220000000000003E0FC000000000000284000
  0
ACAD_PROXY_OBJECT
  5
62
102
{ACAD_REACTORS
330
43
102
}
330
43
100
AcDbZombieObject
 90
      499
 91
      502
 93
      225
310
90A3322203D2031272D302200000000000002100000000000000284000
  0
ACAD_PROXY_OBJECT
  5
63
102
{ACAD_REACTORS
330
43
102
}
330
43
100
AcDbZombieObject
 90
      499
 91
      502
 93
      225
310
90A3622203D2031272D302200000000000006100000000000000284000
  0
ACAD_PROXY_OBJECT
  5
64
102
{ACAD_REACTORS
330
43
102
}
330
43
100
AcDbZombieObject
 90
      499
 91
      502
 93
      249
310
90D31272D3022203D2031272D30220000000000000A100000000000000284000
  0
ACAD_PROXY_OBJECT
  5
2F
102
{ACAD_REACTORS
330
2A
102
}
330
2A
100
AcDbZombieObject
 90
      499
 91
      501
 93
      436
310
42CC9915DA5C99599C985B595049028333333333333E3BF0000000000000FB0107901411070040501600405405064090741402480A0340
1001
ACAD
1000
AcDbSavedByObjectVersion
1070
     0
  0
ACAD_PROXY_OBJECT
  5
31
102
{ACAD_REACTORS
330
2A
102
}
330
2A
100
AcDbZombieObject
 90
      499
 91
      501
 93
      500
310
424CD108121A5919195B90640502408333333333333E3BF0000000000000FB01079024090700405020000000000001110200405405064090740C02480A0340
1001
ACAD
1000
AcDbSavedByObjectVersion
1070
     0
  0
ACAD_PROXY_OBJECT
  5
30
102
{ACAD_REACTORS
330
2A
102
}
330
2A
100
AcDbZombieObject
 90
      499
 91
      501
 93
      436
310
42CCD915DA5C99599C985B595059028333333333333E3BF0000000000000FB0107901411070040501600405405064090741402480A0340
1001
ACAD
1000
AcDbSavedByObjectVersion
1070
     0
  0
ACAD_PROXY_OBJECT
  5
32
102
{ACAD_REACTORS
330
2A
102
}
330
2A
100
AcDbZombieObject
 90
      499
 91
      501
 93
      388
310
4150985CDA58D07406404333333333333E3BF0000000000000FB0107A41107004050150841D405064090741402480A0350
1001
ACAD
1000
AcDbSavedByObjectVersion
1070
     0
  0
ACAD_PROXY_OBJECT
  5
36
102
{ACAD_REACTORS
330
2A
102
}
330
2A
100
AcDbZombieObject
 90
      499
 91
      501
 93
      428
310
42109C9A59DA1D195B90C409028333333333333E3BF0000000000000FB010790141107004050150841D405064090741402480A029950
1001
ACAD
1000
AcDbSavedByObjectVersion
1070
     0
  0
ACAD_PROXY_OBJECT
  5
3A
102
{ACAD_REACTORS
330
2A
102
}
330
2A
100
AcDbZombieObject
 90
      499
 91
      501
 93
      452
310
42D0DBDB1BDC90DA185B99D95104090240C333333333333E3BF0000000000000FB0108901411070040501508421405064090741402480A0350
1001
ACAD
1000
AcDbSavedByObjectVersion
1070
     0
  0
ACAD_PROXY_OBJECT
  5
34
102
{ACAD_REACTORS
330
2A
102
}
330
2A
100
AcDbZombieObject
 90
      499
 91
      501
 93
      500
310
4290DBDB98D95C1D1D585B10940D028333333333333E3BF0000000000000FB0107902409070040501000000000000111010841D405064090740C02480A0340
1001
ACAD
1000
AcDbSavedByObjectVersion
1070
     0
  0
ACAD_PROXY_OBJECT
  5
35
102
{ACAD_REACTORS
330
2A
102
}
330
2A
100
AcDbZombieObject
 90
      499
 91
      501
 93
      412
310
40D11A5B50B409028333333333333E3BF0000000000000FB010790141107004050150841D405064090741402480A02677FFFFFD0
1001
ACAD
1000
AcDbSavedByObjectVersion
1070
     0
  0
ACAD_PROXY_OBJECT
  5
39
102
{ACAD_REACTORS
330
2A
102
}
330
2A
100
AcDbZombieObject
 90
      499
 91
      501
 93
      444
310
42D19858D95C185D1D195C9B90F409028333333333333E3BF0000000000000FB010790141107004050150841D405064090741402480A0350
1001
ACAD
1000
AcDbSavedByObjectVersion
1070
     0
  0
ACAD_PROXY_OBJECT
  5
2B
102
{ACAD_REACTORS
330
2A
102
}
330
2A
100
AcDbZombieObject
 90
      499
 91
      501
 93
      388
310
41119B185D240901404333333333333E3BF0000000000000F9010740A41107004050150841D405064090741402480A1B50
1001
ACAD
1000
AcDbSavedByObjectVersion
1070
     0
  0
ACAD_PROXY_OBJECT
  5
2C
102
{ACAD_REACTORS
330
2A
102
}
330
2A
100
AcDbZombieObject
 90
      499
 91
      501
 93
      476
310
43519B185D15DA5D1A115919D95CD0140901404333333333333E3BF0000000000000F9010740901411070040501600405405064090741402480A1B50
1001
ACAD
1000
AcDbSavedByObjectVersion
1070
     0
  0
ACAD_PROXY_OBJECT
  5
2D
102
{ACAD_REACTORS
330
2A
102
}
330
2A
100
AcDbZombieObject
 90
      499
 91
      501
 93
      412
310
41D1DBDD5C985D5910240902404333333333333E3BF0000000000000F9010740A411070040501641D405064090741402480A1B50
1001
ACAD
1000
AcDbSavedByObjectVersion
1070
     0
  0
ACAD_PROXY_OBJECT
  5
2E
102
{ACAD_REACTORS
330
2A
102
}
330
2A
100
AcDbZombieObject
 90
      499
 91
      501
 93
      500
310
4411DBDD5C985D5915DA5D1A115919D95CD0340902404333333333333E3BF0000000000000F9010740901411070040501600405405064090741402480A1B50
1001
ACAD
1000
AcDbSavedByObjectVersion
1070
     0
  0
ACAD_PROXY_OBJECT
  5
38
102
{ACAD_REACTORS
330
2A
102
}
330
2A
100
AcDbZombieObject
 90
      499
 91
      501
 93
      444
310
42D31A5B995C185D1D195C9B90E409028333333333333E3BF0000000000000FB010790141107004050750841D405064090741402483A0350
1001
ACAD
1000
AcDbSavedByObjectVersion
1070
     0
  0
ACAD_PROXY_OBJECT
  5
33
102
{ACAD_REACTORS
330
2A
102
}
330
2A
100
AcDbZombieObject
 90
      499
 91
      501
 93
      420
310
425499585B1A5CDD1A58D08409028333333333333E3BF0000000000000FB01079019070040501508421405064090741402480A1B40
1001
ACAD
1000
AcDbSavedByObjectVersion
1070
     0
  0
ACAD_PROXY_OBJECT
  5
37
102
{ACAD_REACTORS
330
2A
102
}
330
2A
100
AcDbZombieObject
 90
      499
 91
      501
 93
      412
310
41D51A1A58DAD95B90D409028333333333333E3BF0000000000000FB010790141107004050150C41D405064090741402480A0350
1001
ACAD
1000
AcDbSavedByObjectVersion
1070
     0
  0
DICTIONARYVAR
  5
148
102
{ACAD_REACTORS
330
143
102
}
330
143
100
DictionaryVariables
280
     0
  1
1:1
  0
DICTIONARYVAR
  5
147
102
{ACAD_REACTORS
330
143
102
}
330
143
100
DictionaryVariables
280
     0
  1
80.000000
  0
DICTIONARYVAR
  5
146
102
{ACAD_REACTORS
330
143
102
}
330
143
100
DictionaryVariables
280
     0
  1
5.000000
  0
ENDSEC
  0
EOF
