  0
SECTION
  2
HEADER
  9
$ACADVER
  1
AC1012
  9
$DWGCODEPAGE
  3
ansi_932
  9
$INSBASE
 10
0.0
 20
0.0
 30
0.0
  9
$EXTMIN
 10
0.0
 20
0.0
 30
0.0
  9
$EXTMAX
 10
297.0
 20
210.0
 30
0.0
  9
$LIMMIN
 10
0.0
 20
0.0
  9
$LIMMAX
 10
297.0
 20
210.0
  9
$ORTHOMODE
 70
     0
  9
$REGENMODE
 70
     1
  9
$FILLMODE
 70
     1
  9
$QTEXTMODE
 70
     0
  9
$MIRRTEXT
 70
     1
  9
$DRAGMODE
 70
     2
  9
$LTSCALE
 40
1.0
  9
$OSMODE
 70
    37
  9
$ATTMODE
 70
     1
  9
$TEXTSIZE
 40
2.5
  9
$TRACEWID
 40
1.0
  9
$TEXTSTYLE
  7
STANDARD
  9
$CLAYER
  8
0
  9
$CELTYPE
  6
BYLAYER
  9
$CECOLOR
 62
   256
  9
$CELTSCALE
 40
1.0
  9
$DELOBJ
 70
     1
  9
$DISPSILH
 70
     0
  9
$DIMSCALE
 40
1.0
  9
$DIMASZ
 40
2.5
  9
$DIMEXO
 40
0.625
  9
$DIMDLI
 40
3.75
  9
$DIMRND
 40
0.0
  9
$DIMDLE
 40
0.0
  9
$DIMEXE
 40
1.25
  9
$DIMTP
 40
0.0
  9
$DIMTM
 40
0.0
  9
$DIMTXT
 40
2.5
  9
$DIMCEN
 40
2.5
  9
$DIMTSZ
 40
0.0
  9
$DIMTOL
 70
     0
  9
$DIMLIM
 70
     0
  9
$DIMTIH
 70
     0
  9
$DIMTOH
 70
     0
  9
$DIMSE1
 70
     0
  9
$DIMSE2
 70
     0
  9
$DIMTAD
 70
     1
  9
$DIMZIN
 70
     8
  9
$DIMBLK
  1

  9
$DIMASO
 70
     1
  9
$DIMSHO
 70
     1
  9
$DIMPOST
  1

  9
$DIMAPOST
  1

  9
$DIMALT
 70
     0
  9
$DIMALTD
 70
     3
  9
$DIMALTF
 40
0.0393700787
  9
$DIMLFAC
 40
1.0
  9
$DIMTOFL
 70
     1
  9
$DIMTVP
 40
0.0
  9
$DIMTIX
 70
     0
  9
$DIMSOXD
 70
     0
  9
$DIMSAH
 70
     0
  9
$DIMBLK1
  1

  9
$DIMBLK2
  1

  9
$DIMSTYLE
  2
ISO-25
  9
$DIMCLRD
 70
     0
  9
$DIMCLRE
 70
     0
  9
$DIMCLRT
 70
     0
  9
$DIMTFAC
 40
1.0
  9
$DIMGAP
 40
0.625
  9
$DIMJUST
 70
     0
  9
$DIMSD1
 70
     0
  9
$DIMSD2
 70
     0
  9
$DIMTOLJ
 70
     0
  9
$DIMTZIN
 70
     8
  9
$DIMALTZ
 70
     0
  9
$DIMALTTZ
 70
     0
  9
$DIMFIT
 70
     3
  9
$DIMUPT
 70
     0
  9
$DIMUNIT
 70
     2
  9
$DIMDEC
 70
     2
  9
$DIMTDEC
 70
     2
  9
$DIMALTU
 70
     2
  9
$DIMALTTD
 70
     3
  9
$DIMTXSTY
  7
STANDARD
  9
$DIMAUNIT
 70
     0
  9
$LUNITS
 70
     2
  9
$LUPREC
 70
     4
  9
$SKETCHINC
 40
1.0
  9
$FILLETRAD
 40
10.0
  9
$AUNITS
 70
     0
  9
$AUPREC
 70
     0
  9
$MENU
  1
.
  9
$ELEVATION
 40
0.0
  9
$PELEVATION
 40
0.0
  9
$THICKNESS
 40
0.0
  9
$LIMCHECK
 70
     0
  9
$CHAMFERA
 40
10.0
  9
$CHAMFERB
 40
10.0
  9
$CHAMFERC
 40
20.0
  9
$CHAMFERD
 40
0.0
  9
$SKPOLY
 70
     0
  9
$TDCREATE
 40
2456542.649853438
  9
$TDUPDATE
 40
2456542.649853449
  9
$TDINDWG
 40
0.0000000116
  9
$TDUSRTIMER
 40
0.0000000116
  9
$USRTIMER
 70
     1
  9
$ANGBASE
 50
0.0
  9
$ANGDIR
 70
     0
  9
$PDMODE
 70
     0
  9
$PDSIZE
 40
0.0
  9
$PLINEWID
 40
0.0
  9
$COORDS
 70
     1
  9
$SPLFRAME
 70
     0
  9
$SPLINETYPE
 70
     6
  9
$SPLINESEGS
 70
     8
  9
$ATTDIA
 70
     0
  9
$ATTREQ
 70
     1
  9
$HANDLING
 70
     1
  9
$HANDSEED
  5
1A5
  9
$SURFTAB1
 70
     6
  9
$SURFTAB2
 70
     6
  9
$SURFTYPE
 70
     6
  9
$SURFU
 70
     6
  9
$SURFV
 70
     6
  9
$UCSNAME
  2

  9
$UCSORG
 10
0.0
 20
0.0
 30
0.0
  9
$UCSXDIR
 10
1.0
 20
0.0
 30
0.0
  9
$UCSYDIR
 10
0.0
 20
1.0
 30
0.0
  9
$PUCSNAME
  2

  9
$PUCSORG
 10
0.0
 20
0.0
 30
0.0
  9
$PUCSXDIR
 10
1.0
 20
0.0
 30
0.0
  9
$PUCSYDIR
 10
0.0
 20
1.0
 30
0.0
  9
$USERI1
 70
     0
  9
$USERI2
 70
     0
  9
$USERI3
 70
     0
  9
$USERI4
 70
     0
  9
$USERI5
 70
     0
  9
$USERR1
 40
0.0
  9
$USERR2
 40
0.0
  9
$USERR3
 40
0.0
  9
$USERR4
 40
0.0
  9
$USERR5
 40
0.0
  9
$WORLDVIEW
 70
     1
  9
$SHADEDGE
 70
     3
  9
$SHADEDIF
 70
    70
  9
$TILEMODE
 70
     1
  9
$MAXACTVP
 70
    64
  9
$PINSBASE
 10
0.0
 20
0.0
 30
0.0
  9
$PLIMCHECK
 70
     0
  9
$PEXTMIN
 10
0.0
 20
0.0
 30
0.0
  9
$PEXTMAX
 10
297.0
 20
210.0
 30
0.0
  9
$PLIMMIN
 10
0.0
 20
0.0
  9
$PLIMMAX
 10
297.0
 20
210.0
  9
$UNITMODE
 70
     0
  9
$VISRETAIN
 70
     1
  9
$PLINEGEN
 70
     0
  9
$PSLTSCALE
 70
     1
  9
$TREEDEPTH
 70
  3020
  9
$PICKSTYLE
 70
     1
  9
$CMLSTYLE
  2
STANDARD
  9
$CMLJUST
 70
     0
  9
$CMLSCALE
 40
20.0
  9
$SAVEIMAGES
 70
     1
  0
ENDSEC
  0
SECTION
  2
CLASSES
  0
CLASS
  1
ACDBDICTIONARYWDFLT
  2
AcDbDictionaryWithDefault
  3
ObjectDBX Classes
 90
    32768
280
     0
281
     0
  0
CLASS
  1
VISUALSTYLE
  2
AcDbVisualStyle
  3
ObjectDBX Classes
 90
     4095
280
     0
281
     0
  0
CLASS
  1
SCALE
  2
AcDbScale
  3
ObjectDBX Classes
 90
     1153
280
     0
281
     0
  0
CLASS
  1
DICTIONARYVAR
  2
AcDbDictionaryVar
  3
ObjectDBX Classes
 90
        0
280
     0
281
     0
  0
CLASS
  1
XRECORD
  2
AcDbXrecord
  3
AutoCAD 2000
 90
    32768
280
     0
281
     0
  0
CLASS
  1
LWPOLYLINE
  2
AcDbPolyline
  3
AutoCAD 2000
 90
    32768
280
     0
281
     1
  0
CLASS
  1
HATCH
  2
AcDbHatch
  3
AutoCAD 2000
 90
    32768
280
     0
281
     1
  0
CLASS
  1
ACDBPLACEHOLDER
  2
AcDbPlaceHolder
  3
ObjectDBX Classes
 90
        0
280
     0
281
     0
  0
CLASS
  1
LAYOUT
  2
AcDbLayout
  3
ObjectDBX Classes
 90
        0
280
     0
281
     0
  0
ENDSEC
  0
SECTION
  2
TABLES
  0
TABLE
  2
VPORT
  5
8
330
0
100
AcDbSymbolTable
 70
     1
  0
VPORT
  5
29
330
8
100
AcDbSymbolTableRecord
100
AcDbViewportTableRecord
  2
*ACTIVE
 70
     0
 10
0.0
 20
0.0
 11
1.0
 21
1.0
 12
344.1869158879
 22
148.5
 13
0.0
 23
0.0
 14
10.0
 24
10.0
 15
10.0
 25
10.0
 16
0.0
 26
0.0
 36
1.0
 17
0.0
 27
0.0
 37
0.0
 40
297.0
 41
1.9729729729
 42
50.0
 43
0.0
 44
0.0
 50
0.0
 51
0.0
 71
     0
 72
   100
 73
     1
 74
     3
 75
     0
 76
     0
 77
     0
 78
     0
  0
ENDTAB
  0
TABLE
  2
LTYPE
  5
5
330
0
100
AcDbSymbolTable
 70
     2
  0
LTYPE
  5
14
330
5
100
AcDbSymbolTableRecord
100
AcDbLinetypeTableRecord
  2
BYBLOCK
 70
     0
  3

 72
    65
 73
     0
 40
0.0
  0
LTYPE
  5
15
330
5
100
AcDbSymbolTableRecord
100
AcDbLinetypeTableRecord
  2
BYLAYER
 70
     0
  3

 72
    65
 73
     0
 40
0.0
  0
LTYPE
  5
16
330
5
100
AcDbSymbolTableRecord
100
AcDbLinetypeTableRecord
  2
CONTINUOUS
 70
     0
  3
Solid line
 72
    65
 73
     0
 40
0.0
  0
LTYPE
  5
13C
330
5
100
AcDbSymbolTableRecord
100
AcDbLinetypeTableRecord
  2
CENTER2
 70
     0
  3
Center (.5x) ___ _ ___ _ ___ _ ___ _ ___ _ ___
 72
    65
 73
     4
 40
28.575
 49
19.05
 74
     4
 75
     0
340
0
 46
0.0
 50
0.0
 44
0.0
 45
0.0
 49
-3.175
 74
     4
 75
     0
340
0
 46
0.0
 50
0.0
 44
0.0
 45
0.0
 49
3.175
 74
     4
 75
     0
340
0
 46
0.0
 50
0.0
 44
0.0
 45
0.0
 49
-3.175
 74
     4
 75
     0
340
0
 46
0.0
 50
0.0
 44
0.0
 45
0.0
  0
ENDTAB
  0
TABLE
  2
LAYER
  5
2
330
0
100
AcDbSymbolTable
 70
     4
  0
LAYER
  5
10
330
2
100
AcDbSymbolTableRecord
100
AcDbLayerTableRecord
  2
0
 70
     0
 62
     7
  6
CONTINUOUS
  0
LAYER
  5
3B
330
2
100
AcDbSymbolTableRecord
100
AcDbLayerTableRecord
  2
DEFAULT
 70
     0
 62
     7
  6
CONTINUOUS
  0
LAYER
  5
77
330
2
100
AcDbSymbolTableRecord
100
AcDbLayerTableRecord
  2
DV1_デフォルト
 70
     0
 62
     7
  6
CONTINUOUS
  0
LAYER
  5
13B
330
2
100
AcDbSymbolTableRecord
100
AcDbLayerTableRecord
  2
DV1_ﾃ_ﾌｫﾙﾄ
 70
     0
 62
     7
  6
CONTINUOUS
  0
ENDTAB
  0
TABLE
  2
STYLE
  5
3
330
0
100
AcDbSymbolTable
 70
     3
  0
STYLE
  5
11
330
3
100
AcDbSymbolTableRecord
100
AcDbTextStyleTableRecord
  2
STANDARD
 70
     0
 40
0.0
 41
1.0
 50
0.0
 71
     0
 42
2.5
  3
txt
  4

  0
STYLE
  5
65
330
3
100
AcDbSymbolTableRecord
100
AcDbTextStyleTableRecord
  2
SEACAD_SEANSI_TTF
 70
     0
 40
0.0
 41
1.0
 50
0.0
 71
     0
 42
0.2
  3
seansi.ttf
  4

  0
STYLE
  5
67
330
3
100
AcDbSymbolTableRecord
100
AcDbTextStyleTableRecord
  2
SEACAD_SEMECA1_TTF
 70
     0
 40
0.0
 41
1.0
 50
0.0
 71
     0
 42
0.2
  3
semeca1.ttf
  4

  0
ENDTAB
  0
TABLE
  2
VIEW
  5
6
330
0
100
AcDbSymbolTable
 70
     0
  0
ENDTAB
  0
TABLE
  2
UCS
  5
7
330
0
100
AcDbSymbolTable
 70
     0
  0
ENDTAB
  0
TABLE
  2
APPID
  5
9
330
0
100
AcDbSymbolTable
 70
     1
  0
APPID
  5
12
330
9
100
AcDbSymbolTableRecord
100
AcDbRegAppTableRecord
  2
ACAD
 70
     0
  0
ENDTAB
  0
TABLE
  2
DIMSTYLE
  5
A
330
0
100
AcDbSymbolTable
 70
     1
  0
DIMSTYLE
105
27
330
A
100
AcDbSymbolTableRecord
100
AcDbDimStyleTableRecord
  2
ISO-25
 70
     0
  3

  4

  5

  6

  7

 40
1.0
 41
2.5
 42
0.625
 43
3.75
 44
1.25
 45
0.0
 46
0.0
 47
0.0
 48
0.0
140
2.5
141
2.5
142
0.0
143
0.0393700787
144
1.0
145
0.0
146
1.0
147
0.625
 71
     0
 72
     0
 73
     0
 74
     0
 75
     0
 76
     0
 77
     1
 78
     8
170
     0
171
     3
172
     1
173
     0
174
     0
175
     0
176
     0
177
     0
178
     0
270
     2
271
     2
272
     2
273
     2
274
     3
340
11
275
     0
280
     0
281
     0
282
     0
283
     0
284
     8
285
     0
286
     0
287
     3
288
     0
  0
ENDTAB
  0
TABLE
  2
BLOCK_RECORD
  5
1
330
0
100
AcDbSymbolTable
 70
     8
  0
BLOCK_RECORD
  5
1F
330
1
100
AcDbSymbolTableRecord
100
AcDbBlockTableRecord
  2
*MODEL_SPACE
  0
BLOCK_RECORD
  5
1B
330
1
100
AcDbSymbolTableRecord
100
AcDbBlockTableRecord
  2
*PAPER_SPACE
  0
BLOCK_RECORD
  5
3C
330
1
100
AcDbSymbolTableRecord
100
AcDbBlockTableRecord
  2
GDIMGGROUP
  0
BLOCK_RECORD
  5
6B
330
1
100
AcDbSymbolTableRecord
100
AcDbBlockTableRecord
  2
GDIMGGROUP1
  0
BLOCK_RECORD
  5
75
330
1
100
AcDbSymbolTableRecord
100
AcDbBlockTableRecord
  2
SE
  0
BLOCK_RECORD
  5
144
330
1
100
AcDbSymbolTableRecord
100
AcDbBlockTableRecord
  2
GDIMGGROUP2
  0
BLOCK_RECORD
  5
14E
330
1
100
AcDbSymbolTableRecord
100
AcDbBlockTableRecord
  2
GDIMGGROUP3
  0
BLOCK_RECORD
  5
159
330
1
100
AcDbSymbolTableRecord
100
AcDbBlockTableRecord
  2
GDIMGGROUP4
  0
BLOCK_RECORD
  5
163
330
1
100
AcDbSymbolTableRecord
100
AcDbBlockTableRecord
  2
GDIMGGROUP5
  0
ENDTAB
  0
ENDSEC
  0
SECTION
  2
BLOCKS
  0
BLOCK
  5
20
330
1F
100
AcDbEntity
  8
0
100
AcDbBlockBegin
  2
*MODEL_SPACE
 70
     0
 10
0.0
 20
0.0
 30
0.0
  3
*MODEL_SPACE
  1

  0
ENDBLK
  5
21
330
1F
100
AcDbEntity
  8
0
100
AcDbBlockEnd
  0
BLOCK
  5
1C
330
1B
100
AcDbEntity
 67
     1
  8
0
100
AcDbBlockBegin
  2
*PAPER_SPACE
 70
     0
 10
0.0
 20
0.0
 30
0.0
  3
*PAPER_SPACE
  1

  0
ENDBLK
  5
1D
330
1B
100
AcDbEntity
 67
     1
  8
0
100
AcDbBlockEnd
  0
BLOCK
  5
69
330
3C
100
AcDbEntity
  8
0
100
AcDbBlockBegin
  2
GDIMGGROUP
 70
     0
 10
0.0
 20
0.0
 30
0.0
  3
GDIMGGROUP
  1

  0
POLYLINE
  5
3E
330
3C
100
AcDbEntity
  8
DEFAULT
  6
CONTINUOUS
 62
   136
100
AcDb2dPolyline
 66
     1
 10
0.0
 20
0.0
 30
0.0
  0
VERTEX
  5
175
330
3E
100
AcDbEntity
  8
DEFAULT
  6
CONTINUOUS
 62
   136
100
AcDbVertex
100
AcDb2dVertex
 10
110.5216136734
 20
105.8146740653
 30
0.0
  0
VERTEX
  5
176
330
3E
100
AcDbEntity
  8
DEFAULT
  6
CONTINUOUS
 62
   136
100
AcDbVertex
100
AcDb2dVertex
 10
109.9882803536
 20
102.6146741461
 30
0.0
  0
VERTEX
  5
177
330
3E
100
AcDbEntity
  8
DEFAULT
  6
CONTINUOUS
 62
   136
100
AcDbVertex
100
AcDb2dVertex
 10
109.4549470337
 20
105.8146740653
 30
0.0
  0
SEQEND
  5
178
330
3E
100
AcDbEntity
  8
DEFAULT
  6
CONTINUOUS
 62
   136
  0
POLYLINE
  5
3F
330
3C
100
AcDbEntity
  8
DEFAULT
  6
CONTINUOUS
 62
   136
100
AcDb2dPolyline
 66
     1
 10
0.0
 20
0.0
 30
0.0
  0
VERTEX
  5
179
330
3F
100
AcDbEntity
  8
DEFAULT
  6
CONTINUOUS
 62
   136
100
AcDbVertex
100
AcDb2dVertex
 10
110.5216136734
 20
131.4146757469
 30
0.0
  0
VERTEX
  5
17A
330
3F
100
AcDbEntity
  8
DEFAULT
  6
CONTINUOUS
 62
   136
100
AcDbVertex
100
AcDb2dVertex
 10
109.9882803536
 20
134.614675666
 30
0.0
  0
VERTEX
  5
17B
330
3F
100
AcDbEntity
  8
DEFAULT
  6
CONTINUOUS
 62
   136
100
AcDbVertex
100
AcDb2dVertex
 10
109.4549470337
 20
131.4146757469
 30
0.0
  0
SEQEND
  5
17C
330
3F
100
AcDbEntity
  8
DEFAULT
  6
CONTINUOUS
 62
   136
  0
LINE
  5
40
330
3C
100
AcDbEntity
  8
DEFAULT
  6
CONTINUOUS
 62
   136
100
AcDbLine
 10
129.0338982506
 20
102.6146741461
 30
0.0
 11
108.388280394
 21
102.6146741461
 31
0.0
  0
LINE
  5
41
330
3C
100
AcDbEntity
  8
DEFAULT
  6
CONTINUOUS
 62
   136
100
AcDbLine
 10
129.0338982506
 20
134.6146741461
 30
0.0
 11
108.388280394
 21
134.6146741461
 31
0.0
  0
LINE
  5
42
330
3C
100
AcDbEntity
  8
DEFAULT
  6
CONTINUOUS
 62
   136
100
AcDbLine
 10
109.9882803536
 20
102.6146741461
 30
0.0
 11
109.9882803536
 21
134.614675666
 31
0.0
  0
TEXT
  5
66
330
3C
100
AcDbEntity
  8
DEFAULT
  6
CONTINUOUS
 62
   136
100
AcDbText
 10
109.1882803536
 20
118.2577728949
 30
0.0
 40
3.2
  1
32
 50
90.0
  7
SEACAD_SEANSI_TTF
 11
105.9882803536
 21
118.2577728949
 31
0.0
100
AcDbText
 73
     3
  0
TEXT
  5
68
330
3C
100
AcDbEntity
  8
DEFAULT
  6
CONTINUOUS
 62
   136
100
AcDbText
 10
109.1882803536
 20
114.2886500879
 30
0.0
 40
3.2
  1
O
 50
90.0
  7
SEACAD_SEMECA1_TTF
 11
105.9882803536
 21
114.2886500879
 31
0.0
100
AcDbText
 73
     3
  0
ENDBLK
  5
6A
330
3C
100
AcDbEntity
  8
0
100
AcDbBlockEnd
  0
BLOCK
  5
73
330
6B
100
AcDbEntity
  8
0
100
AcDbBlockBegin
  2
GDIMGGROUP1
 70
     0
 10
0.0
 20
0.0
 30
0.0
  3
GDIMGGROUP1
  1

  0
POLYLINE
  5
6D
330
6B
100
AcDbEntity
  8
DEFAULT
  6
CONTINUOUS
 62
   136
100
AcDb2dPolyline
 66
     1
 10
0.0
 20
0.0
 30
0.0
  0
VERTEX
  5
17D
330
6D
100
AcDbEntity
  8
DEFAULT
  6
CONTINUOUS
 62
   136
100
AcDbVertex
100
AcDb2dVertex
 10
171.3138981375
 20
89.4126184717
 30
0.0
  0
VERTEX
  5
17E
330
6D
100
AcDbEntity
  8
DEFAULT
  6
CONTINUOUS
 62
   136
100
AcDbVertex
100
AcDb2dVertex
 10
168.1138982183
 20
88.8792851519
 30
0.0
  0
VERTEX
  5
17F
330
6D
100
AcDbEntity
  8
DEFAULT
  6
CONTINUOUS
 62
   136
100
AcDbVertex
100
AcDb2dVertex
 10
171.3138981375
 20
88.345951832
 30
0.0
  0
SEQEND
  5
180
330
6D
100
AcDbEntity
  8
DEFAULT
  6
CONTINUOUS
 62
   136
  0
POLYLINE
  5
6E
330
6B
100
AcDbEntity
  8
DEFAULT
  6
CONTINUOUS
 62
   136
100
AcDb2dPolyline
 66
     1
 10
0.0
 20
0.0
 30
0.0
  0
VERTEX
  5
181
330
6E
100
AcDbEntity
  8
DEFAULT
  6
CONTINUOUS
 62
   136
100
AcDbVertex
100
AcDb2dVertex
 10
171.8138982194
 20
89.4126184717
 30
0.0
  0
VERTEX
  5
182
330
6E
100
AcDbEntity
  8
DEFAULT
  6
CONTINUOUS
 62
   136
100
AcDbVertex
100
AcDb2dVertex
 10
175.0138981386
 20
88.8792851519
 30
0.0
  0
VERTEX
  5
183
330
6E
100
AcDbEntity
  8
DEFAULT
  6
CONTINUOUS
 62
   136
100
AcDbVertex
100
AcDb2dVertex
 10
171.8138982194
 20
88.345951832
 30
0.0
  0
SEQEND
  5
184
330
6E
100
AcDbEntity
  8
DEFAULT
  6
CONTINUOUS
 62
   136
  0
LINE
  5
6F
330
6B
100
AcDbEntity
  8
DEFAULT
  6
CONTINUOUS
 62
   136
100
AcDbLine
 10
168.1138982183
 20
102.0846741784
 30
0.0
 11
168.1138982183
 21
87.2792851923
 31
0.0
  0
LINE
  5
70
330
6B
100
AcDbEntity
  8
DEFAULT
  6
CONTINUOUS
 62
   136
100
AcDbLine
 10
175.0138982183
 20
108.7346741785
 30
0.0
 11
175.0138982183
 21
87.2792851923
 31
0.0
  0
LINE
  5
71
330
6B
100
AcDbEntity
  8
DEFAULT
  6
CONTINUOUS
 62
   136
100
AcDbLine
 10
168.1138982183
 20
88.8792851519
 30
0.0
 11
175.0138981386
 21
88.8792851519
 31
0.0
  0
TEXT
  5
72
330
6B
100
AcDbEntity
  8
DEFAULT
  6
CONTINUOUS
 62
   136
100
AcDbText
 10
168.7346298857
 20
89.6792851519
 30
0.0
 40
3.2
  1
6.9
  7
SEACAD_SEANSI_TTF
 11
168.7346298857
 21
92.8792851519
 31
0.0
100
AcDbText
 73
     3
  0
ENDBLK
  5
74
330
6B
100
AcDbEntity
  8
0
100
AcDbBlockEnd
  0
BLOCK
  5
142
330
75
100
AcDbEntity
  8
0
100
AcDbBlockBegin
  2
SE
 70
     0
 10
0.0
 20
0.0
 30
0.0
  3
SE
  1

  0
LINE
  5
78
330
75
100
AcDbEntity
  8
DV1_デフォルト
  6
CONTINUOUS
 62
     7
100
AcDbLine
 10
144.8138982183
 20
134.7146741461
 30
0.0
 11
143.4138982183
 21
134.7146741461
 31
0.0
  0
LINE
  5
79
330
75
100
AcDbEntity
  8
DV1_デフォルト
  6
CONTINUOUS
 62
     7
100
AcDbLine
 10
144.8138982183
 20
134.5346254332
 30
0.0
 11
144.8138982183
 21
134.7146741461
 31
0.0
  0
LINE
  5
7A
330
75
100
AcDbEntity
  8
DV1_デフォルト
  6
CONTINUOUS
 62
     7
100
AcDbLine
 10
143.4138982183
 20
134.7146741461
 30
0.0
 11
143.4138982183
 21
134.5342753528
 31
0.0
  0
LINE
  5
7B
330
75
100
AcDbEntity
  8
DV1_デフォルト
  6
CONTINUOUS
 62
     7
100
AcDbLine
 10
175.0138982183
 20
110.0146741461
 30
0.0
 11
175.0138982183
 21
127.2146741461
 31
0.0
  0
LINE
  5
7C
330
75
100
AcDbEntity
  8
DV1_デフォルト
  6
CONTINUOUS
 62
     7
100
AcDbLine
 10
174.9138982183
 20
109.9146741461
 30
0.0
 11
175.0138982183
 21
110.0146741461
 31
0.0
  0
LINE
  5
7D
330
75
100
AcDbEntity
  8
DV1_デフォルト
  6
CONTINUOUS
 62
     7
100
AcDbLine
 10
175.0138982183
 20
127.2146741461
 30
0.0
 11
174.9138982183
 21
127.3146741461
 31
0.0
  0
LINE
  5
7E
330
75
100
AcDbEntity
  8
DV1_デフォルト
  6
CONTINUOUS
 62
     7
100
AcDbLine
 10
172.1138982183
 20
106.6146741461
 30
0.0
 11
172.1138982183
 21
130.6146741461
 31
0.0
  0
LINE
  5
7F
330
75
100
AcDbEntity
  8
DV1_デフォルト
  6
CONTINUOUS
 62
     7
100
AcDbLine
 10
171.4138982183
 20
105.9146741461
 30
0.0
 11
171.4138982183
 21
131.3146741461
 31
0.0
  0
LINE
  5
80
330
75
100
AcDbEntity
  8
DV1_デフォルト
  6
CONTINUOUS
 62
     7
100
AcDbLine
 10
168.9138982183
 20
105.9146741461
 30
0.0
 11
168.9138982183
 21
131.3146741461
 31
0.0
  0
LINE
  5
81
330
75
100
AcDbEntity
  8
DV1_デフォルト
  6
CONTINUOUS
 62
     7
100
AcDbLine
 10
168.1138982183
 20
103.3646741461
 30
0.0
 11
168.1138982183
 21
133.8646741461
 31
0.0
  0
LINE
  5
82
330
75
100
AcDbEntity
  8
DV1_デフォルト
  6
CONTINUOUS
 62
     7
100
AcDbLine
 10
167.6138982183
 20
102.8646741461
 30
0.0
 11
167.6138982183
 21
134.3646741461
 31
0.0
  0
LINE
  5
83
330
75
100
AcDbEntity
  8
DV1_デフォルト
  6
CONTINUOUS
 62
     7
100
AcDbLine
 10
163.5138982183
 20
102.8646741461
 30
0.0
 11
163.5138982183
 21
134.3646741461
 31
0.0
  0
LINE
  5
84
330
75
100
AcDbEntity
  8
DV1_デフォルト
  6
CONTINUOUS
 62
     7
100
AcDbLine
 10
163.3138982183
 20
103.0646741461
 30
0.0
 11
163.3138982183
 21
134.1646741461
 31
0.0
  0
CIRCLE
  5
85
330
75
100
AcDbEntity
  8
DV1_デフォルト
  6
CONTINUOUS
 62
     7
100
AcDbCircle
 10
164.8138982183
 20
118.6146741678
 30
0.0
 40
0.6499999999999753
  0
ARC
  5
86
330
75
100
AcDbEntity
  8
DV1_デフォルト
  6
CONTINUOUS
 62
     7
100
AcDbCircle
 10
164.8138746732
 20
150.1016114249
 30
0.0
 40
15.75035636189686
100
AcDbArc
 50
267.6350567542
 51
272.3652916465
  0
ARC
  5
87
330
75
100
AcDbEntity
  8
DV1_デフォルト
  6
CONTINUOUS
 62
     7
100
AcDbCircle
 10
164.8138746732
 20
87.127736874
 30
0.0
 40
15.75035635515965
100
AcDbArc
 50
87.6347083524
 51
92.3649432468
  0
LINE
  5
88
330
75
100
AcDbEntity
  8
DV1_デフォルト
  6
CONTINUOUS
 62
     7
100
AcDbLine
 10
171.4138982183
 20
105.9146741461
 30
0.0
 11
172.1138982183
 21
106.6146741461
 31
0.0
  0
LINE
  5
89
330
75
100
AcDbEntity
  8
DV1_デフォルト
  6
CONTINUOUS
 62
     7
100
AcDbLine
 10
172.1138982183
 20
130.6146741461
 30
0.0
 11
171.4138982183
 21
131.3146741461
 31
0.0
  0
LINE
  5
8A
330
75
100
AcDbEntity
  8
DV1_デフォルト
  6
CONTINUOUS
 62
     7
100
AcDbLine
 10
168.9138982183
 20
105.9146741461
 30
0.0
 11
171.4138982183
 21
105.9146741461
 31
0.0
  0
LINE
  5
8B
330
75
100
AcDbEntity
  8
DV1_デフォルト
  6
CONTINUOUS
 62
     7
100
AcDbLine
 10
171.4138982183
 20
131.3146741461
 30
0.0
 11
168.9138982183
 21
131.3146741461
 31
0.0
  0
LINE
  5
8C
330
75
100
AcDbEntity
  8
DV1_デフォルト
  6
CONTINUOUS
 62
     7
100
AcDbLine
 10
168.1138982183
 20
106.4146741461
 30
0.0
 11
168.9138982183
 21
106.4146741461
 31
0.0
  0
LINE
  5
8D
330
75
100
AcDbEntity
  8
DV1_デフォルト
  6
CONTINUOUS
 62
     7
100
AcDbLine
 10
168.9138982183
 20
130.8146741461
 30
0.0
 11
168.1138982183
 21
130.8146741461
 31
0.0
  0
LINE
  5
8E
330
75
100
AcDbEntity
  8
DV1_デフォルト
  6
CONTINUOUS
 62
     7
100
AcDbLine
 10
167.6138982183
 20
102.8646741461
 30
0.0
 11
168.1138982183
 21
103.3646741461
 31
0.0
  0
LINE
  5
8F
330
75
100
AcDbEntity
  8
DV1_デフォルト
  6
CONTINUOUS
 62
     7
100
AcDbLine
 10
168.1138982183
 20
133.8646741461
 30
0.0
 11
167.6138982183
 21
134.3646741461
 31
0.0
  0
LINE
  5
90
330
75
100
AcDbEntity
  8
DV1_デフォルト
  6
CONTINUOUS
 62
     7
100
AcDbLine
 10
165.4638982125
 20
102.8646741461
 30
0.0
 11
167.6138982183
 21
102.8646741461
 31
0.0
  0
LINE
  5
91
330
75
100
AcDbEntity
  8
DV1_デフォルト
  6
CONTINUOUS
 62
     7
100
AcDbLine
 10
163.5138982183
 20
102.8646741461
 30
0.0
 11
164.1718615815
 21
102.8646741461
 31
0.0
  0
LINE
  5
92
330
75
100
AcDbEntity
  8
DV1_デフォルト
  6
CONTINUOUS
 62
     7
100
AcDbLine
 10
164.1718615801
 20
134.3646741461
 30
0.0
 11
163.5138982183
 21
134.3646741461
 31
0.0
  0
LINE
  5
93
330
75
100
AcDbEntity
  8
DV1_デフォルト
  6
CONTINUOUS
 62
     7
100
AcDbLine
 10
167.6138982183
 20
134.3646741461
 30
0.0
 11
165.4638982148
 21
134.3646741461
 31
0.0
  0
LINE
  5
94
330
75
100
AcDbEntity
  8
DV1_デフォルト
  6
CONTINUOUS
 62
     7
100
AcDbLine
 10
163.5138982183
 20
134.3646741461
 30
0.0
 11
163.3138982183
 21
134.1646741461
 31
0.0
  0
LINE
  5
95
330
75
100
AcDbEntity
  8
DV1_デフォルト
  6
CONTINUOUS
 62
     7
100
AcDbLine
 10
163.3138982183
 20
103.0646741461
 30
0.0
 11
163.5138982183
 21
102.8646741461
 31
0.0
  0
LINE
  5
96
330
75
100
AcDbEntity
  8
DV1_デフォルト
  6
CONTINUOUS
 62
     7
100
AcDbLine
 10
163.2138982183
 20
103.5146741461
 30
0.0
 11
163.3138982183
 21
103.5146741461
 31
0.0
  0
LINE
  5
97
330
75
100
AcDbEntity
  8
DV1_デフォルト
  6
CONTINUOUS
 62
     7
100
AcDbLine
 10
163.3138982183
 20
133.7146741461
 30
0.0
 11
163.2138982183
 21
133.7146741461
 31
0.0
  0
ELLIPSE
  5
98
330
75
100
AcDbEntity
  8
DV1_デフォルト
  6
CONTINUOUS
 62
     7
100
AcDbEllipse
 10
150.8138982183
 20
131.9947666346
 30
0.0
 11
-1.000000002384285
 21
0.0
 31
0.0
210
0.0
220
0.0
230
1.0
 40
0.5
 41
6.232652199639675
 42
6.283185307179586
  0
ELLIPSE
  5
99
330
75
100
AcDbEntity
  8
DV1_デフォルト
  6
CONTINUOUS
 62
     7
100
AcDbEllipse
 10
150.8138982183
 20
131.9947666346
 30
0.0
 11
-1.000000002384285
 21
0.0
 31
0.0
210
0.0
220
0.0
230
1.0
 40
0.5
 41
0.0
 42
3.192125761129704
  0
ELLIPSE
  5
9A
330
75
100
AcDbEntity
  8
DV1_デフォルト
  6
CONTINUOUS
 62
     7
100
AcDbEllipse
 10
150.9553195811
 20
121.9647640044
 30
0.0
 11
5.365817749788905
 21
10.73163527112032
 31
0.0
210
0.0
220
0.0
230
1.0
 40
0.6123724373
 41
0.631353140791509
 42
0.6547105414451502
  0
ELLIPSE
  5
9B
330
75
100
AcDbEntity
  8
DV1_デフォルト
  6
CONTINUOUS
 62
     7
100
AcDbEllipse
 10
151.2664465791
 20
122.2617486973
 30
0.0
 11
-5.358925266837632
 21
10.71785050159699
 31
0.0
210
0.0
220
0.0
230
1.0
 40
0.6123724358
 41
-0.7014104004319845
 42
-0.6680280082570773
  0
ELLIPSE
  5
9C
330
75
100
AcDbEntity
  8
DV1_デフォルト
  6
CONTINUOUS
 62
     7
100
AcDbEllipse
 10
150.6724768685
 20
122.1061853681
 30
0.0
 11
5.365817750548066
 21
10.73163526303738
 31
0.0
210
0.0
220
0.0
230
1.0
 40
0.6123724373
 41
0.6313531411629015
 42
0.6547105418250894
  0
ARC
  5
9D
330
75
100
AcDbEntity
  8
DV1_デフォルト
  6
CONTINUOUS
 62
     7
100
AcDbCircle
 10
150.8138982183
 20
132.9006172307
 30
0.0
 40
0.3028926851502308
100
AcDbArc
 50
248.0670064619
 51
291.932993538
  0
ELLIPSE
  5
9E
330
75
100
AcDbEntity
  8
DV1_デフォルト
  6
CONTINUOUS
 62
     7
100
AcDbEllipse
 10
150.9553195779
 20
122.1061850709
 30
0.0
 11
-5.365817732297714
 21
10.73163558187164
 31
0.0
210
0.0
220
0.0
230
1.0
 40
0.6123724349
 41
-0.6547105268003754
 42
-0.6313531264670473
  0
ELLIPSE
  5
9F
330
75
100
AcDbEntity
  8
DV1_デフォルト
  6
CONTINUOUS
 62
     7
100
AcDbEllipse
 10
150.3613498575
 20
122.2617486961
 30
0.0
 11
5.358925266698922
 21
10.71785050290767
 31
0.0
210
0.0
220
0.0
230
0.9999999999999998
 40
0.6123724358
 41
0.6680280081951633
 42
0.7014104003680564
  0
ELLIPSE
  5
A0
330
75
100
AcDbEntity
  8
DV1_デフォルト
  6
CONTINUOUS
 62
     7
100
AcDbEllipse
 10
150.672476855
 20
121.9647640313
 30
0.0
 11
-5.365817751780012
 21
10.73163524224053
 31
0.0
210
0.0
220
0.0
230
1.0
 40
0.6123724375
 41
-0.6547105428058924
 42
-0.6313531421222693
  0
SPLINE
  5
A1
330
75
100
AcDbEntity
  8
DV1_デフォルト
  6
CONTINUOUS
 62
     7
100
AcDbSpline
210
0.0
220
0.0
230
1.0
 70
     8
 71
     3
 72
    20
 73
    16
 74
     0
 42
0.0000000641488634
 43
0.0000000001
 40
0.0
 40
0.0
 40
0.0
 40
0.0
 40
0.2137915819336864
 40
0.2137915819336864
 40
0.2137915819336864
 40
0.4287078754073324
 40
0.4287078754073324
 40
0.4287078754073324
 40
0.643515028288448
 40
0.643515028288448
 40
0.643515028288448
 40
0.8582734605648061
 40
0.8582734605648061
 40
0.8582734605648061
 40
1.0
 40
1.0
 40
1.0
 40
1.0
 10
150.4179184208192
 20
132.3650890780712
 30
0.0
 10
150.4305073258974
 20
132.3718486796149
 30
0.0
 10
150.4411090857334
 20
132.3797022760897
 30
0.0
 10
150.4488530412113
 20
132.3880070241912
 30
0.0
 10
150.4566376225031
 20
132.3963553400986
 30
0.0
 10
150.4617475034394
 20
132.4053894808408
 30
0.0
 10
150.4637577742643
 20
132.4143607439253
 30
0.0
 10
150.4657670454706
 20
132.4233275459977
 30
0.0
 10
150.4647352273172
 20
132.4324788848735
 30
0.0
 10
150.4607480910541
 20
132.4410566461706
 30
0.0
 10
150.4567618045753
 20
132.4496325792764
 30
0.0
 10
150.4497117485683
 20
132.4578716066003
 30
0.0
 10
150.4401830007006
 20
132.4650923658474
 30
0.0
 10
150.4338446573294
 20
132.4698954787162
 30
0.0
 10
150.4263302746214
 20
132.4743279824349
 30
0.0
 10
150.4179184208192
 20
132.478226163061
 30
0.0
  0
ELLIPSE
  5
A2
330
75
100
AcDbEntity
  8
DV1_デフォルト
  6
CONTINUOUS
 62
     7
100
AcDbEllipse
 10
150.6724768657
 20
122.106185067
 30
0.0
 11
5.365817727789675
 21
10.73163558634222
 31
0.0
210
0.0
220
0.0
230
1.0
 40
0.6123724353
 41
0.7147278688304403
 42
0.7380852691554363
  0
ELLIPSE
  5
A3
330
75
100
AcDbEntity
  8
DV1_デフォルト
  6
CONTINUOUS
 62
     7
100
AcDbEllipse
 10
150.3613498574
 20
121.8092003315
 30
0.0
 11
-5.358925266381081
 21
10.7178505069973
 31
0.0
210
0.0
220
0.0
230
1.0
 40
0.6123724358
 41
-0.7014104001676067
 42
-0.6680280080008689
  0
ELLIPSE
  5
A4
330
75
100
AcDbEntity
  8
DV1_デフォルト
  6
CONTINUOUS
 62
     7
100
AcDbEllipse
 10
150.955319578
 20
121.9647637104
 30
0.0
 11
5.365817727853647
 21
10.73163558669973
 31
0.0
210
0.0
220
0.0
230
0.9999999999999999
 40
0.6123724353
 41
0.7147278688086961
 42
0.7380852691334242
  0
ARC
  5
A5
330
75
100
AcDbEntity
  8
DV1_デフォルト
  6
CONTINUOUS
 62
     7
100
AcDbCircle
 10
150.8138982183
 20
131.9841515999
 30
0.0
 40
0.2648923794243441
100
AcDbArc
 50
64.7159701425
 51
115.2840298575
  0
ELLIPSE
  5
A6
330
75
100
AcDbEntity
  8
DV1_デフォルト
  6
CONTINUOUS
 62
     7
100
AcDbEllipse
 10
150.6724768692
 20
121.9647640125
 30
0.0
 11
-5.365817758666905
 21
10.7316352618022
 31
0.0
210
0.0
220
0.0
230
1.0
 40
0.6123724364
 41
-0.7380852854725086
 42
-0.7147278848019267
  0
ELLIPSE
  5
A7
330
75
100
AcDbEntity
  8
DV1_デフォルト
  6
CONTINUOUS
 62
     7
100
AcDbEllipse
 10
151.2664465791
 20
121.8092003365
 30
0.0
 11
5.358925266840388
 21
10.71785050156777
 31
0.0
210
0.0
220
0.0
230
0.9999999999999999
 40
0.6123724358
 41
0.6680280082589357
 42
0.7014104004338738
  0
ELLIPSE
  5
A8
330
75
100
AcDbEntity
  8
DV1_デフォルト
  6
CONTINUOUS
 62
     7
100
AcDbEllipse
 10
150.9553195804
 20
122.106185343
 30
0.0
 11
-5.365817755846041
 21
10.73163528955947
 31
0.0
210
0.0
220
0.0
230
0.9999999999999998
 40
0.6123724363
 41
-0.7380852840849013
 42
-0.7147278834441471
  0
SPLINE
  5
A9
330
75
100
AcDbEntity
  8
DV1_デフォルト
  6
CONTINUOUS
 62
     7
100
AcDbSpline
210
0.0
220
0.0
230
1.0
 70
     8
 71
     3
 72
    20
 73
    16
 74
     0
 42
0.0000000641465605
 43
0.0000000001
 40
0.0
 40
0.0
 40
0.0
 40
0.0
 40
0.2137915819337176
 40
0.2137915819337176
 40
0.2137915819337176
 40
0.4287078754074082
 40
0.4287078754074082
 40
0.4287078754074082
 40
0.6435150282885326
 40
0.6435150282885326
 40
0.6435150282885326
 40
0.8582734605648848
 40
0.8582734605648848
 40
0.8582734605648848
 40
1.0
 40
1.0
 40
1.0
 40
1.0
 10
151.2098780157481
 20
132.478226163061
 30
0.0
 10
151.19728911067
 20
132.4723922735244
 30
0.0
 10
151.186687350834
 20
132.4653182042138
 30
0.0
 10
151.1789433953561
 20
132.4575828374545
 30
0.0
 10
151.1711588140643
 20
132.4498068899389
 30
0.0
 10
151.166048933128
 20
132.4411484367151
 30
0.0
 10
151.164038662303
 20
132.4323249728179
 30
0.0
 10
151.1620293910968
 20
132.4235058964387
 30
0.0
 10
151.1630612092502
 20
132.4142786981439
 30
0.0
 10
151.1670483455133
 20
132.4054077913819
 30
0.0
 10
151.1710346319921
 20
132.3965387752897
 30
0.0
 10
151.1780846879991
 20
132.3877814040002
 30
0.0
 10
151.1876134358668
 20
132.3798600134345
 30
0.0
 10
151.1939517792379
 20
132.3745908538262
 30
0.0
 10
151.201466161946
 20
132.3696058155947
 30
0.0
 10
151.2098780157481
 20
132.3650890780711
 30
0.0
  0
LINE
  5
AA
330
75
100
AcDbEntity
  8
DV1_デフォルト
  6
CONTINUOUS
 62
     7
100
AcDbLine
 10
150.5027712137
 20
132.7085279679
 30
0.0
 11
150.5027712137
 21
132.5515591142
 31
0.0
  0
LINE
  5
AB
330
75
100
AcDbEntity
  8
DV1_デフォルト
  6
CONTINUOUS
 62
     7
100
AcDbLine
 10
151.1250252229
 20
132.7085279679
 30
0.0
 11
151.1250252229
 21
132.5515591142
 31
0.0
  0
ELLIPSE
  5
AC
330
75
100
AcDbEntity
  8
DV1_デフォルト
  6
CONTINUOUS
 62
     7
100
AcDbEllipse
 10
151.3230563154
 20
132.2545742557
 30
0.0
 11
0.1600291457890639
 21
0.0
 31
0.0
210
0.0
220
0.0
230
1.0
 40
0.5
 41
3.141592653589793
 42
3.926808705563293
  0
LINE
  5
AD
330
75
100
AcDbEntity
  8
DV1_デフォルト
  6
CONTINUOUS
 62
     7
100
AcDbLine
 10
151.2098780157
 20
132.1980057132
 30
0.0
 11
151.2494743664
 21
132.1782075378
 31
0.0
  0
LINE
  5
AE
330
75
100
AcDbEntity
  8
DV1_デフォルト
  6
CONTINUOUS
 62
     7
100
AcDbLine
 10
150.3783220702
 20
132.1782075378
 30
0.0
 11
150.4179184208
 21
132.1980057132
 31
0.0
  0
ELLIPSE
  5
AF
330
75
100
AcDbEntity
  8
DV1_デフォルト
  6
CONTINUOUS
 62
     7
100
AcDbEllipse
 10
150.3047401212
 20
132.2545742557
 30
0.0
 11
-0.16002914578905
 21
0.0
 31
0.0
210
0.0
220
0.0
230
1.0
 40
0.5
 41
2.356376601616128
 42
3.141592653589793
  0
LINE
  5
B0
330
75
100
AcDbEntity
  8
DV1_デフォルト
  6
CONTINUOUS
 62
     7
100
AcDbLine
 10
150.3857546165
 20
132.4930508156
 30
0.0
 11
150.5027712137
 21
132.5515591142
 31
0.0
  0
LINE
  5
B1
330
75
100
AcDbEntity
  8
DV1_デフォルト
  6
CONTINUOUS
 62
     7
100
AcDbLine
 10
150.5027712137
 20
132.5515591142
 30
0.0
 11
150.7007611333
 21
132.4525641544
 31
0.0
  0
ELLIPSE
  5
B2
330
75
100
AcDbEntity
  8
DV1_デフォルト
  6
CONTINUOUS
 62
     7
100
AcDbEllipse
 10
150.8138982183
 20
132.5091330945
 30
0.0
 11
-0.1600005623866793
 21
0.0
 31
0.0
210
0.0
220
0.0
230
1.0
 40
0.5
 41
0.7854016782955636
 42
2.356190975293978
  0
LINE
  5
B3
330
75
100
AcDbEntity
  8
DV1_デフォルト
  6
CONTINUOUS
 62
     7
100
AcDbLine
 10
150.9270353033
 20
132.4525641544
 30
0.0
 11
151.1250252229
 21
132.5515591142
 31
0.0
  0
LINE
  5
B4
330
75
100
AcDbEntity
  8
DV1_デフォルト
  6
CONTINUOUS
 62
     7
100
AcDbLine
 10
151.1250252229
 20
132.5515591142
 30
0.0
 11
151.2420418201
 21
132.4930508156
 31
0.0
  0
LINE
  5
B5
330
75
100
AcDbEntity
  8
DV1_デフォルト
  6
CONTINUOUS
 62
     7
100
AcDbLine
 10
151.8126216949
 20
132.0200224363
 30
0.0
 11
151.7871129489
 21
132.272203932
 31
0.0
  0
LINE
  5
B6
330
75
100
AcDbEntity
  8
DV1_デフォルト
  6
CONTINUOUS
 62
     7
100
AcDbLine
 10
149.8406834877
 20
132.272203932
 30
0.0
 11
149.8151747417
 21
132.0200224363
 31
0.0
  0
SPLINE
  5
B7
330
75
100
AcDbEntity
  8
DV1_デフォルト
  6
CONTINUOUS
 62
     7
100
AcDbSpline
210
0.0
220
0.0
230
1.0
 70
     8
 71
     3
 72
    27
 73
    23
 74
     0
 42
0.0000000041159014
 43
0.0000000001
 40
0.0
 40
0.0
 40
0.0
 40
0.0
 40
0.0126428936905173
 40
0.0582097168346247
 40
0.1041039313837467
 40
0.1521747113568081
 40
0.2035695911282655
 40
0.2580511679121463
 40
0.3140223868991578
 40
0.3697507165665423
 40
0.4249574191273651
 40
0.479778427112919
 40
0.5344532855377523
 40
0.5892294084259533
 40
0.6443096249032303
 40
0.7000011357992771
 40
0.7566373807390727
 40
0.814461125577399
 40
0.8660051049582473
 40
0.9142155417825845
 40
0.9596737139049365
 40
1.0
 40
1.0
 40
1.0
 40
1.0
 10
151.7842260893816
 20
132.2759083442414
 30
0.0
 10
151.7839659964321
 20
132.2857956868152
 30
0.0
 10
151.782770872495
 20
132.3247428708224
 30
0.0
 10
151.7565174901723
 20
132.3976970301197
 30
0.0
 10
151.7081047852622
 20
132.483245340141
 30
0.0
 10
151.6381397836527
 20
132.5619439133114
 30
0.0
 10
151.5484669112402
 20
132.6329156223082
 30
0.0
 10
151.4383772533005
 20
132.6951811212786
 30
0.0
 10
151.3107247504448
 20
132.7464118431116
 30
0.0
 10
151.1701363181052
 20
132.7849175856325
 30
0.0
 10
151.0214472410668
 20
132.8099826115411
 30
0.0
 10
150.8683665314083
 20
132.8215137369951
 30
0.0
 10
150.7142823070771
 20
132.8195278916387
 30
0.0
 10
150.5625257324416
 20
132.8040747034777
 30
0.0
 10
150.4162840341656
 20
132.7752045286769
 30
0.0
 10
150.2785168776211
 20
132.7328546483258
 30
0.0
 10
150.1519541534227
 20
132.6765890207511
 30
0.0
 10
150.0443511160761
 20
132.6085115963304
 30
0.0
 10
149.9585770944452
 20
132.5308108126031
 30
0.0
 10
149.8966247262431
 20
132.4480401283161
 30
0.0
 10
149.8550361987359
 20
132.3593574865982
 30
0.0
 10
149.8460550493081
 20
132.3032359728139
 30
0.0
 10
149.8414821822946
 20
132.2719887950136
 30
0.0
  0
LINE
  5
B8
330
75
100
AcDbEntity
  8
DV1_デフォルト
  6
CONTINUOUS
 62
     7
100
AcDbLine
 10
151.1630271696
 20
132.4277793365
 30
0.0
 11
151.1630271696
 21
132.2545742557
 31
0.0
  0
LINE
  5
B9
330
75
100
AcDbEntity
  8
DV1_デフォルト
  6
CONTINUOUS
 62
     7
100
AcDbLine
 10
150.464769267
 20
132.2545742557
 30
0.0
 11
150.464769267
 21
132.4277793365
 31
0.0
  0
LINE
  5
BA
330
75
100
AcDbEntity
  8
DV1_デフォルト
  6
CONTINUOUS
 62
     7
100
AcDbLine
 10
164.2605764262
 20
118.9417217899
 30
0.0
 11
165.1395914521
 21
118.062706764
 31
0.0
  0
LINE
  5
BB
330
75
100
AcDbEntity
  8
DV1_デフォルト
  6
CONTINUOUS
 62
     7
100
AcDbLine
 10
164.48649557
 20
119.168350986
 30
0.0
 11
165.3714518436
 21
118.2833947124
 31
0.0
  0
ELLIPSE
  5
BC
330
75
100
AcDbEntity
  8
DV1_デフォルト
  6
CONTINUOUS
 62
     7
100
AcDbEllipse
 10
150.8138982183
 20
105.2345816576
 30
0.0
 11
-1.000000002384285
 21
-1.734723475976807E-15
 31
0.0
210
0.0
220
0.0
230
1.0
 40
0.5
 41
3.091059546049883
 42
6.283185307179583
  0
ELLIPSE
  5
BD
330
75
100
AcDbEntity
  8
DV1_デフォルト
  6
CONTINUOUS
 62
     7
100
AcDbEllipse
 10
150.8138982183
 20
105.2345816576
 30
0.0
 11
-1.000000002384285
 21
-1.734723475976807E-15
 31
0.0
210
0.0
220
0.0
230
1.0
 40
0.5
 41
0.0
 42
0.0505331075399108
  0
ELLIPSE
  5
BE
330
75
100
AcDbEntity
  8
DV1_デフォルト
  6
CONTINUOUS
 62
     7
100
AcDbEllipse
 10
150.9553195813
 20
115.1231629347
 30
0.0
 11
-5.36581775751615
 21
-10.73163527390296
 31
0.0
210
0.0
220
0.0
230
0.9999999999999999
 40
0.6123724363
 41
0.7147278842078214
 42
0.7380852848655195
  0
ELLIPSE
  5
BF
330
75
100
AcDbEntity
  8
DV1_デフォルト
  6
CONTINUOUS
 62
     7
100
AcDbEllipse
 10
151.2664465791
 20
115.4201479583
 30
0.0
 11
5.358925266578208
 21
-10.71785050438417
 31
0.0
210
0.0
220
0.0
230
1.0
 40
0.6123724358
 41
-0.7014104002954547
 42
-0.6680280081247565
  0
ELLIPSE
  5
C0
330
75
100
AcDbEntity
  8
DV1_デフォルト
  6
CONTINUOUS
 62
     7
100
AcDbEllipse
 10
150.6724768686
 20
115.2645842831
 30
0.0
 11
-5.365817758098159
 21
-10.73163526550004
 31
0.0
210
0.0
220
0.0
230
1.0
 40
0.6123724364
 41
0.714727884629644
 42
0.738085285295965
  0
ARC
  5
C1
330
75
100
AcDbEntity
  8
DV1_デフォルト
  6
CONTINUOUS
 62
     7
100
AcDbCircle
 10
150.8138982183
 20
105.2451966923
 30
0.0
 40
0.2648923794243396
100
AcDbArc
 50
244.7159701425
 51
295.2840298575
  0
ELLIPSE
  5
C2
330
75
100
AcDbEntity
  8
DV1_デフォルト
  6
CONTINUOUS
 62
     7
100
AcDbEllipse
 10
150.9553195779
 20
115.2645845744
 30
0.0
 11
5.365817728503798
 21
-10.73163557879121
 31
0.0
210
0.0
220
0.0
230
1.0
 40
0.6123724354
 41
-0.7380852695338183
 42
-0.7147278692007477
  0
ELLIPSE
  5
C3
330
75
100
AcDbEntity
  8
DV1_デフォルト
  6
CONTINUOUS
 62
     7
100
AcDbEllipse
 10
150.3613498575
 20
115.4201479572
 30
0.0
 11
-5.358925266717551
 21
-10.71785050316829
 31
0.0
210
0.0
220
0.0
230
1.0
 40
0.6123724358
 41
0.6680280081824435
 42
0.7014104003549987
  0
ELLIPSE
  5
C4
330
75
100
AcDbEntity
  8
DV1_デフォルト
  6
CONTINUOUS
 62
     7
100
AcDbEllipse
 10
150.6724768654
 20
115.1231632216
 30
0.0
 11
5.365817728259787
 21
-10.73163558248704
 31
0.0
210
0.0
220
0.0
230
0.9999999999999999
 40
0.6123724353
 41
-0.7380852693459614
 42
-0.714727869016758
  0
SPLINE
  5
C5
330
75
100
AcDbEntity
  8
DV1_デフォルト
  6
CONTINUOUS
 62
     7
100
AcDbSpline
210
0.0
220
0.0
230
1.0
 70
     8
 71
     3
 72
    20
 73
    16
 74
     0
 42
0.0000000641465605
 43
0.0000000001
 40
0.0
 40
0.0
 40
0.0
 40
0.0
 40
0.2137915819336864
 40
0.2137915819336864
 40
0.2137915819336864
 40
0.4287078754073324
 40
0.4287078754073324
 40
0.4287078754073324
 40
0.643515028288448
 40
0.643515028288448
 40
0.643515028288448
 40
0.8582734605648061
 40
0.8582734605648061
 40
0.8582734605648061
 40
1.0
 40
1.0
 40
1.0
 40
1.0
 10
150.4179184208193
 20
104.751122129127
 30
0.0
 10
150.4305073258974
 20
104.7569560186636
 30
0.0
 10
150.4411090857334
 20
104.7640300879742
 30
0.0
 10
150.4488530412113
 20
104.7717654547336
 30
0.0
 10
150.4566376225031
 20
104.7795414022491
 30
0.0
 10
150.4617475034394
 20
104.7881998554729
 30
0.0
 10
150.4637577742643
 20
104.7970233193702
 30
0.0
 10
150.4657670454706
 20
104.8058423957494
 30
0.0
 10
150.4647352273172
 20
104.8150695940441
 30
0.0
 10
150.4607480910541
 20
104.8239405008061
 30
0.0
 10
150.4567618045753
 20
104.8328095168984
 30
0.0
 10
150.4497117485683
 20
104.8415668881879
 30
0.0
 10
150.4401830007006
 20
104.8494882787536
 30
0.0
 10
150.4338446573294
 20
104.8547574383619
 30
0.0
 10
150.4263302746214
 20
104.8597424765934
 30
0.0
 10
150.4179184208193
 20
104.8642592141169
 30
0.0
  0
ELLIPSE
  5
C6
330
75
100
AcDbEntity
  8
DV1_デフォルト
  6
CONTINUOUS
 62
     7
100
AcDbEllipse
 10
150.6724768656
 20
115.2645845816
 30
0.0
 11
-5.365817732051131
 21
-10.73163558620528
 31
0.0
210
0.0
220
0.0
230
0.9999999999999999
 40
0.6123724349
 41
0.631353126266529
 42
0.6547105265954014
  0
ELLIPSE
  5
C7
330
75
100
AcDbEntity
  8
DV1_デフォルト
  6
CONTINUOUS
 62
     7
100
AcDbEllipse
 10
150.3613498574
 20
114.9675995963
 30
0.0
 11
5.358925266714325
 21
-10.7178505031485
 31
0.0
210
0.0
220
0.0
230
1.0
 40
0.6123724358
 41
-0.701410400355619
 42
-0.6680280081830583
  0
ELLIPSE
  5
C8
330
75
100
AcDbEntity
  8
DV1_デフォルト
  6
CONTINUOUS
 62
     7
100
AcDbEllipse
 10
150.9553195779
 20
115.1231632251
 30
0.0
 11
-5.365817731940018
 21
-10.73163558600402
 31
0.0
210
0.0
220
0.0
230
0.9999999999999999
 40
0.6123724349
 41
0.6313531262763403
 42
0.6547105266053668
  0
ARC
  5
C9
330
75
100
AcDbEntity
  8
DV1_デフォルト
  6
CONTINUOUS
 62
     7
100
AcDbCircle
 10
150.8138982183
 20
104.3287310615
 30
0.0
 40
0.302892685150234
100
AcDbArc
 50
68.0670064619
 51
111.932993538
  0
ELLIPSE
  5
CA
330
75
100
AcDbEntity
  8
DV1_デフォルト
  6
CONTINUOUS
 62
     7
100
AcDbEllipse
 10
150.6724768691
 20
115.12316292
 30
0.0
 11
5.365817750474433
 21
-10.73163525870313
 31
0.0
210
0.0
220
0.0
230
1.0
 40
0.6123724374
 41
-0.654710542030565
 42
-0.6313531413641567
  0
ELLIPSE
  5
CB
330
75
100
AcDbEntity
  8
DV1_デフォルト
  6
CONTINUOUS
 62
     7
100
AcDbEllipse
 10
151.2664465791
 20
114.9675995975
 30
0.0
 11
-5.358925266590757
 21
-10.71785050437426
 31
0.0
210
0.0
220
0.0
230
0.9999999999999998
 40
0.6123724358
 41
0.6680280081257298
 42
0.7014104002964144
  0
ELLIPSE
  5
CC
330
75
100
AcDbEntity
  8
DV1_デフォルト
  6
CONTINUOUS
 62
     7
100
AcDbEllipse
 10
150.9553195805
 20
115.2645842957
 30
0.0
 11
5.365817749587888
 21
-10.7316352795653
 31
0.0
210
0.0
220
0.0
230
1.0
 40
0.6123724372
 41
-0.65471054104676
 42
-0.6313531404016466
  0
SPLINE
  5
CD
330
75
100
AcDbEntity
  8
DV1_デフォルト
  6
CONTINUOUS
 62
     7
100
AcDbSpline
210
0.0
220
0.0
230
1.0
 70
     8
 71
     3
 72
    20
 73
    16
 74
     0
 42
0.0000000641488634
 43
0.0000000001
 40
0.0
 40
0.0
 40
0.0
 40
0.0
 40
0.2137915819337176
 40
0.2137915819337176
 40
0.2137915819337176
 40
0.4287078754074082
 40
0.4287078754074082
 40
0.4287078754074082
 40
0.6435150282885326
 40
0.6435150282885326
 40
0.6435150282885326
 40
0.8582734605648848
 40
0.8582734605648848
 40
0.8582734605648848
 40
1.0
 40
1.0
 40
1.0
 40
1.0
 10
151.2098780157481
 20
104.8642592141169
 30
0.0
 10
151.19728911067
 20
104.8574996125732
 30
0.0
 10
151.186687350834
 20
104.8496460160983
 30
0.0
 10
151.1789433953561
 20
104.8413412679969
 30
0.0
 10
151.1711588140643
 20
104.8329929520895
 30
0.0
 10
151.166048933128
 20
104.8239588113473
 30
0.0
 10
151.164038662303
 20
104.8149875482628
 30
0.0
 10
151.1620293910968
 20
104.8060207461903
 30
0.0
 10
151.1630612092502
 20
104.7968694073145
 30
0.0
 10
151.1670483455133
 20
104.7882916460175
 30
0.0
 10
151.1710346319921
 20
104.7797157129116
 30
0.0
 10
151.1780846879991
 20
104.7714766855877
 30
0.0
 10
151.1876134358668
 20
104.7642559263407
 30
0.0
 10
151.193951779238
 20
104.7594528134718
 30
0.0
 10
151.201466161946
 20
104.7550203097531
 30
0.0
 10
151.2098780157481
 20
104.7511221291271
 30
0.0
  0
LINE
  5
CE
330
75
100
AcDbEntity
  8
DV1_デフォルト
  6
CONTINUOUS
 62
     7
100
AcDbLine
 10
151.1250252229
 20
104.5208203243
 30
0.0
 11
151.1250252229
 21
104.677789178
 31
0.0
  0
LINE
  5
CF
330
75
100
AcDbEntity
  8
DV1_デフォルト
  6
CONTINUOUS
 62
     7
100
AcDbLine
 10
150.5027712137
 20
104.5208203243
 30
0.0
 11
150.5027712137
 21
104.677789178
 31
0.0
  0
ELLIPSE
  5
D0
330
75
100
AcDbEntity
  8
DV1_デフォルト
  6
CONTINUOUS
 62
     7
100
AcDbEllipse
 10
151.3230563154
 20
104.9747740365
 30
0.0
 11
0.1600291457890604
 21
3.469446951953614E-15
 31
0.0
210
0.0
220
0.0
230
1.0
 40
0.5
 41
2.356376601616052
 42
3.141592653589793
  0
LINE
  5
D1
330
75
100
AcDbEntity
  8
DV1_デフォルト
  6
CONTINUOUS
 62
     7
100
AcDbLine
 10
151.2420418201
 20
104.7362974766
 30
0.0
 11
151.1250252229
 21
104.677789178
 31
0.0
  0
LINE
  5
D2
330
75
100
AcDbEntity
  8
DV1_デフォルト
  6
CONTINUOUS
 62
     7
100
AcDbLine
 10
151.1250252229
 20
104.677789178
 30
0.0
 11
150.9270353033
 21
104.7767841378
 31
0.0
  0
ELLIPSE
  5
D3
330
75
100
AcDbEntity
  8
DV1_デフォルト
  6
CONTINUOUS
 62
     7
100
AcDbEllipse
 10
150.8138982183
 20
104.7202151976
 30
0.0
 11
0.1600005623866932
 21
0.0
 31
0.0
210
0.0
220
0.0
230
1.0
 40
0.5
 41
0.7854016782959016
 42
2.356190975293892
  0
LINE
  5
D4
330
75
100
AcDbEntity
  8
DV1_デフォルト
  6
CONTINUOUS
 62
     7
100
AcDbLine
 10
150.7007611333
 20
104.7767841378
 30
0.0
 11
150.5027712137
 21
104.677789178
 31
0.0
  0
LINE
  5
D5
330
75
100
AcDbEntity
  8
DV1_デフォルト
  6
CONTINUOUS
 62
     7
100
AcDbLine
 10
150.5027712137
 20
104.677789178
 30
0.0
 11
150.3857546165
 21
104.7362974766
 31
0.0
  0
ELLIPSE
  5
D6
330
75
100
AcDbEntity
  8
DV1_デフォルト
  6
CONTINUOUS
 62
     7
100
AcDbEllipse
 10
150.3047401212
 20
104.9747740365
 30
0.0
 11
-0.1600291457890465
 21
0.0
 31
0.0
210
0.0
220
0.0
230
1.0
 40
0.5
 41
3.141592653589793
 42
3.926808705563687
  0
LINE
  5
D7
330
75
100
AcDbEntity
  8
DV1_デフォルト
  6
CONTINUOUS
 62
     7
100
AcDbLine
 10
150.4179184208
 20
105.031342579
 30
0.0
 11
150.3783220702
 21
105.0511407544
 31
0.0
  0
LINE
  5
D8
330
75
100
AcDbEntity
  8
DV1_デフォルト
  6
CONTINUOUS
 62
     7
100
AcDbLine
 10
151.2494743664
 20
105.0511407544
 30
0.0
 11
151.2098780157
 21
105.031342579
 31
0.0
  0
LINE
  5
D9
330
75
100
AcDbEntity
  8
DV1_デフォルト
  6
CONTINUOUS
 62
     7
100
AcDbLine
 10
149.8151747417
 20
105.2093258558
 30
0.0
 11
149.8406834877
 21
104.9571443602
 31
0.0
  0
LINE
  5
DA
330
75
100
AcDbEntity
  8
DV1_デフォルト
  6
CONTINUOUS
 62
     7
100
AcDbLine
 10
151.7871129489
 20
104.9571443602
 30
0.0
 11
151.8126216949
 21
105.2093258558
 31
0.0
  0
SPLINE
  5
DB
330
75
100
AcDbEntity
  8
DV1_デフォルト
  6
CONTINUOUS
 62
     7
100
AcDbSpline
210
0.0
220
0.0
230
1.0
 70
     8
 71
     3
 72
    27
 73
    23
 74
     0
 42
0.0000000041241911
 43
0.0000000001
 40
0.0
 40
0.0
 40
0.0
 40
0.0
 40
0.016169160288777
 40
0.0618205019325605
 40
0.1078503910390078
 40
0.1561038724400263
 40
0.2077034035751429
 40
0.2623672389303974
 40
0.3184729291264614
 40
0.3743090515314748
 40
0.4296228056879829
 40
0.4845557739037905
 40
0.5393490563426552
 40
0.5942486253748609
 40
0.6494606996721011
 40
0.7052940895112476
 40
0.7620829578519236
 40
0.820063950843821
 40
0.8716294474511914
 40
0.9198485406373775
 40
0.9653431629787477
 40
1.0
 40
1.0
 40
1.0
 40
1.0
 10
149.8422725124035
 20
104.9582150126911
 30
0.0
 10
149.8430984065116
 20
104.9456152113631
 30
0.0
 10
149.8460601450854
 20
104.9045294093555
 30
0.0
 10
149.8718655752167
 20
104.8292455110394
 30
0.0
 10
149.9214229568487
 20
104.7439202980269
 30
0.0
 10
149.9917398175229
 20
104.6654147350634
 30
0.0
 10
150.0820116708763
 20
104.5946542693902
 30
0.0
 10
150.1926022873338
 20
104.5326515578153
 30
0.0
 10
150.3206704864407
 20
104.4817410407792
 30
0.0
 10
150.4615346810255
 20
104.4435875504696
 30
0.0
 10
150.6103868196472
 20
104.4188828765579
 30
0.0
 10
150.7635375281355
 20
104.40771233359
 30
0.0
 10
150.917601763424
 20
104.4100578008083
 30
0.0
 10
151.0692510734245
 20
104.425868780984
 30
0.0
 10
151.2153038331708
 20
104.4550960489996
 30
0.0
 10
151.3528068294982
 20
104.4978087175776
 30
0.0
 10
151.4790357676678
 20
104.55445482605
 30
0.0
 10
151.5861503493017
 20
104.6228853954854
 30
0.0
 10
151.671391671974
 20
104.700884598913
 30
0.0
 10
151.7325713616601
 20
104.7838548240746
 30
0.0
 10
151.7722576501111
 20
104.8688891155497
 30
0.0
 10
151.7804014477281
 20
104.921328619684
 30
0.0
 10
151.7842422976005
 20
104.9481299893396
 30
0.0
  0
LINE
  5
DC
330
75
100
AcDbEntity
  8
DV1_デフォルト
  6
CONTINUOUS
 62
     7
100
AcDbLine
 10
151.1630271696
 20
104.9747740365
 30
0.0
 11
151.1630271696
 21
104.8015689557
 31
0.0
  0
LINE
  5
DD
330
75
100
AcDbEntity
  8
DV1_デフォルト
  6
CONTINUOUS
 62
     7
100
AcDbLine
 10
150.464769267
 20
104.8015689557
 30
0.0
 11
150.464769267
 21
104.9747740365
 31
0.0
  0
LINE
  5
DE
330
75
100
AcDbEntity
  8
DV1_デフォルト
  6
CONTINUOUS
 62
     7
100
AcDbLine
 10
174.7138982183
 20
108.8646741461
 30
0.0
 11
174.7138982183
 21
128.3646741461
 31
0.0
  0
LINE
  5
DF
330
75
100
AcDbEntity
  8
DV1_デフォルト
  6
CONTINUOUS
 62
     7
100
AcDbLine
 10
174.9138982183
 20
109.0646741461
 30
0.0
 11
174.9138982183
 21
128.1646741461
 31
0.0
  0
LINE
  5
E0
330
75
100
AcDbEntity
  8
DV1_デフォルト
  6
CONTINUOUS
 62
     7
100
AcDbLine
 10
173.2138982183
 20
129.8535575426
 30
0.0
 11
173.2138982183
 21
129.8646741461
 31
0.0
  0
LINE
  5
E1
330
75
100
AcDbEntity
  8
DV1_デフォルト
  6
CONTINUOUS
 62
     7
100
AcDbLine
 10
173.2138982183
 20
129.8535575426
 30
0.0
 11
173.5138982183
 21
129.8535575426
 31
0.0
  0
LINE
  5
E2
330
75
100
AcDbEntity
  8
DV1_デフォルト
  6
CONTINUOUS
 62
     7
100
AcDbLine
 10
173.5138982183
 20
129.8535575426
 30
0.0
 11
173.7138982183
 21
129.6533561326
 31
0.0
  0
LINE
  5
E3
330
75
100
AcDbEntity
  8
DV1_デフォルト
  6
CONTINUOUS
 62
     7
100
AcDbLine
 10
173.7138982183
 20
107.5759921596
 30
0.0
 11
173.7138982183
 21
129.6533561326
 31
0.0
  0
LINE
  5
E4
330
75
100
AcDbEntity
  8
DV1_デフォルト
  6
CONTINUOUS
 62
     7
100
AcDbLine
 10
173.5138982183
 20
107.3757907496
 30
0.0
 11
173.5138982183
 21
129.8535575426
 31
0.0
  0
LINE
  5
E5
330
75
100
AcDbEntity
  8
DV1_デフォルト
  6
CONTINUOUS
 62
     7
100
AcDbLine
 10
173.2138982183
 20
107.3757907496
 30
0.0
 11
173.2138982183
 21
107.3646741461
 31
0.0
  0
LINE
  5
E6
330
75
100
AcDbEntity
  8
DV1_デフォルト
  6
CONTINUOUS
 62
     7
100
AcDbLine
 10
173.2138982183
 20
107.3757907496
 30
0.0
 11
173.5138982183
 21
107.3757907496
 31
0.0
  0
LINE
  5
E7
330
75
100
AcDbEntity
  8
DV1_デフォルト
  6
CONTINUOUS
 62
     7
100
AcDbLine
 10
173.5138982183
 20
107.3757907496
 30
0.0
 11
173.7138982183
 21
107.5759921596
 31
0.0
  0
LINE
  5
E8
330
75
100
AcDbEntity
  8
DV1_デフォルト
  6
CONTINUOUS
 62
     7
100
AcDbLine
 10
173.7138982183
 20
108.8646741461
 30
0.0
 11
174.7138982183
 21
108.8646741461
 31
0.0
  0
LINE
  5
E9
330
75
100
AcDbEntity
  8
DV1_デフォルト
  6
CONTINUOUS
 62
     7
100
AcDbLine
 10
174.7138982183
 20
128.3646741461
 30
0.0
 11
173.7138982183
 21
128.3646741461
 31
0.0
  0
LINE
  5
EA
330
75
100
AcDbEntity
  8
DV1_デフォルト
  6
CONTINUOUS
 62
     7
100
AcDbLine
 10
174.7138982183
 20
108.8646741461
 30
0.0
 11
174.9138982183
 21
109.0646741461
 31
0.0
  0
LINE
  5
EB
330
75
100
AcDbEntity
  8
DV1_デフォルト
  6
CONTINUOUS
 62
     7
100
AcDbLine
 10
174.9138982183
 20
128.1646741461
 30
0.0
 11
174.7138982183
 21
128.3646741461
 31
0.0
  0
LINE
  5
EC
330
75
100
AcDbEntity
  8
DV1_デフォルト
  6
CONTINUOUS
 62
     7
100
AcDbLine
 10
172.1138982183
 20
107.3646741461
 30
0.0
 11
173.2138982183
 21
107.3646741461
 31
0.0
  0
LINE
  5
ED
330
75
100
AcDbEntity
  8
DV1_デフォルト
  6
CONTINUOUS
 62
     7
100
AcDbLine
 10
173.2138982183
 20
129.8646741461
 30
0.0
 11
172.1138982183
 21
129.8646741461
 31
0.0
  0
LINE
  5
EE
330
75
100
AcDbEntity
  8
DV1_デフォルト
  6
CONTINUOUS
 62
     7
100
AcDbLine
 10
148.6138982183
 20
118.3647081912
 30
0.0
 11
155.1138982183
 21
118.3647081912
 31
0.0
  0
LINE
  5
EF
330
75
100
AcDbEntity
  8
DV1_デフォルト
  6
CONTINUOUS
 62
     7
100
AcDbLine
 10
148.6138982183
 20
118.864640101
 30
0.0
 11
155.1138982183
 21
118.864640101
 31
0.0
  0
LINE
  5
F0
330
75
100
AcDbEntity
  8
DV1_デフォルト
  6
CONTINUOUS
 62
     7
100
AcDbLine
 10
148.6138982183
 20
103.7146741461
 30
0.0
 11
155.1138982183
 21
103.7146741461
 31
0.0
  0
LINE
  5
F1
330
75
100
AcDbEntity
  8
DV1_デフォルト
  6
CONTINUOUS
 62
     7
100
AcDbLine
 10
155.1138982183
 20
133.5146741461
 30
0.0
 11
148.6138982183
 21
133.5146741461
 31
0.0
  0
ELLIPSE
  5
F2
330
75
100
AcDbEntity
  8
DV1_デフォルト
  6
CONTINUOUS
 62
     7
100
AcDbEllipse
 10
158.6138982183
 20
102.4354410754
 30
0.0
 11
0.7500000000000007
 21
0.0
 31
0.0
210
0.0
220
0.0
230
1.0
 40
0.2588246824
 41
-3.508800674147674
 42
-3.453150011687221
  0
ELLIPSE
  5
F3
330
75
100
AcDbEntity
  8
DV1_デフォルト
  6
CONTINUOUS
 62
     7
100
AcDbEllipse
 10
158.6138982183
 20
102.4354410754
 30
0.0
 11
0.7500000000000007
 21
0.0
 31
0.0
210
0.0
220
0.0
230
1.0
 40
0.2588246824
 41
3.684659128901233
 42
5.818348190450192
  0
ELLIPSE
  5
F4
330
75
100
AcDbEntity
  8
DV1_デフォルト
  6
CONTINUOUS
 62
     7
100
AcDbEllipse
 10
158.6138982183
 20
102.4354410754
 30
0.0
 11
1.000000002384286
 21
0.0
 31
0.0
210
0.0
220
0.0
230
1.0
 40
0.2588246824
 41
0.0
 42
0.7649325266677678
  0
ELLIPSE
  5
F5
330
75
100
AcDbEntity
  8
DV1_デフォルト
  6
CONTINUOUS
 62
     7
100
AcDbEllipse
 10
158.6138982183
 20
102.4354410754
 30
0.0
 11
1.000000002384286
 21
0.0
 31
0.0
210
0.0
220
0.0
230
1.0
 40
0.2588246824
 41
2.376660126922026
 42
6.283185307179586
  0
LINE
  5
F6
330
75
100
AcDbEntity
  8
DV1_デフォルト
  6
CONTINUOUS
 62
     7
100
AcDbLine
 10
157.9138982183
 20
102.6146741461
 30
0.0
 11
157.9138982183
 21
102.4837372912
 31
0.0
  0
LINE
  5
F7
330
75
100
AcDbEntity
  8
DV1_デフォルト
  6
CONTINUOUS
 62
     7
100
AcDbLine
 10
159.3138982183
 20
102.4837372912
 30
0.0
 11
159.3138982183
 21
102.6146741461
 31
0.0
  0
LINE
  5
F8
330
75
100
AcDbEntity
  8
DV1_デフォルト
  6
CONTINUOUS
 62
     7
100
AcDbLine
 10
157.6141730423
 20
102.4293734318
 30
0.0
 11
157.639707373
 21
102.1475374594
 31
0.0
  0
LINE
  5
F9
330
75
100
AcDbEntity
  8
DV1_デフォルト
  6
CONTINUOUS
 62
     7
100
AcDbLine
 10
159.5880890635
 20
102.1475374594
 30
0.0
 11
159.6136233943
 21
102.4293734318
 31
0.0
  0
SPLINE
  5
FA
330
75
100
AcDbEntity
  8
DV1_デフォルト
  6
CONTINUOUS
 62
     7
100
AcDbSpline
210
0.0
220
0.0
230
1.0
 70
     8
 71
     3
 72
    25
 73
    21
 74
     0
 42
0.0000000051818757
 43
0.0000000001
 40
0.0
 40
0.0
 40
0.0
 40
0.0
 40
0.019906870009343
 40
0.0607327679541044
 40
0.1013049400708033
 40
0.1454760547263503
 40
0.198100934862994
 40
0.2646000503653091
 40
0.3371714763136415
 40
0.4052149014134304
 40
0.4706337105645843
 40
0.5348003922000015
 40
0.5983990822434263
 40
0.661846694617695
 40
0.7254276041974231
 40
0.7894537154759489
 40
0.8544300169582761
 40
0.9212402593226772
 40
0.9913295666207335
 40
1.0
 40
1.0
 40
1.0
 40
1.0
 10
157.6430267587339
 20
102.1463287701209
 30
0.0
 10
157.6434833034409
 20
102.1329020832795
 30
0.0
 10
157.6449025320387
 20
102.0980488397671
 30
0.0
 10
157.6711679669949
 20
102.0405893231236
 30
0.0
 10
157.7124563951292
 20
101.9847936960817
 30
0.0
 10
157.7669120532871
 20
101.9378665518874
 30
0.0
 10
157.8376542368404
 20
101.8957877140856
 30
0.0
 10
157.9315004682076
 20
101.857418843882
 30
0.0
 10
158.0492163687654
 20
101.8246196903863
 30
0.0
 10
158.1824847665426
 20
101.7994224506099
 30
0.0
 10
158.3225590713331
 20
101.7820720036805
 30
0.0
 10
158.4677000874051
 20
101.771845738371
 30
0.0
 10
158.6154745179906
 20
101.7685087904444
 30
0.0
 10
158.7627428792664
 20
101.7719814984696
 30
0.0
 10
158.906189636114
 20
101.782205964866
 30
0.0
 10
159.0426044357088
 20
101.799089834109
 30
0.0
 10
159.1698837134738
 20
101.8229007730383
 30
0.0
 10
159.2853108650772
 20
101.8538260131371
 30
0.0
 10
159.3600990049764
 20
101.883139708466
 30
0.0
 10
159.3942288960153
 20
101.90040043929
 30
0.0
 10
159.3985893536705
 20
101.9026170250993
 30
0.0
  0
SPLINE
  5
FB
330
75
100
AcDbEntity
  8
DV1_デフォルト
  6
CONTINUOUS
 62
     7
100
AcDbSpline
210
0.0
220
0.0
230
1.0
 70
     8
 71
     3
 72
    12
 73
     8
 74
     0
 42
0.0000000309634251
 43
0.0000000001
 40
0.0
 40
0.0
 40
0.0
 40
0.0
 40
0.1882724216680751
 40
0.4449895410290245
 40
0.669129716737562
 40
0.8818757134104962
 40
1.0
 40
1.0
 40
1.0
 40
1.0
 10
159.3985893536705
 20
101.9026170250993
 30
0.0
 10
159.4165960849957
 20
101.9123569824742
 30
0.0
 10
159.4523457208721
 20
101.9324660399662
 30
0.0
 10
159.5062793563595
 20
101.9749889101665
 30
0.0
 10
159.5521795556018
 20
102.0325066051017
 30
0.0
 10
159.581082563983
 20
102.0927348481017
 30
0.0
 10
159.584015616403
 20
102.1295079725866
 30
0.0
 10
159.5851279564941
 20
102.1449779723893
 30
0.0
  0
ELLIPSE
  5
FC
330
75
100
AcDbEntity
  8
DV1_デフォルト
  6
CONTINUOUS
 62
     7
100
AcDbEllipse
 10
158.6138982183
 20
122.9498016438
 30
0.0
 11
-1.000000002384286
 21
-2.602085213965211E-15
 31
0.0
210
0.0
220
0.0
230
1.0
 40
0.9659273368
 41
5.950566137159485
 42
6.283185307179584
  0
ELLIPSE
  5
FD
330
75
100
AcDbEntity
  8
DV1_デフォルト
  6
CONTINUOUS
 62
     7
100
AcDbEllipse
 10
158.6138982183
 20
122.9498016438
 30
0.0
 11
-1.000000002384286
 21
-2.602085213965211E-15
 31
0.0
210
0.0
220
0.0
230
1.0
 40
0.9659273368
 41
0.0
 42
3.47421182360989
  0
ELLIPSE
  5
FE
330
75
100
AcDbEntity
  8
DV1_デフォルト
  6
CONTINUOUS
 62
     7
100
AcDbEllipse
 10
158.6138982183
 20
123.025359363
 30
0.0
 11
-0.9744586522172014
 21
-4.336808689942018E-15
 31
0.0
210
0.0
220
0.0
230
1.0
 40
0.9659273368
 41
3.290305742275329
 42
6.283185307179582
  0
ELLIPSE
  5
FF
330
75
100
AcDbEntity
  8
DV1_デフォルト
  6
CONTINUOUS
 62
     7
100
AcDbEllipse
 10
158.6138982183
 20
123.025359363
 30
0.0
 11
-0.9744586522172014
 21
-4.336808689942018E-15
 31
0.0
210
0.0
220
0.0
230
1.0
 40
0.9659273368
 41
0.0
 42
0.1165445123086284
  0
ELLIPSE
  5
100
330
75
100
AcDbEntity
  8
DV1_デフォルト
  6
CONTINUOUS
 62
     7
100
AcDbEllipse
 10
158.4240864588
 20
120.0343200656
 30
0.0
 11
3.664050992660894
 21
11.42517953953198
 31
0.0
210
0.0
220
0.0
230
1.0
 40
0.0815518651
 41
1.351789403817428
 42
1.375146804478085
  0
ELLIPSE
  5
101
330
75
100
AcDbEntity
  8
DV1_デフォルト
  6
CONTINUOUS
 62
     7
100
AcDbEllipse
 10
158.4122348
 20
119.3867454675
 30
0.0
 11
-11.33217935928243
 21
3.895139358897768
 31
0.0
210
0.0
220
0.0
230
0.9999999999999998
 40
0.2456291374
 41
-1.503258704732969
 42
-1.469876312564368
  0
ELLIPSE
  5
102
330
75
100
AcDbEntity
  8
DV1_デフォルト
  6
CONTINUOUS
 62
     7
100
AcDbEllipse
 10
158.8037099719
 20
119.912574941
 30
0.0
 11
3.664050993017108
 21
11.42517954062528
 31
0.0
210
0.0
220
0.0
230
1.0
 40
0.0815518651
 41
1.35178940384305
 42
1.375146804501922
  0
ARC
  5
103
330
75
100
AcDbEntity
  8
DV1_デフォルト
  6
CONTINUOUS
 62
     7
100
AcDbCircle
 10
158.8411744757
 20
122.6327347358
 30
0.0
 40
0.1601877236810451
100
AcDbArc
 50
71.2974232356
 51
160.3937415017
  0
ELLIPSE
  5
104
330
75
100
AcDbEntity
  8
DV1_デフォルト
  6
CONTINUOUS
 62
     7
100
AcDbEllipse
 10
158.5508783985
 20
119.7901030622
 30
0.0
 11
-11.34675450034542
 21
3.900149183089286
 31
0.0
210
0.0
220
0.0
230
0.9999999999999999
 40
0.2456291388
 41
-1.539933579955253
 42
-1.516576179621897
  0
ELLIPSE
  5
105
330
75
100
AcDbEntity
  8
DV1_デフォルト
  6
CONTINUOUS
 62
     7
100
AcDbEllipse
 10
159.2212958669
 20
119.7786552535
 30
0.0
 11
3.659344491877945
 21
11.41050382144975
 31
0.0
210
0.0
220
0.0
230
1.0
 40
0.0815518657
 41
1.305089535025037
 42
1.338471927200928
  0
ELLIPSE
  5
106
330
75
100
AcDbEntity
  8
DV1_デフォルト
  6
CONTINUOUS
 62
     7
100
AcDbEllipse
 10
158.6769180289
 20
120.1567917887
 30
0.0
 11
-11.34675450449169
 21
3.900149184779461
 31
0.0
210
0.0
220
0.0
230
1.0
 40
0.2456291389
 41
-1.539933579908369
 42
-1.516576179583628
  0
ARC
  5
107
330
75
100
AcDbEntity
  8
DV1_デフォルト
  6
CONTINUOUS
 62
     7
100
AcDbCircle
 10
159.0633936826
 20
123.2984370693
 30
0.0
 40
0.1539514513977675
100
AcDbArc
 50
161.7981700758
 51
253.0764805778
  0
ELLIPSE
  5
108
330
75
100
AcDbEntity
  8
DV1_デフォルト
  6
CONTINUOUS
 62
     7
100
AcDbEllipse
 10
158.8037099731
 20
119.9125748567
 30
0.0
 11
3.664051041816238
 21
11.42517971360204
 31
0.0
210
0.0
220
0.0
230
0.9999999999999999
 40
0.0815518661
 41
1.268414657806067
 42
1.29177205813379
  0
ELLIPSE
  5
109
330
75
100
AcDbEntity
  8
DV1_デフォルト
  6
CONTINUOUS
 62
     7
100
AcDbEllipse
 10
158.8155616365
 20
120.5601494556
 30
0.0
 11
-11.3321793557694
 21
3.895139357554448
 31
0.0
210
0.0
220
0.0
230
1.0
 40
0.2456291373
 41
-1.503258704760699
 42
-1.46987631258163
  0
ELLIPSE
  5
10A
330
75
100
AcDbEntity
  8
DV1_デフォルト
  6
CONTINUOUS
 62
     7
100
AcDbEllipse
 10
158.424086465
 20
120.0343200892
 30
0.0
 11
3.664050989499496
 21
11.42517952365903
 31
0.0
210
0.0
220
0.0
230
1.0
 40
0.0815518651
 41
1.268414661834355
 42
1.291772062516156
  0
ARC
  5
10B
330
75
100
AcDbEntity
  8
DV1_デフォルト
  6
CONTINUOUS
 62
     7
100
AcDbCircle
 10
158.3852118653
 20
123.5249339961
 30
0.0
 40
0.1625087076416817
100
AcDbArc
 50
252.09745589
 51
339.5937088473
  0
ELLIPSE
  5
10C
330
75
100
AcDbEntity
  8
DV1_デフォルト
  6
CONTINUOUS
 62
     7
100
AcDbEllipse
 10
158.6769180247
 20
120.1567918775
 30
0.0
 11
-11.346754345625
 21
3.900149121136432
 31
0.0
210
0.0
220
0.0
230
1.0
 40
0.2456291355
 41
-1.456558838714043
 42
-1.433201438060114
  0
ELLIPSE
  5
10D
330
75
100
AcDbEntity
  8
DV1_デフォルト
  6
CONTINUOUS
 62
     7
100
AcDbEllipse
 10
158.0065005697
 20
120.1682396702
 30
0.0
 11
3.659344492038009
 21
11.41050382201242
 31
0.0
210
0.0
220
0.0
230
1.0
 40
0.0815518657
 41
1.305089535015699
 42
1.338471927190462
  0
ELLIPSE
  5
10E
330
75
100
AcDbEntity
  8
DV1_デフォルト
  6
CONTINUOUS
 62
     7
100
AcDbEllipse
 10
158.5508783952
 20
119.790103145
 30
0.0
 11
-11.34675435183808
 21
3.900149123845726
 31
0.0
210
0.0
220
0.0
230
1.0
 40
0.2456291356
 41
-1.456558838583542
 42
-1.433201437942551
  0
ARC
  5
10F
330
75
100
AcDbEntity
  8
DV1_デフォルト
  6
CONTINUOUS
 62
     7
100
AcDbCircle
 10
158.1656781588
 20
122.8569828137
 30
0.0
 40
0.152950152279003
100
AcDbArc
 50
341.4132910897
 51
73.4613595639
  0
LINE
  5
110
330
75
100
AcDbEntity
  8
DV1_デフォルト
  6
CONTINUOUS
 62
     7
100
AcDbLine
 10
158.069520385
 20
123.4524926919
 30
0.0
 11
158.069520385
 21
123.405582239
 31
0.0
  0
LINE
  5
111
330
75
100
AcDbEntity
  8
DV1_デフォルト
  6
CONTINUOUS
 62
     7
100
AcDbLine
 10
158.6257498801
 20
123.7219306745
 30
0.0
 11
158.6257498801
 21
123.6750202215
 31
0.0
  0
ELLIPSE
  5
112
330
75
100
AcDbEntity
  8
DV1_デフォルト
  6
CONTINUOUS
 62
     7
100
AcDbEllipse
 10
158.1587645477
 20
122.8069785764
 30
0.0
 11
-0.1600291457890639
 21
1.734723475976807E-15
 31
0.0
210
0.0
220
0.0
230
1.0
 40
0.9659273368
 41
2.821213718346014
 42
3.141592653589793
  0
LINE
  5
113
330
75
100
AcDbEntity
  8
DV1_デフォルト
  6
CONTINUOUS
 62
     7
100
AcDbLine
 10
157.9580690574
 20
123.081335449
 30
0.0
 11
158.069520385
 21
123.405582239
 31
0.0
  0
LINE
  5
114
330
75
100
AcDbEntity
  8
DV1_デフォルト
  6
CONTINUOUS
 62
     7
100
AcDbLine
 10
158.069520385
 20
123.405582239
 30
0.0
 11
158.335256872
 21
123.3203606427
 31
0.0
  0
ELLIPSE
  5
115
330
75
100
AcDbEntity
  8
DV1_デフォルト
  6
CONTINUOUS
 62
     7
100
AcDbEllipse
 10
158.3856723677
 20
123.4670368209
 30
0.0
 11
-0.1600005623866915
 21
-8.673617379884035E-15
 31
0.0
210
0.0
220
0.0
230
1.0
 40
0.9659273368
 41
1.250238795025047
 42
2.821028092022807
  0
LINE
  5
116
330
75
100
AcDbEntity
  8
DV1_デフォルト
  6
CONTINUOUS
 62
     7
100
AcDbLine
 10
158.5375221294
 20
123.4183380843
 30
0.0
 11
158.6257498801
 21
123.6750202215
 31
0.0
  0
LINE
  5
117
330
75
100
AcDbEntity
  8
DV1_デフォルト
  6
CONTINUOUS
 62
     7
100
AcDbLine
 10
158.6257498801
 20
123.6750202215
 30
0.0
 11
158.9906575083
 21
123.5579944758
 31
0.0
  0
ELLIPSE
  5
118
330
75
100
AcDbEntity
  8
DV1_デフォルト
  6
CONTINUOUS
 62
     7
100
AcDbEllipse
 10
159.0690318889
 20
123.2479127558
 30
0.0
 11
0.1600291457890483
 21
-3.469446951953614E-15
 31
0.0
210
0.0
220
0.0
230
1.0
 40
0.9659273368
 41
3.141592653589724
 42
4.391645822292974
  0
LINE
  5
119
330
75
100
AcDbEntity
  8
DV1_デフォルト
  6
CONTINUOUS
 62
     7
100
AcDbLine
 10
159.0185791952
 20
123.1012194183
 30
0.0
 11
159.269737656
 21
123.0206729898
 31
0.0
  0
LINE
  5
11A
330
75
100
AcDbEntity
  8
DV1_デフォルト
  6
CONTINUOUS
 62
     7
100
AcDbLine
 10
158.2369660578
 20
122.5439264148
 30
0.0
 11
158.3106507943
 21
122.7582983726
 31
0.0
  0
LINE
  5
11B
330
75
100
AcDbEntity
  8
DV1_デフォルト
  6
CONTINUOUS
 62
     7
100
AcDbLine
 10
159.5590885963
 20
123.2651960065
 30
0.0
 11
159.5349471579
 21
123.332698128
 31
0.0
  0
LINE
  5
11C
330
75
100
AcDbEntity
  8
DV1_デフォルト
  6
CONTINUOUS
 62
     7
100
AcDbLine
 10
157.6928492786
 20
123.332698128
 30
0.0
 11
157.6687078403
 21
123.2651960065
 31
0.0
  0
LINE
  5
11D
330
75
100
AcDbEntity
  8
DV1_デフォルト
  6
CONTINUOUS
 62
     7
100
AcDbLine
 10
158.3187936934
 20
122.8069785764
 30
0.0
 11
158.3187936934
 21
122.858741258
 31
0.0
  0
LINE
  5
11E
330
75
100
AcDbEntity
  8
DV1_デフォルト
  6
CONTINUOUS
 62
     7
100
AcDbLine
 10
158.9090027431
 20
123.2996754374
 30
0.0
 11
158.9090027431
 21
123.2479127558
 31
0.0
  0
LINE
  5
11F
330
75
100
AcDbEntity
  8
DV1_デフォルト
  6
CONTINUOUS
 62
     7
100
AcDbLine
 10
155.1138982183
 20
102.8146741461
 30
0.0
 11
155.1138982183
 21
134.4146741461
 31
0.0
  0
LINE
  5
120
330
75
100
AcDbEntity
  8
DV1_デフォルト
  6
CONTINUOUS
 62
     7
100
AcDbLine
 10
155.3138982183
 20
102.6146741461
 30
0.0
 11
155.3138982183
 21
134.6146741461
 31
0.0
  0
LINE
  5
121
330
75
100
AcDbEntity
  8
DV1_デフォルト
  6
CONTINUOUS
 62
     7
100
AcDbLine
 10
163.0138982183
 20
102.6146741461
 30
0.0
 11
163.0138982183
 21
134.6146741461
 31
0.0
  0
LINE
  5
122
330
75
100
AcDbEntity
  8
DV1_デフォルト
  6
CONTINUOUS
 62
     7
100
AcDbLine
 10
163.2138982183
 20
102.8146741461
 30
0.0
 11
163.2138982183
 21
134.4146741461
 31
0.0
  0
LINE
  5
123
330
75
100
AcDbEntity
  8
DV1_デフォルト
  6
CONTINUOUS
 62
     7
100
AcDbLine
 10
155.3138982183
 20
134.6146741461
 30
0.0
 11
155.1138982183
 21
134.4146741461
 31
0.0
  0
LINE
  5
124
330
75
100
AcDbEntity
  8
DV1_デフォルト
  6
CONTINUOUS
 62
     7
100
AcDbLine
 10
155.1138982183
 20
102.8146741461
 30
0.0
 11
155.3138982183
 21
102.6146741461
 31
0.0
  0
LINE
  5
125
330
75
100
AcDbEntity
  8
DV1_デフォルト
  6
CONTINUOUS
 62
     7
100
AcDbLine
 10
163.0138982183
 20
102.6146741461
 30
0.0
 11
163.2138982183
 21
102.8146741461
 31
0.0
  0
LINE
  5
126
330
75
100
AcDbEntity
  8
DV1_デフォルト
  6
CONTINUOUS
 62
     7
100
AcDbLine
 10
163.2138982183
 20
134.4146741461
 30
0.0
 11
163.0138982183
 21
134.6146741461
 31
0.0
  0
LINE
  5
127
330
75
100
AcDbEntity
  8
DV1_デフォルト
  6
CONTINUOUS
 62
     7
100
AcDbLine
 10
155.3138982183
 20
102.6146741461
 30
0.0
 11
163.0138982183
 21
102.6146741461
 31
0.0
  0
LINE
  5
128
330
75
100
AcDbEntity
  8
DV1_デフォルト
  6
CONTINUOUS
 62
     7
100
AcDbLine
 10
163.0138982183
 20
134.6146741461
 30
0.0
 11
155.3138982183
 21
134.6146741461
 31
0.0
  0
LINE
  5
129
330
75
100
AcDbEntity
  8
DV1_デフォルト
  6
CONTINUOUS
 62
     7
100
AcDbLine
 10
148.6138982183
 20
102.8146741461
 30
0.0
 11
148.6138982183
 21
134.4146741461
 31
0.0
  0
LINE
  5
12A
330
75
100
AcDbEntity
  8
DV1_デフォルト
  6
CONTINUOUS
 62
     7
100
AcDbLine
 10
148.4138982183
 20
102.6146741461
 30
0.0
 11
148.4138982183
 21
134.6146741461
 31
0.0
  0
LINE
  5
12B
330
75
100
AcDbEntity
  8
DV1_デフォルト
  6
CONTINUOUS
 62
     7
100
AcDbLine
 10
130.3138982183
 20
102.6146741461
 30
0.0
 11
130.3138982183
 21
134.6146741461
 31
0.0
  0
LINE
  5
12C
330
75
100
AcDbEntity
  8
DV1_デフォルト
  6
CONTINUOUS
 62
     7
100
AcDbLine
 10
130.1138982183
 20
102.8146741461
 30
0.0
 11
130.1138982183
 21
134.4146741461
 31
0.0
  0
ARC
  5
12D
330
75
100
AcDbEntity
  8
DV1_デフォルト
  6
CONTINUOUS
 62
     7
100
AcDbCircle
 10
144.1139645771
 20
150.5158144154
 30
0.0
 40
15.99715581253705
100
AcDbArc
 50
263.7193574289
 51
276.2796573953
  0
SPLINE
  5
12E
330
75
100
AcDbEntity
  8
DV1_デフォルト
  6
CONTINUOUS
 62
     7
100
AcDbSpline
210
0.0
220
0.0
230
1.0
 70
    11
 71
     3
 72
    62
 73
    58
 74
     0
 42
0.0000000034243127
 43
0.0000000001
 40
0.0
 40
0.0
 40
0.0
 40
0.0
 40
0.0536787503119999
 40
0.0536787503119999
 40
0.0536787503119999
 40
0.1073558917877264
 40
0.1073558917877264
 40
0.1073558917877264
 40
0.1610571574130485
 40
0.1610571574130485
 40
0.1610571574130485
 40
0.2147748756015756
 40
0.2147748756015756
 40
0.2147748756015756
 40
0.268466602453964
 40
0.268466602453964
 40
0.268466602453964
 40
0.3221304923085576
 40
0.3221304923085576
 40
0.3221304923085576
 40
0.3758080878013125
 40
0.3758080878013125
 40
0.3758080878013125
 40
0.4295195657002874
 40
0.4295195657002874
 40
0.4295195657002874
 40
0.4832322611210894
 40
0.4832322611210894
 40
0.4832322611210894
 40
0.5369115420058755
 40
0.5369115420058755
 40
0.5369115420058755
 40
0.5905749530583392
 40
0.5905749530583392
 40
0.5905749530583392
 40
0.64426478775248
 40
0.64426478775248
 40
0.64426478775248
 40
0.6979821071939929
 40
0.6979821071939929
 40
0.6979821071939929
 40
0.751685086086972
 40
0.751685086086972
 40
0.751685086086972
 40
0.8053543095916489
 40
0.8053543095916489
 40
0.8053543095916489
 40
0.8590230171120671
 40
0.8590230171120671
 40
0.8590230171120671
 40
0.912725227971846
 40
0.912725227971846
 40
0.912725227971846
 40
0.9664427451127711
 40
0.9664427451127711
 40
0.9664427451127711
 40
1.0
 40
1.0
 40
1.0
 40
1.0
 10
139.9138982182889
 20
132.7613343932439
 30
0.0
 10
139.8467702342548
 20
132.7613343932439
 30
0.0
 10
139.7787166267052
 20
132.7559278378205
 30
0.0
 10
139.7153739716317
 20
132.7455042275371
 30
0.0
 10
139.6520323957017
 20
132.7350807948366
 30
0.0
 10
139.5916548492416
 20
132.7193481727497
 30
0.0
 10
139.539232803061
 20
132.6994568010393
 30
0.0
 10
139.4867875819391
 20
132.6795566356741
 30
0.0
 10
139.4408583249772
 20
132.6549368621063
 30
0.0
 10
139.4052445047888
 20
132.627455435991
 30
0.0
 10
139.3696204285727
 20
132.5999660958057
 30
0.0
 10
139.3433353981278
 20
132.5688467088065
 30
0.0
 10
139.3285708290679
 20
132.536548994831
 30
0.0
 10
139.3138133440319
 20
132.5042667772632
 30
0.0
 10
139.3101585830022
 20
132.4699128097148
 30
0.0
 10
139.3179102468677
 20
132.4363157290855
 30
0.0
 10
139.3256580478866
 20
132.4027353907158
 30
0.0
 10
139.3450137030172
 20
132.3689873566464
 30
0.0
 10
139.3743724084647
 20
132.3379601167554
 30
0.0
 10
139.4037387536646
 20
132.3069248029244
 30
0.0
 10
139.4439220170063
 20
132.2777627926937
 30
0.0
 10
139.4915988272033
 20
132.2530534838291
 30
0.0
 10
139.5393048734773
 20
132.2283290228758
 30
0.0
 10
139.5958300248147
 20
132.2073894035259
 30
0.0
 10
139.6564974426232
 20
132.1921374594023
 30
0.0
 10
139.7171654594642
 20
132.1768853646805
 30
0.0
 10
139.7836508399841
 20
132.1669073002172
 30
0.0
 10
139.8504430784127
 20
132.1631258902321
 30
0.0
 10
139.9171945965029
 20
132.159346785609
 30
0.0
 10
139.9860939878686
 20
132.1616543820454
 30
0.0
 10
140.0514328142954
 20
132.169834580395
 30
0.0
 10
140.116753514841
 20
132.178012509446
 30
0.0
 10
140.1803163648043
 20
132.1922807830139
 30
0.0
 10
140.2368661141903
 20
132.2113291642757
 30
0.0
 10
140.293443458429
 20
132.2303868406675
 30
0.0
 10
140.3445610058083
 20
132.2547466757864
 30
0.0
 10
140.3859929961849
 20
132.2822160229676
 30
0.0
 10
140.4274453606287
 20
132.3096988781247
 30
0.0
 10
140.4603458720711
 20
132.341044585375
 30
0.0
 10
140.4819668449655
 20
132.3735076657346
 30
0.0
 10
140.5035819497663
 20
132.4059619353715
 30
0.0
 10
140.514519356994
 20
132.4404235642583
 30
0.0
 10
140.5138701857774
 20
132.4739796199039
 30
0.0
 10
140.5132214107873
 20
132.5075151943604
 30
0.0
 10
140.5009827419848
 20
132.5410712921583
 30
0.0
 10
140.4781698676416
 20
132.571932128331
 30
0.0
 10
140.4553569290394
 20
132.6027930514323
 30
0.0
 10
140.4213419612663
 20
132.6318149961553
 30
0.0
 10
140.3789397090352
 20
132.6567530058616
 30
0.0
 10
140.3365115247908
 20
132.6817062669463
 30
0.0
 10
140.2845157069189
 20
132.7032672075076
 30
0.0
 10
140.2272524447389
 20
132.7198298131824
 30
0.0
 10
140.1699738964712
 20
132.7363968401463
 30
0.0
 10
140.1058436239421
 20
132.7484273848536
 30
0.0
 10
140.0401745676059
 20
132.7550469371216
 30
0.0
 10
139.9987937644407
 20
132.7592181922716
 30
0.0
 10
139.9562283505043
 20
132.7613343932439
 30
0.0
 10
139.9138982182889
 20
132.7613343932439
 30
0.0
  0
SPLINE
  5
12F
330
75
100
AcDbEntity
  8
DV1_デフォルト
  6
CONTINUOUS
 62
     7
100
AcDbSpline
210
0.0
220
0.0
230
1.0
 70
    11
 71
     3
 72
    62
 73
    58
 74
     0
 42
0.0000000034243396
 43
0.0000000001
 40
0.0
 40
0.0
 40
0.0
 40
0.0
 40
0.0536787503119997
 40
0.0536787503119997
 40
0.0536787503119997
 40
0.1073558917877264
 40
0.1073558917877264
 40
0.1073558917877264
 40
0.16105715741305
 40
0.16105715741305
 40
0.16105715741305
 40
0.2147748756015761
 40
0.2147748756015761
 40
0.2147748756015761
 40
0.2684666024539643
 40
0.2684666024539643
 40
0.2684666024539643
 40
0.3221304923085582
 40
0.3221304923085582
 40
0.3221304923085582
 40
0.3758080878013126
 40
0.3758080878013126
 40
0.3758080878013126
 40
0.4295195657002884
 40
0.4295195657002884
 40
0.4295195657002884
 40
0.4832322611210905
 40
0.4832322611210905
 40
0.4832322611210905
 40
0.5369115420058757
 40
0.5369115420058757
 40
0.5369115420058757
 40
0.5905749530583385
 40
0.5905749530583385
 40
0.5905749530583385
 40
0.6442647877524803
 40
0.6442647877524803
 40
0.6442647877524803
 40
0.6979821071939936
 40
0.6979821071939936
 40
0.6979821071939936
 40
0.751685086086973
 40
0.751685086086973
 40
0.751685086086973
 40
0.8053543095916487
 40
0.8053543095916487
 40
0.8053543095916487
 40
0.8590230171120685
 40
0.8590230171120685
 40
0.8590230171120685
 40
0.9127252279718473
 40
0.9127252279718473
 40
0.9127252279718473
 40
0.9664427451127704
 40
0.9664427451127704
 40
0.9664427451127704
 40
1.0
 40
1.0
 40
1.0
 40
1.0
 10
139.9138982182889
 20
105.0680138989442
 30
0.0
 10
139.8467702342548
 20
105.0680138989442
 30
0.0
 10
139.7787166267053
 20
105.0618348364657
 30
0.0
 10
139.7153739716317
 20
105.0500490836054
 30
0.0
 10
139.6520323957018
 20
105.0382635315342
 30
0.0
 10
139.5916548492416
 20
105.0205524827131
 30
0.0
 10
139.5392328030611
 20
104.998534027238
 30
0.0
 10
139.4867875819391
 20
104.9765058377587
 30
0.0
 10
139.4408583249773
 20
104.9495673638206
 30
0.0
 10
139.4052445047888
 20
104.9201245324057
 30
0.0
 10
139.3696204285727
 20
104.8906732220775
 30
0.0
 10
139.3433353981278
 20
104.8579107323181
 30
0.0
 10
139.3285708290679
 20
104.8246774510735
 30
0.0
 10
139.3138133440319
 20
104.7914601151207
 30
0.0
 10
139.3101585830022
 20
104.7568594841266
 30
0.0
 10
139.3179102468677
 20
104.723762526859
 30
0.0
 10
139.3256580478866
 20
104.690682062627
 30
0.0
 10
139.3450137030172
 20
104.6581897153767
 30
0.0
 10
139.3743724084647
 20
104.6288774127322
 30
0.0
 10
139.4037387536646
 20
104.5995574824104
 30
0.0
 10
139.4439220170064
 20
104.5726040960093
 30
0.0
 10
139.4915988272033
 20
104.5500751181888
 30
0.0
 10
139.5393048734774
 20
104.5275323252887
 30
0.0
 10
139.5958300248147
 20
104.5087890168403
 30
0.0
 10
139.6564974426232
 20
104.4952285077171
 30
0.0
 10
139.7171654594642
 20
104.481667864697
 30
0.0
 10
139.7836508399841
 20
104.4729095797702
 30
0.0
 10
139.8504430784127
 20
104.4695872997173
 30
0.0
 10
139.9171945965029
 20
104.4662670451148
 30
0.0
 10
139.9860939878686
 20
104.4682827897614
 30
0.0
 10
140.0514328142954
 20
104.4754895385765
 30
0.0
 10
140.116753514841
 20
104.4826942881412
 30
0.0
 10
140.1803163648043
 20
104.4952891381298
 30
0.0
 10
140.2368661141903
 20
104.5123594219667
 30
0.0
 10
140.2934434584291
 20
104.529438035672
 30
0.0
 10
140.3445610058084
 20
104.5514749201611
 30
0.0
 10
140.3859929961849
 20
104.5768262867096
 30
0.0
 10
140.4274453606287
 20
104.6021901197228
 30
0.0
 10
140.4603458720711
 20
104.6315802368239
 30
0.0
 10
140.4819668449655
 20
104.6627136335556
 30
0.0
 10
140.5035819497663
 20
104.6938385804508
 30
0.0
 10
140.514519356994
 20
104.7275703009387
 30
0.0
 10
140.5138701857774
 20
104.7611685195244
 30
0.0
 10
140.5132214107873
 20
104.7947462311866
 30
0.0
 10
140.5009827419848
 20
104.8291163742107
 30
0.0
 10
140.4781698676416
 20
104.8613708297433
 30
0.0
 10
140.4553569290394
 20
104.8936253761299
 30
0.0
 10
140.4213419612663
 20
104.9246479059771
 30
0.0
 10
140.3789397090353
 20
104.9517211386294
 30
0.0
 10
140.3365115247908
 20
104.9788109285021
 30
0.0
 10
140.2845157069189
 20
105.0026852912001
 30
0.0
 10
140.2272524447389
 20
105.0211913518121
 30
0.0
 10
140.1699738964712
 20
105.039702352507
 30
0.0
 10
140.1058436239421
 20
105.0533449215661
 30
0.0
 10
140.0401745676059
 20
105.0608627615732
 30
0.0
 10
139.9987937644407
 20
105.065600065182
 30
0.0
 10
139.9562283505043
 20
105.0680138989442
 30
0.0
 10
139.9138982182889
 20
105.0680138989442
 30
0.0
  0
ARC
  5
130
330
75
100
AcDbEntity
  8
DV1_デフォルト
  6
CONTINUOUS
 62
     7
100
AcDbCircle
 10
139.9139256494
 20
150.5988943074
 30
0.0
 40
15.99954166768354
100
AcDbArc
 50
267.4923419201
 51
272.5072590501
  0
LINE
  5
131
330
75
100
AcDbEntity
  8
DV1_デフォルト
  6
CONTINUOUS
 62
     7
100
AcDbLine
 10
148.4138982183
 20
102.6146741461
 30
0.0
 11
148.6138982183
 21
102.8146741461
 31
0.0
  0
LINE
  5
132
330
75
100
AcDbEntity
  8
DV1_デフォルト
  6
CONTINUOUS
 62
     7
100
AcDbLine
 10
148.6138982183
 20
134.4146741461
 30
0.0
 11
148.4138982183
 21
134.6146741461
 31
0.0
  0
LINE
  5
133
330
75
100
AcDbEntity
  8
DV1_デフォルト
  6
CONTINUOUS
 62
     7
100
AcDbLine
 10
130.3138982183
 20
134.6146741461
 30
0.0
 11
130.1138982183
 21
134.4146741461
 31
0.0
  0
LINE
  5
134
330
75
100
AcDbEntity
  8
DV1_デフォルト
  6
CONTINUOUS
 62
     7
100
AcDbLine
 10
130.1138982183
 20
102.8146741461
 30
0.0
 11
130.3138982183
 21
102.6146741461
 31
0.0
  0
LINE
  5
135
330
75
100
AcDbEntity
  8
DV1_デフォルト
  6
CONTINUOUS
 62
     7
100
AcDbLine
 10
130.3138982183
 20
102.6146741461
 30
0.0
 11
148.4138982183
 21
102.6146741461
 31
0.0
  0
LINE
  5
136
330
75
100
AcDbEntity
  8
DV1_デフォルト
  6
CONTINUOUS
 62
     7
100
AcDbLine
 10
139.2149710724
 20
134.6146741461
 30
0.0
 11
130.3138982183
 21
134.6146741461
 31
0.0
  0
LINE
  5
137
330
75
100
AcDbEntity
  8
DV1_デフォルト
  6
CONTINUOUS
 62
     7
100
AcDbLine
 10
142.3640996832
 20
134.6146741461
 30
0.0
 11
140.6049397822
 21
134.6146741461
 31
0.0
  0
LINE
  5
138
330
75
100
AcDbEntity
  8
DV1_デフォルト
  6
CONTINUOUS
 62
     7
100
AcDbLine
 10
148.4138982183
 20
134.6146741461
 30
0.0
 11
145.8581825237
 21
134.6146741461
 31
0.0
  0
LINE
  5
139
330
75
100
AcDbEntity
  8
DV1_デフォルト
  6
CONTINUOUS
 62
     7
100
AcDbLine
 10
139.7538982183
 20
132.7109977657
 30
0.0
 11
139.7538982183
 21
132.1775676583
 31
0.0
  0
LINE
  5
13A
330
75
100
AcDbEntity
  8
DV1_デフォルト
  6
CONTINUOUS
 62
     7
100
AcDbLine
 10
140.0738982183
 20
132.7109977657
 30
0.0
 11
140.0738982183
 21
132.174861685
 31
0.0
  0
LINE
  5
13D
330
75
100
AcDbEntity
  8
DV1_ﾃ_ﾌｫﾙﾄ
  6
CENTER2
 62
     7
100
AcDbLine
 10
129.4601021729
 20
118.6146741461
 30
0.0
 11
176.6259978812
 21
118.6146741461
 31
0.0
  0
LINE
  5
13E
330
75
100
AcDbEntity
  8
DV1_ﾃ_ﾌｫﾙﾄ
  6
CENTER2
 62
     7
100
AcDbLine
 10
168.9138982183
 20
130.8146741461
 30
0.0
 11
171.9138982183
 21
130.8146741461
 31
0.0
  0
LINE
  5
13F
330
75
100
AcDbEntity
  8
DV1_ﾃ_ﾌｫﾙﾄ
  6
CENTER2
 62
     7
100
AcDbLine
 10
168.9138982183
 20
106.4146741461
 30
0.0
 11
171.9138982183
 21
106.4146741461
 31
0.0
  0
LINE
  5
140
330
75
100
AcDbEntity
  8
DV1_ﾃ_ﾌｫﾙﾄ
  6
CENTER2
 62
     7
100
AcDbLine
 10
130.1138982183
 20
133.8646741461
 30
0.0
 11
131.1138982183
 21
133.8646741461
 31
0.0
  0
LINE
  5
141
330
75
100
AcDbEntity
  8
DV1_ﾃ_ﾌｫﾙﾄ
  6
CENTER2
 62
     7
100
AcDbLine
 10
130.1138982183
 20
103.3646741461
 30
0.0
 11
131.1138982183
 21
103.3646741461
 31
0.0
  0
ENDBLK
  5
143
330
75
100
AcDbEntity
  8
0
100
AcDbBlockEnd
  0
BLOCK
  5
14C
330
144
100
AcDbEntity
  8
0
100
AcDbBlockBegin
  2
GDIMGGROUP2
 70
     0
 10
0.0
 20
0.0
 30
0.0
  3
GDIMGGROUP2
  1

  0
POLYLINE
  5
146
330
144
100
AcDbEntity
  8
DEFAULT
  6
CONTINUOUS
 62
   136
100
AcDb2dPolyline
 66
     1
 10
0.0
 20
0.0
 30
0.0
  0
VERTEX
  5
185
330
146
100
AcDbEntity
  8
DEFAULT
  6
CONTINUOUS
 62
   136
100
AcDbVertex
100
AcDb2dVertex
 10
164.9138982991
 20
89.4126184717
 30
0.0
  0
VERTEX
  5
186
330
146
100
AcDbEntity
  8
DEFAULT
  6
CONTINUOUS
 62
   136
100
AcDbVertex
100
AcDb2dVertex
 10
168.1138982183
 20
88.8792851519
 30
0.0
  0
VERTEX
  5
187
330
146
100
AcDbEntity
  8
DEFAULT
  6
CONTINUOUS
 62
   136
100
AcDbVertex
100
AcDb2dVertex
 10
164.9138982991
 20
88.345951832
 30
0.0
  0
SEQEND
  5
188
330
146
100
AcDbEntity
  8
DEFAULT
  6
CONTINUOUS
 62
   136
  0
POLYLINE
  5
147
330
144
100
AcDbEntity
  8
DEFAULT
  6
CONTINUOUS
 62
   136
100
AcDb2dPolyline
 66
     1
 10
0.0
 20
0.0
 30
0.0
  0
VERTEX
  5
189
330
147
100
AcDbEntity
  8
DEFAULT
  6
CONTINUOUS
 62
   136
100
AcDbVertex
100
AcDb2dVertex
 10
133.3138993593
 20
89.4126184717
 30
0.0
  0
VERTEX
  5
18A
330
147
100
AcDbEntity
  8
DEFAULT
  6
CONTINUOUS
 62
   136
100
AcDbVertex
100
AcDb2dVertex
 10
130.1138994402
 20
88.8792851519
 30
0.0
  0
VERTEX
  5
18B
330
147
100
AcDbEntity
  8
DEFAULT
  6
CONTINUOUS
 62
   136
100
AcDbVertex
100
AcDb2dVertex
 10
133.3138993593
 20
88.345951832
 30
0.0
  0
SEQEND
  5
18C
330
147
100
AcDbEntity
  8
DEFAULT
  6
CONTINUOUS
 62
   136
  0
LINE
  5
148
330
144
100
AcDbEntity
  8
DEFAULT
  6
CONTINUOUS
 62
   136
100
AcDbLine
 10
168.1138982183
 20
102.0846741784
 30
0.0
 11
168.1138982183
 21
87.2792851923
 31
0.0
  0
LINE
  5
149
330
144
100
AcDbEntity
  8
DEFAULT
  6
CONTINUOUS
 62
   136
100
AcDbLine
 10
130.1138982183
 20
101.5346741784
 30
0.0
 11
130.1138982183
 21
87.2792851923
 31
0.0
  0
LINE
  5
14A
330
144
100
AcDbEntity
  8
DEFAULT
  6
CONTINUOUS
 62
   136
100
AcDbLine
 10
168.1138982183
 20
88.8792851519
 30
0.0
 11
130.1138994402
 21
88.8792851519
 31
0.0
  0
TEXT
  5
14B
330
144
100
AcDbEntity
  8
DEFAULT
  6
CONTINUOUS
 62
   136
100
AcDbText
 10
146.7724354146
 20
89.6792851519
 30
0.0
 40
3.2
  1
38
  7
SEACAD_SEANSI_TTF
 11
146.7724354146
 21
92.8792851519
 31
0.0
100
AcDbText
 73
     3
  0
ENDBLK
  5
14D
330
144
100
AcDbEntity
  8
0
100
AcDbBlockEnd
  0
BLOCK
  5
157
330
14E
100
AcDbEntity
  8
0
100
AcDbBlockBegin
  2
GDIMGGROUP3
 70
     0
 10
0.0
 20
0.0
 30
0.0
  3
GDIMGGROUP3
  1

  0
POLYLINE
  5
150
330
14E
100
AcDbEntity
  8
DEFAULT
  6
CONTINUOUS
 62
   136
100
AcDb2dPolyline
 66
     1
 10
0.0
 20
0.0
 30
0.0
  0
VERTEX
  5
18D
330
150
100
AcDbEntity
  8
DEFAULT
  6
CONTINUOUS
 62
   136
100
AcDbVertex
100
AcDb2dVertex
 10
189.2182672949
 20
125.1646742269
 30
0.0
  0
VERTEX
  5
18E
330
150
100
AcDbEntity
  8
DEFAULT
  6
CONTINUOUS
 62
   136
100
AcDbVertex
100
AcDb2dVertex
 10
189.7516006148
 20
128.3646741461
 30
0.0
  0
VERTEX
  5
18F
330
150
100
AcDbEntity
  8
DEFAULT
  6
CONTINUOUS
 62
   136
100
AcDbVertex
100
AcDb2dVertex
 10
190.2849339347
 20
125.1646742269
 30
0.0
  0
SEQEND
  5
190
330
150
100
AcDbEntity
  8
DEFAULT
  6
CONTINUOUS
 62
   136
  0
POLYLINE
  5
151
330
14E
100
AcDbEntity
  8
DEFAULT
  6
CONTINUOUS
 62
   136
100
AcDb2dPolyline
 66
     1
 10
0.0
 20
0.0
 30
0.0
  0
VERTEX
  5
191
330
151
100
AcDbEntity
  8
DEFAULT
  6
CONTINUOUS
 62
   136
100
AcDbVertex
100
AcDb2dVertex
 10
189.2182672949
 20
112.0646736629
 30
0.0
  0
VERTEX
  5
192
330
151
100
AcDbEntity
  8
DEFAULT
  6
CONTINUOUS
 62
   136
100
AcDbVertex
100
AcDb2dVertex
 10
189.7516006148
 20
108.8646737438
 30
0.0
  0
VERTEX
  5
193
330
151
100
AcDbEntity
  8
DEFAULT
  6
CONTINUOUS
 62
   136
100
AcDbVertex
100
AcDb2dVertex
 10
190.2849339347
 20
112.0646736629
 30
0.0
  0
SEQEND
  5
194
330
151
100
AcDbEntity
  8
DEFAULT
  6
CONTINUOUS
 62
   136
  0
LINE
  5
152
330
14E
100
AcDbEntity
  8
DEFAULT
  6
CONTINUOUS
 62
   136
100
AcDbLine
 10
175.993898186
 20
128.3646741461
 30
0.0
 11
191.3516005744
 21
128.3646741461
 31
0.0
  0
LINE
  5
153
330
14E
100
AcDbEntity
  8
DEFAULT
  6
CONTINUOUS
 62
   136
100
AcDbLine
 10
175.993898186
 20
108.8646741461
 30
0.0
 11
191.3516005744
 21
108.8646741461
 31
0.0
  0
LINE
  5
154
330
14E
100
AcDbEntity
  8
DEFAULT
  6
CONTINUOUS
 62
   136
100
AcDbLine
 10
189.7516006148
 20
128.3646741461
 30
0.0
 11
189.7516006148
 21
108.8646737438
 31
0.0
  0
TEXT
  5
155
330
14E
100
AcDbEntity
  8
DEFAULT
  6
CONTINUOUS
 62
   136
100
AcDbText
 10
188.9516006148
 20
116.5992353484
 30
0.0
 40
3.2
  1
19.5
 50
90.0
  7
SEACAD_SEANSI_TTF
 11
185.7516006148
 21
116.5992353484
 31
0.0
100
AcDbText
 73
     3
  0
TEXT
  5
156
330
14E
100
AcDbEntity
  8
DEFAULT
  6
CONTINUOUS
 62
   136
100
AcDbText
 10
188.9516006148
 20
112.6301125414
 30
0.0
 40
3.2
  1
O
 50
90.0
  7
SEACAD_SEMECA1_TTF
 11
185.7516006148
 21
112.6301125414
 31
0.0
100
AcDbText
 73
     3
  0
ENDBLK
  5
158
330
14E
100
AcDbEntity
  8
0
100
AcDbBlockEnd
  0
BLOCK
  5
161
330
159
100
AcDbEntity
  8
0
100
AcDbBlockBegin
  2
GDIMGGROUP4
 70
     0
 10
0.0
 20
0.0
 30
0.0
  3
GDIMGGROUP4
  1

  0
POLYLINE
  5
15B
330
159
100
AcDbEntity
  8
DEFAULT
  6
CONTINUOUS
 62
   136
100
AcDb2dPolyline
 66
     1
 10
0.0
 20
0.0
 30
0.0
  0
VERTEX
  5
195
330
15B
100
AcDbEntity
  8
DEFAULT
  6
CONTINUOUS
 62
   136
100
AcDbVertex
100
AcDb2dVertex
 10
164.9138982991
 20
97.8288730108
 30
0.0
  0
VERTEX
  5
196
330
15B
100
AcDbEntity
  8
DEFAULT
  6
CONTINUOUS
 62
   136
100
AcDbVertex
100
AcDb2dVertex
 10
168.1138982183
 20
97.2955396909
 30
0.0
  0
VERTEX
  5
197
330
15B
100
AcDbEntity
  8
DEFAULT
  6
CONTINUOUS
 62
   136
100
AcDbVertex
100
AcDb2dVertex
 10
164.9138982991
 20
96.7622063711
 30
0.0
  0
SEQEND
  5
198
330
15B
100
AcDbEntity
  8
DEFAULT
  6
CONTINUOUS
 62
   136
  0
POLYLINE
  5
15C
330
159
100
AcDbEntity
  8
DEFAULT
  6
CONTINUOUS
 62
   136
100
AcDb2dPolyline
 66
     1
 10
0.0
 20
0.0
 30
0.0
  0
VERTEX
  5
199
330
15C
100
AcDbEntity
  8
DEFAULT
  6
CONTINUOUS
 62
   136
100
AcDbVertex
100
AcDb2dVertex
 10
175.3138981375
 20
97.8288730108
 30
0.0
  0
VERTEX
  5
19A
330
15C
100
AcDbEntity
  8
DEFAULT
  6
CONTINUOUS
 62
   136
100
AcDbVertex
100
AcDb2dVertex
 10
172.1138982183
 20
97.2955396909
 30
0.0
  0
VERTEX
  5
19B
330
15C
100
AcDbEntity
  8
DEFAULT
  6
CONTINUOUS
 62
   136
100
AcDbVertex
100
AcDb2dVertex
 10
175.3138981375
 20
96.7622063711
 30
0.0
  0
SEQEND
  5
19C
330
15C
100
AcDbEntity
  8
DEFAULT
  6
CONTINUOUS
 62
   136
  0
LINE
  5
15D
330
159
100
AcDbEntity
  8
DEFAULT
  6
CONTINUOUS
 62
   136
100
AcDbLine
 10
168.1138982183
 20
102.0846741784
 30
0.0
 11
168.1138982183
 21
95.6955397313
 31
0.0
  0
LINE
  5
15E
330
159
100
AcDbEntity
  8
DEFAULT
  6
CONTINUOUS
 62
   136
100
AcDbLine
 10
172.1138982183
 20
105.3346741784
 30
0.0
 11
172.1138982183
 21
95.6955397313
 31
0.0
  0
LINE
  5
15F
330
159
100
AcDbEntity
  8
DEFAULT
  6
CONTINUOUS
 62
   136
100
AcDbLine
 10
161.71389838
 20
97.2955396909
 30
0.0
 11
178.5138982466
 21
97.2955396909
 31
0.0
  0
TEXT
  5
160
330
159
100
AcDbEntity
  8
DEFAULT
  6
CONTINUOUS
 62
   136
100
AcDbText
 10
168.943166606
 20
98.0955396909
 30
0.0
 40
3.2
  1
4
  7
SEACAD_SEANSI_TTF
 11
168.943166606
 21
101.2955396909
 31
0.0
100
AcDbText
 73
     3
  0
ENDBLK
  5
162
330
159
100
AcDbEntity
  8
0
100
AcDbBlockEnd
  0
BLOCK
  5
16D
330
163
100
AcDbEntity
  8
0
100
AcDbBlockBegin
  2
GDIMGGROUP5
 70
     0
 10
0.0
 20
0.0
 30
0.0
  3
GDIMGGROUP5
  1

  0
POLYLINE
  5
165
330
163
100
AcDbEntity
  8
DEFAULT
  6
CONTINUOUS
 62
   136
100
AcDb2dPolyline
 66
     1
 10
0.0
 20
0.0
 30
0.0
  0
VERTEX
  5
19D
330
165
100
AcDbEntity
  8
DEFAULT
  6
CONTINUOUS
 62
   136
100
AcDbVertex
100
AcDb2dVertex
 10
116.9136162068
 20
130.6646742269
 30
0.0
  0
VERTEX
  5
19E
330
165
100
AcDbEntity
  8
DEFAULT
  6
CONTINUOUS
 62
   136
100
AcDbVertex
100
AcDb2dVertex
 10
116.3802828869
 20
133.8646741461
 30
0.0
  0
VERTEX
  5
19F
330
165
100
AcDbEntity
  8
DEFAULT
  6
CONTINUOUS
 62
   136
100
AcDbVertex
100
AcDb2dVertex
 10
115.8469495671
 20
130.6646742269
 30
0.0
  0
SEQEND
  5
1A0
330
165
100
AcDbEntity
  8
DEFAULT
  6
CONTINUOUS
 62
   136
  0
POLYLINE
  5
166
330
163
100
AcDbEntity
  8
DEFAULT
  6
CONTINUOUS
 62
   136
100
AcDb2dPolyline
 66
     1
 10
0.0
 20
0.0
 30
0.0
  0
VERTEX
  5
1A1
330
166
100
AcDbEntity
  8
DEFAULT
  6
CONTINUOUS
 62
   136
100
AcDbVertex
100
AcDb2dVertex
 10
116.9136162068
 20
106.5646737225
 30
0.0
  0
VERTEX
  5
1A2
330
166
100
AcDbEntity
  8
DEFAULT
  6
CONTINUOUS
 62
   136
100
AcDbVertex
100
AcDb2dVertex
 10
116.3802828869
 20
103.3646738034
 30
0.0
  0
VERTEX
  5
1A3
330
166
100
AcDbEntity
  8
DEFAULT
  6
CONTINUOUS
 62
   136
100
AcDbVertex
100
AcDb2dVertex
 10
115.8469495671
 20
106.5646737225
 30
0.0
  0
SEQEND
  5
1A4
330
166
100
AcDbEntity
  8
DEFAULT
  6
CONTINUOUS
 62
   136
  0
LINE
  5
167
330
163
100
AcDbEntity
  8
DEFAULT
  6
CONTINUOUS
 62
   136
100
AcDbLine
 10
129.8338982506
 20
133.8646741461
 30
0.0
 11
114.7802829273
 21
133.8646741461
 31
0.0
  0
LINE
  5
168
330
163
100
AcDbEntity
  8
DEFAULT
  6
CONTINUOUS
 62
   136
100
AcDbLine
 10
129.8338982506
 20
103.3646741461
 30
0.0
 11
114.7802829273
 21
103.3646741461
 31
0.0
  0
LINE
  5
169
330
163
100
AcDbEntity
  8
DEFAULT
  6
CONTINUOUS
 62
   136
100
AcDbLine
 10
116.3802828869
 20
133.8646741461
 30
0.0
 11
116.3802828869
 21
103.3646738034
 31
0.0
  0
TEXT
  5
16A
330
163
100
AcDbEntity
  8
DEFAULT
  6
CONTINUOUS
 62
   136
100
AcDbText
 10
115.5802828869
 20
106.3237711078
 30
0.0
 40
3.2
  1
O
 50
90.0
  7
SEACAD_SEMECA1_TTF
 11
112.3802828869
 21
106.3237711078
 31
0.0
100
AcDbText
 73
     3
  0
TEXT
  5
16B
330
163
100
AcDbEntity
  8
DEFAULT
  6
CONTINUOUS
 62
   136
100
AcDbText
 10
115.5802828869
 20
110.2928939148
 30
0.0
 40
3.2
  1
30.5
 50
90.0
  7
SEACAD_SEANSI_TTF
 11
112.3802828869
 21
110.2928939148
 31
0.0
100
AcDbText
 73
     3
  0
TEXT
  5
16C
330
163
100
AcDbEntity
  8
DEFAULT
  6
CONTINUOUS
 62
   136
100
AcDbText
 10
115.5802828869
 20
118.6128939148
 30
0.0
 40
3.2
  1
 P=0.5
 50
90.0
  7
SEACAD_SEANSI_TTF
 11
112.3802828869
 21
118.6128939148
 31
0.0
100
AcDbText
 73
     3
  0
ENDBLK
  5
16E
330
163
100
AcDbEntity
  8
0
100
AcDbBlockEnd
  0
ENDSEC
  0
SECTION
  2
ENTITIES
  0
INSERT
  5
3D
330
1F
100
AcDbEntity
  8
DEFAULT
100
AcDbBlockReference
  2
GDIMGGROUP
 10
0.0
 20
0.0
 30
0.0
  0
INSERT
  5
6C
330
1F
100
AcDbEntity
  8
DEFAULT
100
AcDbBlockReference
  2
GDIMGGROUP1
 10
0.0
 20
0.0
 30
0.0
  0
INSERT
  5
76
330
1F
100
AcDbEntity
  8
DEFAULT
100
AcDbBlockReference
  2
SE
 10
0.0
 20
0.0
 30
0.0
  0
INSERT
  5
145
330
1F
100
AcDbEntity
  8
DEFAULT
100
AcDbBlockReference
  2
GDIMGGROUP2
 10
0.0
 20
0.0
 30
0.0
  0
INSERT
  5
14F
330
1F
100
AcDbEntity
  8
DEFAULT
100
AcDbBlockReference
  2
GDIMGGROUP3
 10
0.0
 20
0.0
 30
0.0
  0
INSERT
  5
15A
330
1F
100
AcDbEntity
  8
DEFAULT
100
AcDbBlockReference
  2
GDIMGGROUP4
 10
0.0
 20
0.0
 30
0.0
  0
INSERT
  5
164
330
1F
100
AcDbEntity
  8
DEFAULT
100
AcDbBlockReference
  2
GDIMGGROUP5
 10
0.0
 20
0.0
 30
0.0
  0
ENDSEC
  0
SECTION
  2
OBJECTS
  0
DICTIONARY
  5
C
330
0
100
AcDbDictionary
  3
ACAD_GROUP
350
D
  3
ACAD_LAYOUT
350
1A
  3
ACAD_MLEADERSTYLE
350
171
  3
ACAD_MLINESTYLE
350
17
  3
ACAD_PLOTSETTINGS
350
19
  3
ACAD_SCALELIST
350
43
  3
ACAD_VISUALSTYLE
350
2A
  3
ACDBVARIABLEDICTIONARY
350
16F
1001
ACAD
1000
TREAT_AS_HARD
1070
     0
  0
DICTIONARY
  5
D
102
{ACAD_REACTORS
330
C
102
}
330
C
100
AcDbDictionary
1001
ACAD
1000
TREAT_AS_HARD
1070
     0
  0
DICTIONARY
  5
1A
102
{ACAD_REACTORS
330
C
102
}
330
C
100
AcDbDictionary
1001
ACAD
1000
TREAT_AS_HARD
1070
     0
  0
DICTIONARY
  5
171
102
{ACAD_REACTORS
330
C
102
}
330
C
100
AcDbDictionary
1001
ACAD
1000
TREAT_AS_HARD
1070
     0
  0
DICTIONARY
  5
17
102
{ACAD_REACTORS
330
C
102
}
330
C
100
AcDbDictionary
  3
STANDARD
350
18
1001
ACAD
1000
TREAT_AS_HARD
1070
     0
  0
DICTIONARY
  5
19
102
{ACAD_REACTORS
330
C
102
}
330
C
100
AcDbDictionary
1001
ACAD
1000
TREAT_AS_HARD
1070
     0
  0
DICTIONARY
  5
43
102
{ACAD_REACTORS
330
C
102
}
330
C
100
AcDbDictionary
  3
A0
350
44
  3
A1
350
45
  3
A2
350
46
  3
A3
350
47
  3
A4
350
48
  3
A5
350
49
  3
A6
350
4A
  3
A7
350
4B
  3
A8
350
4C
  3
A9
350
4D
  3
B0
350
4E
  3
B1
350
4F
  3
B2
350
50
  3
B3
350
51
  3
B4
350
52
  3
B5
350
53
  3
B6
350
54
  3
B7
350
55
  3
B8
350
56
  3
B9
350
57
  3
C0
350
58
  3
C1
350
59
  3
C2
350
5A
  3
C3
350
5B
  3
C4
350
5C
  3
C5
350
5D
  3
C6
350
5E
  3
C7
350
5F
  3
C8
350
60
  3
C9
350
61
  3
D0
350
62
  3
D1
350
63
  3
D2
350
64
1001
ACAD
1000
TREAT_AS_HARD
1070
     0
  0
DICTIONARY
  5
2A
102
{ACAD_REACTORS
330
C
102
}
330
C
100
AcDbDictionary
  3
2DWIREFRAME
350
2F
  3
3D_HIDDEN
350
31
  3
3DWIREFRAME
350
30
  3
BASIC
350
32
  3
BRIGHTEN
350
36
  3
COLORCHANGE
350
3A
  3
CONCEPTUAL
350
34
  3
DIM
350
35
  3
FACEPATTERN
350
39
  3
FLAT
350
2B
  3
FLATWITHEDGES
350
2C
  3
GOURAUD
350
2D
  3
GOURAUDWITHEDGES
350
2E
  3
LINEPATTERN
350
38
  3
REALISTIC
350
33
  3
THICKEN
350
37
1001
ACAD
1000
TREAT_AS_HARD
1070
     0
  0
DICTIONARY
  5
16F
102
{ACAD_REACTORS
330
C
102
}
330
C
100
AcDbDictionary
  3
CANNOSCALE
350
174
  3
PSOLHEIGHT
350
173
  3
PSOLWIDTH
350
172
1001
ACAD
1000
TREAT_AS_HARD
1070
     0
  0
MLINESTYLE
  5
18
102
{ACAD_REACTORS
330
17
102
}
330
17
100
AcDbMlineStyle
  2
Standard
 70
     0
  3

 62
   256
 51
90.0
 52
90.0
 71
     2
 49
0.5
 62
   256
  6
BYLAYER
 49
-0.5
 62
   256
  6
BYLAYER
  0
ACAD_PROXY_OBJECT
  5
44
102
{ACAD_REACTORS
330
43
102
}
330
43
100
AcDbZombieObject
 90
      499
 91
      502
 93
       41
310
903313A31580
  0
ACAD_PROXY_OBJECT
  5
45
102
{ACAD_REACTORS
330
43
102
}
330
43
100
AcDbZombieObject
 90
      499
 91
      502
 93
      105
310
903313A324000000000000004000
  0
ACAD_PROXY_OBJECT
  5
46
102
{ACAD_REACTORS
330
43
102
}
330
43
100
AcDbZombieObject
 90
      499
 91
      502
 93
      105
310
903313A344000000000000104000
  0
ACAD_PROXY_OBJECT
  5
47
102
{ACAD_REACTORS
330
43
102
}
330
43
100
AcDbZombieObject
 90
      499
 91
      502
 93
      105
310
903313A354000000000000144000
  0
ACAD_PROXY_OBJECT
  5
48
102
{ACAD_REACTORS
330
43
102
}
330
43
100
AcDbZombieObject
 90
      499
 91
      502
 93
      105
310
903313A384000000000000204000
  0
ACAD_PROXY_OBJECT
  5
49
102
{ACAD_REACTORS
330
43
102
}
330
43
100
AcDbZombieObject
 90
      499
 91
      502
 93
      113
310
904313A31304000000000000244000
  0
ACAD_PROXY_OBJECT
  5
4A
102
{ACAD_REACTORS
330
43
102
}
330
43
100
AcDbZombieObject
 90
      499
 91
      502
 93
      113
310
904313A31364000000000000304000
  0
ACAD_PROXY_OBJECT
  5
4B
102
{ACAD_REACTORS
330
43
102
}
330
43
100
AcDbZombieObject
 90
      499
 91
      502
 93
      113
310
904313A32304000000000000344000
  0
ACAD_PROXY_OBJECT
  5
4C
102
{ACAD_REACTORS
330
43
102
}
330
43
100
AcDbZombieObject
 90
      499
 91
      502
 93
      113
310
904313A333040000000000003E4000
  0
ACAD_PROXY_OBJECT
  5
4D
102
{ACAD_REACTORS
330
43
102
}
330
43
100
AcDbZombieObject
 90
      499
 91
      502
 93
      113
310
904313A34304000000000000444000
  0
ACAD_PROXY_OBJECT
  5
4E
102
{ACAD_REACTORS
330
43
102
}
330
43
100
AcDbZombieObject
 90
      499
 91
      502
 93
      113
310
904313A35304000000000000494000
  0
ACAD_PROXY_OBJECT
  5
4F
102
{ACAD_REACTORS
330
43
102
}
330
43
100
AcDbZombieObject
 90
      499
 91
      502
 93
      121
310
905313A3130304000000000000594000
  0
ACAD_PROXY_OBJECT
  5
50
102
{ACAD_REACTORS
330
43
102
}
330
43
100
AcDbZombieObject
 90
      499
 91
      502
 93
      105
310
903323A310000000000000010100
  0
ACAD_PROXY_OBJECT
  5
51
102
{ACAD_REACTORS
330
43
102
}
330
43
100
AcDbZombieObject
 90
      499
 91
      502
 93
      105
310
903343A310000000000000410100
  0
ACAD_PROXY_OBJECT
  5
52
102
{ACAD_REACTORS
330
43
102
}
330
43
100
AcDbZombieObject
 90
      499
 91
      502
 93
      105
310
903383A310000000000000810100
  0
ACAD_PROXY_OBJECT
  5
53
102
{ACAD_REACTORS
330
43
102
}
330
43
100
AcDbZombieObject
 90
      499
 91
      502
 93
      113
310
90431303A310000000000000910100
  0
ACAD_PROXY_OBJECT
  5
54
102
{ACAD_REACTORS
330
43
102
}
330
43
100
AcDbZombieObject
 90
      499
 91
      502
 93
      121
310
9053130303A310000000000001650100
  0
ACAD_PROXY_OBJECT
  5
55
102
{ACAD_REACTORS
330
43
102
}
330
43
100
AcDbZombieObject
 90
      499
 91
      502
 93
      257
310
90E312F31323822203D2031272D3022000000000000200FC000000000000284000
  0
ACAD_PROXY_OBJECT
  5
56
102
{ACAD_REACTORS
330
43
102
}
330
43
100
AcDbZombieObject
 90
      499
 91
      502
 93
      249
310
90D312F363422203D2031272D3022000000000000240FC000000000000284000
  0
ACAD_PROXY_OBJECT
  5
57
102
{ACAD_REACTORS
330
43
102
}
330
43
100
AcDbZombieObject
 90
      499
 91
      502
 93
      249
310
90D312F333222203D2031272D3022000000000000280FC000000000000284000
  0
ACAD_PROXY_OBJECT
  5
58
102
{ACAD_REACTORS
330
43
102
}
330
43
100
AcDbZombieObject
 90
      499
 91
      502
 93
      249
310
90D312F313622203D2031272D30220000000000002C0FC000000000000284000
  0
ACAD_PROXY_OBJECT
  5
59
102
{ACAD_REACTORS
330
43
102
}
330
43
100
AcDbZombieObject
 90
      499
 91
      502
 93
      249
310
90D332F333222203D2031272D30220000000000002E0FC000000000000284000
  0
ACAD_PROXY_OBJECT
  5
5A
102
{ACAD_REACTORS
330
43
102
}
330
43
100
AcDbZombieObject
 90
      499
 91
      502
 93
      241
310
90C312F3822203D2031272D3022000000000000300FC000000000000284000
  0
ACAD_PROXY_OBJECT
  5
5B
102
{ACAD_REACTORS
330
43
102
}
330
43
100
AcDbZombieObject
 90
      499
 91
      502
 93
      249
310
90D332F313622203D2031272D3022000000000000320FC000000000000284000
  0
ACAD_PROXY_OBJECT
  5
5C
102
{ACAD_REACTORS
330
43
102
}
330
43
100
AcDbZombieObject
 90
      499
 91
      502
 93
      241
310
90C312F3422203D2031272D3022000000000000340FC000000000000284000
  0
ACAD_PROXY_OBJECT
  5
5D
102
{ACAD_REACTORS
330
43
102
}
330
43
100
AcDbZombieObject
 90
      499
 91
      502
 93
      241
310
90C332F3822203D2031272D3022000000000000360FC000000000000284000
  0
ACAD_PROXY_OBJECT
  5
5E
102
{ACAD_REACTORS
330
43
102
}
330
43
100
AcDbZombieObject
 90
      499
 91
      502
 93
      241
310
90C312F3222203D2031272D3022000000000000380FC000000000000284000
  0
ACAD_PROXY_OBJECT
  5
5F
102
{ACAD_REACTORS
330
43
102
}
330
43
100
AcDbZombieObject
 90
      499
 91
      502
 93
      241
310
90C332F3422203D2031272D30220000000000003A0FC000000000000284000
  0
ACAD_PROXY_OBJECT
  5
60
102
{ACAD_REACTORS
330
43
102
}
330
43
100
AcDbZombieObject
 90
      499
 91
      502
 93
      161
310
90A3122203D2031272D30224000000000000284000
  0
ACAD_PROXY_OBJECT
  5
61
102
{ACAD_REACTORS
330
43
102
}
330
43
100
AcDbZombieObject
 90
      499
 91
      502
 93
      257
310
90E312D312F3222203D2031272D30220000000000003E0FC000000000000284000
  0
ACAD_PROXY_OBJECT
  5
62
102
{ACAD_REACTORS
330
43
102
}
330
43
100
AcDbZombieObject
 90
      499
 91
      502
 93
      225
310
90A3322203D2031272D302200000000000002100000000000000284000
  0
ACAD_PROXY_OBJECT
  5
63
102
{ACAD_REACTORS
330
43
102
}
330
43
100
AcDbZombieObject
 90
      499
 91
      502
 93
      225
310
90A3622203D2031272D302200000000000006100000000000000284000
  0
ACAD_PROXY_OBJECT
  5
64
102
{ACAD_REACTORS
330
43
102
}
330
43
100
AcDbZombieObject
 90
      499
 91
      502
 93
      249
310
90D31272D3022203D2031272D30220000000000000A100000000000000284000
  0
ACAD_PROXY_OBJECT
  5
2F
102
{ACAD_REACTORS
330
2A
102
}
330
2A
100
AcDbZombieObject
 90
      499
 91
      501
 93
      436
310
42CC9915DA5C99599C985B595049028333333333333E3BF0000000000000FB0107901411070040501600405405064090741402480A0340
1001
ACAD
1000
AcDbSavedByObjectVersion
1070
     0
  0
ACAD_PROXY_OBJECT
  5
31
102
{ACAD_REACTORS
330
2A
102
}
330
2A
100
AcDbZombieObject
 90
      499
 91
      501
 93
      500
310
424CD108121A5919195B90640502408333333333333E3BF0000000000000FB01079024090700405020000000000001110200405405064090740C02480A0340
1001
ACAD
1000
AcDbSavedByObjectVersion
1070
     0
  0
ACAD_PROXY_OBJECT
  5
30
102
{ACAD_REACTORS
330
2A
102
}
330
2A
100
AcDbZombieObject
 90
      499
 91
      501
 93
      436
310
42CCD915DA5C99599C985B595059028333333333333E3BF0000000000000FB0107901411070040501600405405064090741402480A0340
1001
ACAD
1000
AcDbSavedByObjectVersion
1070
     0
  0
ACAD_PROXY_OBJECT
  5
32
102
{ACAD_REACTORS
330
2A
102
}
330
2A
100
AcDbZombieObject
 90
      499
 91
      501
 93
      388
310
4150985CDA58D07406404333333333333E3BF0000000000000FB0107A41107004050150841D405064090741402480A0350
1001
ACAD
1000
AcDbSavedByObjectVersion
1070
     0
  0
ACAD_PROXY_OBJECT
  5
36
102
{ACAD_REACTORS
330
2A
102
}
330
2A
100
AcDbZombieObject
 90
      499
 91
      501
 93
      428
310
42109C9A59DA1D195B90C409028333333333333E3BF0000000000000FB010790141107004050150841D405064090741402480A029950
1001
ACAD
1000
AcDbSavedByObjectVersion
1070
     0
  0
ACAD_PROXY_OBJECT
  5
3A
102
{ACAD_REACTORS
330
2A
102
}
330
2A
100
AcDbZombieObject
 90
      499
 91
      501
 93
      452
310
42D0DBDB1BDC90DA185B99D95104090240C333333333333E3BF0000000000000FB0108901411070040501508421405064090741402480A0350
1001
ACAD
1000
AcDbSavedByObjectVersion
1070
     0
  0
ACAD_PROXY_OBJECT
  5
34
102
{ACAD_REACTORS
330
2A
102
}
330
2A
100
AcDbZombieObject
 90
      499
 91
      501
 93
      500
310
4290DBDB98D95C1D1D585B10940D028333333333333E3BF0000000000000FB0107902409070040501000000000000111010841D405064090740C02480A0340
1001
ACAD
1000
AcDbSavedByObjectVersion
1070
     0
  0
ACAD_PROXY_OBJECT
  5
35
102
{ACAD_REACTORS
330
2A
102
}
330
2A
100
AcDbZombieObject
 90
      499
 91
      501
 93
      412
310
40D11A5B50B409028333333333333E3BF0000000000000FB010790141107004050150841D405064090741402480A02677FFFFFD0
1001
ACAD
1000
AcDbSavedByObjectVersion
1070
     0
  0
ACAD_PROXY_OBJECT
  5
39
102
{ACAD_REACTORS
330
2A
102
}
330
2A
100
AcDbZombieObject
 90
      499
 91
      501
 93
      444
310
42D19858D95C185D1D195C9B90F409028333333333333E3BF0000000000000FB010790141107004050150841D405064090741402480A0350
1001
ACAD
1000
AcDbSavedByObjectVersion
1070
     0
  0
ACAD_PROXY_OBJECT
  5
2B
102
{ACAD_REACTORS
330
2A
102
}
330
2A
100
AcDbZombieObject
 90
      499
 91
      501
 93
      388
310
41119B185D240901404333333333333E3BF0000000000000F9010740A41107004050150841D405064090741402480A1B50
1001
ACAD
1000
AcDbSavedByObjectVersion
1070
     0
  0
ACAD_PROXY_OBJECT
  5
2C
102
{ACAD_REACTORS
330
2A
102
}
330
2A
100
AcDbZombieObject
 90
      499
 91
      501
 93
      476
310
43519B185D15DA5D1A115919D95CD0140901404333333333333E3BF0000000000000F9010740901411070040501600405405064090741402480A1B50
1001
ACAD
1000
AcDbSavedByObjectVersion
1070
     0
  0
ACAD_PROXY_OBJECT
  5
2D
102
{ACAD_REACTORS
330
2A
102
}
330
2A
100
AcDbZombieObject
 90
      499
 91
      501
 93
      412
310
41D1DBDD5C985D5910240902404333333333333E3BF0000000000000F9010740A411070040501641D405064090741402480A1B50
1001
ACAD
1000
AcDbSavedByObjectVersion
1070
     0
  0
ACAD_PROXY_OBJECT
  5
2E
102
{ACAD_REACTORS
330
2A
102
}
330
2A
100
AcDbZombieObject
 90
      499
 91
      501
 93
      500
310
4411DBDD5C985D5915DA5D1A115919D95CD0340902404333333333333E3BF0000000000000F9010740901411070040501600405405064090741402480A1B50
1001
ACAD
1000
AcDbSavedByObjectVersion
1070
     0
  0
ACAD_PROXY_OBJECT
  5
38
102
{ACAD_REACTORS
330
2A
102
}
330
2A
100
AcDbZombieObject
 90
      499
 91
      501
 93
      444
310
42D31A5B995C185D1D195C9B90E409028333333333333E3BF0000000000000FB010790141107004050750841D405064090741402483A0350
1001
ACAD
1000
AcDbSavedByObjectVersion
1070
     0
  0
ACAD_PROXY_OBJECT
  5
33
102
{ACAD_REACTORS
330
2A
102
}
330
2A
100
AcDbZombieObject
 90
      499
 91
      501
 93
      420
310
425499585B1A5CDD1A58D08409028333333333333E3BF0000000000000FB01079019070040501508421405064090741402480A1B40
1001
ACAD
1000
AcDbSavedByObjectVersion
1070
     0
  0
ACAD_PROXY_OBJECT
  5
37
102
{ACAD_REACTORS
330
2A
102
}
330
2A
100
AcDbZombieObject
 90
      499
 91
      501
 93
      412
310
41D51A1A58DAD95B90D409028333333333333E3BF0000000000000FB010790141107004050150C41D405064090741402480A0350
1001
ACAD
1000
AcDbSavedByObjectVersion
1070
     0
  0
DICTIONARYVAR
  5
174
102
{ACAD_REACTORS
330
16F
102
}
330
16F
100
DictionaryVariables
280
     0
  1
1:1
  0
DICTIONARYVAR
  5
173
102
{ACAD_REACTORS
330
16F
102
}
330
16F
100
DictionaryVariables
280
     0
  1
80.000000
  0
DICTIONARYVAR
  5
172
102
{ACAD_REACTORS
330
16F
102
}
330
16F
100
DictionaryVariables
280
     0
  1
5.000000
  0
ENDSEC
  0
EOF
