  0
SECTION
  2
HEADER
  9
$ACADVER
  1
AC1012
  9
$DWGCODEPAGE
  3
ansi_932
  9
$INSBASE
 10
0.0
 20
0.0
 30
0.0
  9
$EXTMIN
 10
0.0
 20
0.0
 30
0.0
  9
$EXTMAX
 10
297.0
 20
210.0
 30
0.0
  9
$LIMMIN
 10
0.0
 20
0.0
  9
$LIMMAX
 10
297.0
 20
210.0
  9
$ORTHOMODE
 70
     0
  9
$REGENMODE
 70
     1
  9
$FILLMODE
 70
     1
  9
$QTEXTMODE
 70
     0
  9
$MIRRTEXT
 70
     1
  9
$DRAGMODE
 70
     2
  9
$LTSCALE
 40
1.0
  9
$OSMODE
 70
    37
  9
$ATTMODE
 70
     1
  9
$TEXTSIZE
 40
2.5
  9
$TRACEWID
 40
1.0
  9
$TEXTSTYLE
  7
STANDARD
  9
$CLAYER
  8
0
  9
$CELTYPE
  6
BYLAYER
  9
$CECOLOR
 62
   256
  9
$CELTSCALE
 40
1.0
  9
$DELOBJ
 70
     1
  9
$DISPSILH
 70
     0
  9
$DIMSCALE
 40
1.0
  9
$DIMASZ
 40
2.5
  9
$DIMEXO
 40
0.625
  9
$DIMDLI
 40
3.75
  9
$DIMRND
 40
0.0
  9
$DIMDLE
 40
0.0
  9
$DIMEXE
 40
1.25
  9
$DIMTP
 40
0.0
  9
$DIMTM
 40
0.0
  9
$DIMTXT
 40
2.5
  9
$DIMCEN
 40
2.5
  9
$DIMTSZ
 40
0.0
  9
$DIMTOL
 70
     0
  9
$DIMLIM
 70
     0
  9
$DIMTIH
 70
     0
  9
$DIMTOH
 70
     0
  9
$DIMSE1
 70
     0
  9
$DIMSE2
 70
     0
  9
$DIMTAD
 70
     1
  9
$DIMZIN
 70
     8
  9
$DIMBLK
  1

  9
$DIMASO
 70
     1
  9
$DIMSHO
 70
     1
  9
$DIMPOST
  1

  9
$DIMAPOST
  1

  9
$DIMALT
 70
     0
  9
$DIMALTD
 70
     3
  9
$DIMALTF
 40
0.0393700787
  9
$DIMLFAC
 40
1.0
  9
$DIMTOFL
 70
     1
  9
$DIMTVP
 40
0.0
  9
$DIMTIX
 70
     0
  9
$DIMSOXD
 70
     0
  9
$DIMSAH
 70
     0
  9
$DIMBLK1
  1

  9
$DIMBLK2
  1

  9
$DIMSTYLE
  2
ISO-25
  9
$DIMCLRD
 70
     0
  9
$DIMCLRE
 70
     0
  9
$DIMCLRT
 70
     0
  9
$DIMTFAC
 40
1.0
  9
$DIMGAP
 40
0.625
  9
$DIMJUST
 70
     0
  9
$DIMSD1
 70
     0
  9
$DIMSD2
 70
     0
  9
$DIMTOLJ
 70
     0
  9
$DIMTZIN
 70
     8
  9
$DIMALTZ
 70
     0
  9
$DIMALTTZ
 70
     0
  9
$DIMFIT
 70
     3
  9
$DIMUPT
 70
     0
  9
$DIMUNIT
 70
     2
  9
$DIMDEC
 70
     2
  9
$DIMTDEC
 70
     2
  9
$DIMALTU
 70
     2
  9
$DIMALTTD
 70
     3
  9
$DIMTXSTY
  7
STANDARD
  9
$DIMAUNIT
 70
     0
  9
$LUNITS
 70
     2
  9
$LUPREC
 70
     4
  9
$SKETCHINC
 40
1.0
  9
$FILLETRAD
 40
10.0
  9
$AUNITS
 70
     0
  9
$AUPREC
 70
     0
  9
$MENU
  1
.
  9
$ELEVATION
 40
0.0
  9
$PELEVATION
 40
0.0
  9
$THICKNESS
 40
0.0
  9
$LIMCHECK
 70
     0
  9
$CHAMFERA
 40
10.0
  9
$CHAMFERB
 40
10.0
  9
$CHAMFERC
 40
20.0
  9
$CHAMFERD
 40
0.0
  9
$SKPOLY
 70
     0
  9
$TDCREATE
 40
2456542.649024283
  9
$TDUPDATE
 40
2456542.649024294
  9
$TDINDWG
 40
0.0000000116
  9
$TDUSRTIMER
 40
0.0000000116
  9
$USRTIMER
 70
     1
  9
$ANGBASE
 50
0.0
  9
$ANGDIR
 70
     0
  9
$PDMODE
 70
     0
  9
$PDSIZE
 40
0.0
  9
$PLINEWID
 40
0.0
  9
$COORDS
 70
     1
  9
$SPLFRAME
 70
     0
  9
$SPLINETYPE
 70
     6
  9
$SPLINESEGS
 70
     8
  9
$ATTDIA
 70
     0
  9
$ATTREQ
 70
     1
  9
$HANDLING
 70
     1
  9
$HANDSEED
  5
1F6
  9
$SURFTAB1
 70
     6
  9
$SURFTAB2
 70
     6
  9
$SURFTYPE
 70
     6
  9
$SURFU
 70
     6
  9
$SURFV
 70
     6
  9
$UCSNAME
  2

  9
$UCSORG
 10
0.0
 20
0.0
 30
0.0
  9
$UCSXDIR
 10
1.0
 20
0.0
 30
0.0
  9
$UCSYDIR
 10
0.0
 20
1.0
 30
0.0
  9
$PUCSNAME
  2

  9
$PUCSORG
 10
0.0
 20
0.0
 30
0.0
  9
$PUCSXDIR
 10
1.0
 20
0.0
 30
0.0
  9
$PUCSYDIR
 10
0.0
 20
1.0
 30
0.0
  9
$USERI1
 70
     0
  9
$USERI2
 70
     0
  9
$USERI3
 70
     0
  9
$USERI4
 70
     0
  9
$USERI5
 70
     0
  9
$USERR1
 40
0.0
  9
$USERR2
 40
0.0
  9
$USERR3
 40
0.0
  9
$USERR4
 40
0.0
  9
$USERR5
 40
0.0
  9
$WORLDVIEW
 70
     1
  9
$SHADEDGE
 70
     3
  9
$SHADEDIF
 70
    70
  9
$TILEMODE
 70
     1
  9
$MAXACTVP
 70
    64
  9
$PINSBASE
 10
0.0
 20
0.0
 30
0.0
  9
$PLIMCHECK
 70
     0
  9
$PEXTMIN
 10
0.0
 20
0.0
 30
0.0
  9
$PEXTMAX
 10
297.0
 20
210.0
 30
0.0
  9
$PLIMMIN
 10
0.0
 20
0.0
  9
$PLIMMAX
 10
297.0
 20
210.0
  9
$UNITMODE
 70
     0
  9
$VISRETAIN
 70
     1
  9
$PLINEGEN
 70
     0
  9
$PSLTSCALE
 70
     1
  9
$TREEDEPTH
 70
  3020
  9
$PICKSTYLE
 70
     1
  9
$CMLSTYLE
  2
STANDARD
  9
$CMLJUST
 70
     0
  9
$CMLSCALE
 40
20.0
  9
$SAVEIMAGES
 70
     1
  0
ENDSEC
  0
SECTION
  2
CLASSES
  0
CLASS
  1
ACDBDICTIONARYWDFLT
  2
AcDbDictionaryWithDefault
  3
ObjectDBX Classes
 90
    32768
280
     0
281
     0
  0
CLASS
  1
VISUALSTYLE
  2
AcDbVisualStyle
  3
ObjectDBX Classes
 90
     4095
280
     0
281
     0
  0
CLASS
  1
SCALE
  2
AcDbScale
  3
ObjectDBX Classes
 90
     1153
280
     0
281
     0
  0
CLASS
  1
DICTIONARYVAR
  2
AcDbDictionaryVar
  3
ObjectDBX Classes
 90
        0
280
     0
281
     0
  0
CLASS
  1
XRECORD
  2
AcDbXrecord
  3
AutoCAD 2000
 90
    32768
280
     0
281
     0
  0
CLASS
  1
LWPOLYLINE
  2
AcDbPolyline
  3
AutoCAD 2000
 90
    32768
280
     0
281
     1
  0
CLASS
  1
HATCH
  2
AcDbHatch
  3
AutoCAD 2000
 90
    32768
280
     0
281
     1
  0
CLASS
  1
ACDBPLACEHOLDER
  2
AcDbPlaceHolder
  3
ObjectDBX Classes
 90
        0
280
     0
281
     0
  0
CLASS
  1
LAYOUT
  2
AcDbLayout
  3
ObjectDBX Classes
 90
        0
280
     0
281
     0
  0
ENDSEC
  0
SECTION
  2
TABLES
  0
TABLE
  2
VPORT
  5
8
330
0
100
AcDbSymbolTable
 70
     1
  0
VPORT
  5
29
330
8
100
AcDbSymbolTableRecord
100
AcDbViewportTableRecord
  2
*ACTIVE
 70
     0
 10
0.0
 20
0.0
 11
1.0
 21
1.0
 12
344.1869158879
 22
148.5
 13
0.0
 23
0.0
 14
10.0
 24
10.0
 15
10.0
 25
10.0
 16
0.0
 26
0.0
 36
1.0
 17
0.0
 27
0.0
 37
0.0
 40
297.0
 41
1.9729729729
 42
50.0
 43
0.0
 44
0.0
 50
0.0
 51
0.0
 71
     0
 72
   100
 73
     1
 74
     3
 75
     0
 76
     0
 77
     0
 78
     0
  0
ENDTAB
  0
TABLE
  2
LTYPE
  5
5
330
0
100
AcDbSymbolTable
 70
     2
  0
LTYPE
  5
14
330
5
100
AcDbSymbolTableRecord
100
AcDbLinetypeTableRecord
  2
BYBLOCK
 70
     0
  3

 72
    65
 73
     0
 40
0.0
  0
LTYPE
  5
15
330
5
100
AcDbSymbolTableRecord
100
AcDbLinetypeTableRecord
  2
BYLAYER
 70
     0
  3

 72
    65
 73
     0
 40
0.0
  0
LTYPE
  5
16
330
5
100
AcDbSymbolTableRecord
100
AcDbLinetypeTableRecord
  2
CONTINUOUS
 70
     0
  3
Solid line
 72
    65
 73
     0
 40
0.0
  0
LTYPE
  5
1A4
330
5
100
AcDbSymbolTableRecord
100
AcDbLinetypeTableRecord
  2
CENTER2
 70
     0
  3
Center (.5x) ___ _ ___ _ ___ _ ___ _ ___ _ ___
 72
    65
 73
     4
 40
28.575
 49
19.05
 74
     4
 75
     0
340
0
 46
0.0
 50
0.0
 44
0.0
 45
0.0
 49
-3.175
 74
     4
 75
     0
340
0
 46
0.0
 50
0.0
 44
0.0
 45
0.0
 49
3.175
 74
     4
 75
     0
340
0
 46
0.0
 50
0.0
 44
0.0
 45
0.0
 49
-3.175
 74
     4
 75
     0
340
0
 46
0.0
 50
0.0
 44
0.0
 45
0.0
  0
ENDTAB
  0
TABLE
  2
LAYER
  5
2
330
0
100
AcDbSymbolTable
 70
     4
  0
LAYER
  5
10
330
2
100
AcDbSymbolTableRecord
100
AcDbLayerTableRecord
  2
0
 70
     0
 62
     7
  6
CONTINUOUS
  0
LAYER
  5
3B
330
2
100
AcDbSymbolTableRecord
100
AcDbLayerTableRecord
  2
DEFAULT
 70
     0
 62
     7
  6
CONTINUOUS
  0
LAYER
  5
A2
330
2
100
AcDbSymbolTableRecord
100
AcDbLayerTableRecord
  2
DV1_デフォルト
 70
     0
 62
     7
  6
CONTINUOUS
  0
LAYER
  5
1A3
330
2
100
AcDbSymbolTableRecord
100
AcDbLayerTableRecord
  2
DV1_ﾃ_ﾌｫﾙﾄ
 70
     0
 62
     7
  6
CONTINUOUS
  0
ENDTAB
  0
TABLE
  2
STYLE
  5
3
330
0
100
AcDbSymbolTable
 70
     3
  0
STYLE
  5
11
330
3
100
AcDbSymbolTableRecord
100
AcDbTextStyleTableRecord
  2
STANDARD
 70
     0
 40
0.0
 41
1.0
 50
0.0
 71
     0
 42
2.5
  3
txt
  4

  0
STYLE
  5
65
330
3
100
AcDbSymbolTableRecord
100
AcDbTextStyleTableRecord
  2
SEACAD_SEANSI_TTF
 70
     0
 40
0.0
 41
1.0
 50
0.0
 71
     0
 42
0.2
  3
seansi.ttf
  4

  0
STYLE
  5
67
330
3
100
AcDbSymbolTableRecord
100
AcDbTextStyleTableRecord
  2
SEACAD_SEMECA1_TTF
 70
     0
 40
0.0
 41
1.0
 50
0.0
 71
     0
 42
0.2
  3
semeca1.ttf
  4

  0
ENDTAB
  0
TABLE
  2
VIEW
  5
6
330
0
100
AcDbSymbolTable
 70
     0
  0
ENDTAB
  0
TABLE
  2
UCS
  5
7
330
0
100
AcDbSymbolTable
 70
     0
  0
ENDTAB
  0
TABLE
  2
APPID
  5
9
330
0
100
AcDbSymbolTable
 70
     1
  0
APPID
  5
12
330
9
100
AcDbSymbolTableRecord
100
AcDbRegAppTableRecord
  2
ACAD
 70
     0
  0
ENDTAB
  0
TABLE
  2
DIMSTYLE
  5
A
330
0
100
AcDbSymbolTable
 70
     1
  0
DIMSTYLE
105
27
330
A
100
AcDbSymbolTableRecord
100
AcDbDimStyleTableRecord
  2
ISO-25
 70
     0
  3

  4

  5

  6

  7

 40
1.0
 41
2.5
 42
0.625
 43
3.75
 44
1.25
 45
0.0
 46
0.0
 47
0.0
 48
0.0
140
2.5
141
2.5
142
0.0
143
0.0393700787
144
1.0
145
0.0
146
1.0
147
0.625
 71
     0
 72
     0
 73
     0
 74
     0
 75
     0
 76
     0
 77
     1
 78
     8
170
     0
171
     3
172
     1
173
     0
174
     0
175
     0
176
     0
177
     0
178
     0
270
     2
271
     2
272
     2
273
     2
274
     3
340
11
275
     0
280
     0
281
     0
282
     0
283
     0
284
     8
285
     0
286
     0
287
     3
288
     0
  0
ENDTAB
  0
TABLE
  2
BLOCK_RECORD
  5
1
330
0
100
AcDbSymbolTable
 70
     9
  0
BLOCK_RECORD
  5
1F
330
1
100
AcDbSymbolTableRecord
100
AcDbBlockTableRecord
  2
*MODEL_SPACE
  0
BLOCK_RECORD
  5
1B
330
1
100
AcDbSymbolTableRecord
100
AcDbBlockTableRecord
  2
*PAPER_SPACE
  0
BLOCK_RECORD
  5
3C
330
1
100
AcDbSymbolTableRecord
100
AcDbBlockTableRecord
  2
GDIMGGROUP
  0
BLOCK_RECORD
  5
6B
330
1
100
AcDbSymbolTableRecord
100
AcDbBlockTableRecord
  2
GDIMGGROUP1
  0
BLOCK_RECORD
  5
76
330
1
100
AcDbSymbolTableRecord
100
AcDbBlockTableRecord
  2
GDIMGGROUP2
  0
BLOCK_RECORD
  5
80
330
1
100
AcDbSymbolTableRecord
100
AcDbBlockTableRecord
  2
GDIMGGROUP3
  0
BLOCK_RECORD
  5
8A
330
1
100
AcDbSymbolTableRecord
100
AcDbBlockTableRecord
  2
GDIMGGROUP4
  0
BLOCK_RECORD
  5
94
330
1
100
AcDbSymbolTableRecord
100
AcDbBlockTableRecord
  2
GDIMGGROUP5
  0
BLOCK_RECORD
  5
A0
330
1
100
AcDbSymbolTableRecord
100
AcDbBlockTableRecord
  2
SE
  0
BLOCK_RECORD
  5
1AD
330
1
100
AcDbSymbolTableRecord
100
AcDbBlockTableRecord
  2
GDIMGGROUP6
  0
ENDTAB
  0
ENDSEC
  0
SECTION
  2
BLOCKS
  0
BLOCK
  5
20
330
1F
100
AcDbEntity
  8
0
100
AcDbBlockBegin
  2
*MODEL_SPACE
 70
     0
 10
0.0
 20
0.0
 30
0.0
  3
*MODEL_SPACE
  1

  0
ENDBLK
  5
21
330
1F
100
AcDbEntity
  8
0
100
AcDbBlockEnd
  0
BLOCK
  5
1C
330
1B
100
AcDbEntity
 67
     1
  8
0
100
AcDbBlockBegin
  2
*PAPER_SPACE
 70
     0
 10
0.0
 20
0.0
 30
0.0
  3
*PAPER_SPACE
  1

  0
ENDBLK
  5
1D
330
1B
100
AcDbEntity
 67
     1
  8
0
100
AcDbBlockEnd
  0
BLOCK
  5
69
330
3C
100
AcDbEntity
  8
0
100
AcDbBlockBegin
  2
GDIMGGROUP
 70
     0
 10
0.0
 20
0.0
 30
0.0
  3
GDIMGGROUP
  1

  0
POLYLINE
  5
3E
330
3C
100
AcDbEntity
  8
DEFAULT
  6
CONTINUOUS
 62
   136
100
AcDb2dPolyline
 66
     1
 10
0.0
 20
0.0
 30
0.0
  0
VERTEX
  5
1BE
330
3E
100
AcDbEntity
  8
DEFAULT
  6
CONTINUOUS
 62
   136
100
AcDbVertex
100
AcDb2dVertex
 10
97.7615603755
 20
133.9641019388
 30
0.0
  0
VERTEX
  5
1BF
330
3E
100
AcDbEntity
  8
DEFAULT
  6
CONTINUOUS
 62
   136
100
AcDbVertex
100
AcDb2dVertex
 10
97.2282270556
 20
137.1641018579
 30
0.0
  0
VERTEX
  5
1C0
330
3E
100
AcDbEntity
  8
DEFAULT
  6
CONTINUOUS
 62
   136
100
AcDbVertex
100
AcDb2dVertex
 10
96.6948937357
 20
133.9641019388
 30
0.0
  0
SEQEND
  5
1C1
330
3E
100
AcDbEntity
  8
DEFAULT
  6
CONTINUOUS
 62
   136
  0
POLYLINE
  5
3F
330
3C
100
AcDbEntity
  8
DEFAULT
  6
CONTINUOUS
 62
   136
100
AcDb2dPolyline
 66
     1
 10
0.0
 20
0.0
 30
0.0
  0
VERTEX
  5
1C2
330
3F
100
AcDbEntity
  8
DEFAULT
  6
CONTINUOUS
 62
   136
100
AcDbVertex
100
AcDb2dVertex
 10
97.7615603755
 20
98.3641023433
 30
0.0
  0
VERTEX
  5
1C3
330
3F
100
AcDbEntity
  8
DEFAULT
  6
CONTINUOUS
 62
   136
100
AcDbVertex
100
AcDb2dVertex
 10
97.2282270556
 20
95.1641024242
 30
0.0
  0
VERTEX
  5
1C4
330
3F
100
AcDbEntity
  8
DEFAULT
  6
CONTINUOUS
 62
   136
100
AcDbVertex
100
AcDb2dVertex
 10
96.6948937357
 20
98.3641023433
 30
0.0
  0
SEQEND
  5
1C5
330
3F
100
AcDbEntity
  8
DEFAULT
  6
CONTINUOUS
 62
   136
  0
LINE
  5
40
330
3C
100
AcDbEntity
  8
DEFAULT
  6
CONTINUOUS
 62
   136
100
AcDbLine
 10
116.1702185524
 20
137.1641018579
 30
0.0
 11
95.628227096
 21
137.1641018579
 31
0.0
  0
LINE
  5
41
330
3C
100
AcDbEntity
  8
DEFAULT
  6
CONTINUOUS
 62
   136
100
AcDbLine
 10
116.1702185524
 20
95.1641018579
 30
0.0
 11
95.628227096
 21
95.1641018579
 31
0.0
  0
LINE
  5
42
330
3C
100
AcDbEntity
  8
DEFAULT
  6
CONTINUOUS
 62
   136
100
AcDbLine
 10
97.2282270556
 20
137.1641018579
 30
0.0
 11
97.2282270556
 21
95.1641024242
 31
0.0
  0
TEXT
  5
66
330
3C
100
AcDbEntity
  8
DEFAULT
  6
CONTINUOUS
 62
   136
100
AcDbText
 10
96.4282270556
 20
115.8072001299
 30
0.0
 40
3.2
  1
42
 50
90.0
  7
SEACAD_SEANSI_TTF
 11
93.2282270556
 21
115.8072001299
 31
0.0
100
AcDbText
 73
     3
  0
TEXT
  5
68
330
3C
100
AcDbEntity
  8
DEFAULT
  6
CONTINUOUS
 62
   136
100
AcDbText
 10
96.4282270556
 20
111.8380773229
 30
0.0
 40
3.2
  1
O
 50
90.0
  7
SEACAD_SEMECA1_TTF
 11
93.2282270556
 21
111.8380773229
 31
0.0
100
AcDbText
 73
     3
  0
ENDBLK
  5
6A
330
3C
100
AcDbEntity
  8
0
100
AcDbBlockEnd
  0
BLOCK
  5
74
330
6B
100
AcDbEntity
  8
0
100
AcDbBlockBegin
  2
GDIMGGROUP1
 70
     0
 10
0.0
 20
0.0
 30
0.0
  3
GDIMGGROUP1
  1

  0
POLYLINE
  5
6D
330
6B
100
AcDbEntity
  8
DEFAULT
  6
CONTINUOUS
 62
   136
100
AcDb2dPolyline
 66
     1
 10
0.0
 20
0.0
 30
0.0
  0
VERTEX
  5
1C6
330
6D
100
AcDbEntity
  8
DEFAULT
  6
CONTINUOUS
 62
   136
100
AcDbVertex
100
AcDb2dVertex
 10
173.525751015
 20
124.0641019388
 30
0.0
  0
VERTEX
  5
1C7
330
6D
100
AcDbEntity
  8
DEFAULT
  6
CONTINUOUS
 62
   136
100
AcDbVertex
100
AcDb2dVertex
 10
174.0590843349
 20
127.2641018579
 30
0.0
  0
VERTEX
  5
1C8
330
6D
100
AcDbEntity
  8
DEFAULT
  6
CONTINUOUS
 62
   136
100
AcDbVertex
100
AcDb2dVertex
 10
174.5924176548
 20
124.0641019388
 30
0.0
  0
SEQEND
  5
1C9
330
6D
100
AcDbEntity
  8
DEFAULT
  6
CONTINUOUS
 62
   136
  0
POLYLINE
  5
6E
330
6B
100
AcDbEntity
  8
DEFAULT
  6
CONTINUOUS
 62
   136
100
AcDb2dPolyline
 66
     1
 10
0.0
 20
0.0
 30
0.0
  0
VERTEX
  5
1CA
330
6E
100
AcDbEntity
  8
DEFAULT
  6
CONTINUOUS
 62
   136
100
AcDbVertex
100
AcDb2dVertex
 10
173.525751015
 20
108.2641022361
 30
0.0
  0
VERTEX
  5
1CB
330
6E
100
AcDbEntity
  8
DEFAULT
  6
CONTINUOUS
 62
   136
100
AcDbVertex
100
AcDb2dVertex
 10
174.0590843349
 20
105.0641023169
 30
0.0
  0
VERTEX
  5
1CC
330
6E
100
AcDbEntity
  8
DEFAULT
  6
CONTINUOUS
 62
   136
100
AcDbVertex
100
AcDb2dVertex
 10
174.5924176548
 20
108.2641022361
 30
0.0
  0
SEQEND
  5
1CD
330
6E
100
AcDbEntity
  8
DEFAULT
  6
CONTINUOUS
 62
   136
  0
LINE
  5
6F
330
6B
100
AcDbEntity
  8
DEFAULT
  6
CONTINUOUS
 62
   136
100
AcDbLine
 10
162.1702184878
 20
127.2641018579
 30
0.0
 11
175.6590842945
 21
127.2641018579
 31
0.0
  0
LINE
  5
70
330
6B
100
AcDbEntity
  8
DEFAULT
  6
CONTINUOUS
 62
   136
100
AcDbLine
 10
162.1702184878
 20
105.0641018579
 30
0.0
 11
175.6590842945
 21
105.0641018579
 31
0.0
  0
LINE
  5
71
330
6B
100
AcDbEntity
  8
DEFAULT
  6
CONTINUOUS
 62
   136
100
AcDbLine
 10
174.0590843349
 20
127.2641018579
 30
0.0
 11
174.0590843349
 21
105.0641023169
 31
0.0
  0
TEXT
  5
72
330
6B
100
AcDbEntity
  8
DEFAULT
  6
CONTINUOUS
 62
   136
100
AcDbText
 10
173.2590843349
 20
114.1486634909
 30
0.0
 40
3.2
  1
22.2
 50
90.0
  7
SEACAD_SEANSI_TTF
 11
170.0590843349
 21
114.1486634909
 31
0.0
100
AcDbText
 73
     3
  0
TEXT
  5
73
330
6B
100
AcDbEntity
  8
DEFAULT
  6
CONTINUOUS
 62
   136
100
AcDbText
 10
173.2590843349
 20
110.1795406839
 30
0.0
 40
3.2
  1
O
 50
90.0
  7
SEACAD_SEMECA1_TTF
 11
170.0590843349
 21
110.1795406839
 31
0.0
100
AcDbText
 73
     3
  0
ENDBLK
  5
75
330
6B
100
AcDbEntity
  8
0
100
AcDbBlockEnd
  0
BLOCK
  5
7E
330
76
100
AcDbEntity
  8
0
100
AcDbBlockBegin
  2
GDIMGGROUP2
 70
     0
 10
0.0
 20
0.0
 30
0.0
  3
GDIMGGROUP2
  1

  0
POLYLINE
  5
78
330
76
100
AcDbEntity
  8
DEFAULT
  6
CONTINUOUS
 62
   136
100
AcDb2dPolyline
 66
     1
 10
0.0
 20
0.0
 30
0.0
  0
VERTEX
  5
1CE
330
78
100
AcDbEntity
  8
DEFAULT
  6
CONTINUOUS
 62
   136
100
AcDbVertex
100
AcDb2dVertex
 10
120.4502184393
 20
83.1841602593
 30
0.0
  0
VERTEX
  5
1CF
330
78
100
AcDbEntity
  8
DEFAULT
  6
CONTINUOUS
 62
   136
100
AcDbVertex
100
AcDb2dVertex
 10
117.2502185201
 20
82.6508269394
 30
0.0
  0
VERTEX
  5
1D0
330
78
100
AcDbEntity
  8
DEFAULT
  6
CONTINUOUS
 62
   136
100
AcDbVertex
100
AcDb2dVertex
 10
120.4502184393
 20
82.1174936196
 30
0.0
  0
SEQEND
  5
1D1
330
78
100
AcDbEntity
  8
DEFAULT
  6
CONTINUOUS
 62
   136
  0
POLYLINE
  5
79
330
76
100
AcDbEntity
  8
DEFAULT
  6
CONTINUOUS
 62
   136
100
AcDb2dPolyline
 66
     1
 10
0.0
 20
0.0
 30
0.0
  0
VERTEX
  5
1D2
330
79
100
AcDbEntity
  8
DEFAULT
  6
CONTINUOUS
 62
   136
100
AcDbVertex
100
AcDb2dVertex
 10
150.7502177247
 20
83.1841602593
 30
0.0
  0
VERTEX
  5
1D3
330
79
100
AcDbEntity
  8
DEFAULT
  6
CONTINUOUS
 62
   136
100
AcDbVertex
100
AcDb2dVertex
 10
153.9502176439
 20
82.6508269394
 30
0.0
  0
VERTEX
  5
1D4
330
79
100
AcDbEntity
  8
DEFAULT
  6
CONTINUOUS
 62
   136
100
AcDbVertex
100
AcDb2dVertex
 10
150.7502177247
 20
82.1174936196
 30
0.0
  0
SEQEND
  5
1D5
330
79
100
AcDbEntity
  8
DEFAULT
  6
CONTINUOUS
 62
   136
  0
LINE
  5
7A
330
76
100
AcDbEntity
  8
DEFAULT
  6
CONTINUOUS
 62
   136
100
AcDbLine
 10
117.2502185201
 20
94.0841018903
 30
0.0
 11
117.2502185201
 21
81.0508269799
 31
0.0
  0
LINE
  5
7B
330
76
100
AcDbEntity
  8
DEFAULT
  6
CONTINUOUS
 62
   136
100
AcDbLine
 10
153.9502185201
 20
100.0841018903
 30
0.0
 11
153.9502185201
 21
81.0508269799
 31
0.0
  0
LINE
  5
7C
330
76
100
AcDbEntity
  8
DEFAULT
  6
CONTINUOUS
 62
   136
100
AcDbLine
 10
117.2502185201
 20
82.6508269394
 30
0.0
 11
153.9502176439
 21
82.6508269394
 31
0.0
  0
TEXT
  5
7D
330
76
100
AcDbEntity
  8
DEFAULT
  6
CONTINUOUS
 62
   136
100
AcDbText
 10
131.600218082
 20
83.4508269394
 30
0.0
 40
3.2
  1
36.7
  7
SEACAD_SEANSI_TTF
 11
131.600218082
 21
86.6508269394
 31
0.0
100
AcDbText
 73
     3
  0
ENDBLK
  5
7F
330
76
100
AcDbEntity
  8
0
100
AcDbBlockEnd
  0
BLOCK
  5
88
330
80
100
AcDbEntity
  8
0
100
AcDbBlockBegin
  2
GDIMGGROUP3
 70
     0
 10
0.0
 20
0.0
 30
0.0
  3
GDIMGGROUP3
  1

  0
POLYLINE
  5
82
330
80
100
AcDbEntity
  8
DEFAULT
  6
CONTINUOUS
 62
   136
100
AcDb2dPolyline
 66
     1
 10
0.0
 20
0.0
 30
0.0
  0
VERTEX
  5
1D6
330
82
100
AcDbEntity
  8
DEFAULT
  6
CONTINUOUS
 62
   136
100
AcDbVertex
100
AcDb2dVertex
 10
157.1502184393
 20
83.1841602071
 30
0.0
  0
VERTEX
  5
1D7
330
82
100
AcDbEntity
  8
DEFAULT
  6
CONTINUOUS
 62
   136
100
AcDbVertex
100
AcDb2dVertex
 10
153.9502185201
 20
82.6508268873
 30
0.0
  0
VERTEX
  5
1D8
330
82
100
AcDbEntity
  8
DEFAULT
  6
CONTINUOUS
 62
   136
100
AcDbVertex
100
AcDb2dVertex
 10
157.1502184393
 20
82.1174935674
 30
0.0
  0
SEQEND
  5
1D9
330
82
100
AcDbEntity
  8
DEFAULT
  6
CONTINUOUS
 62
   136
  0
POLYLINE
  5
83
330
80
100
AcDbEntity
  8
DEFAULT
  6
CONTINUOUS
 62
   136
100
AcDb2dPolyline
 66
     1
 10
0.0
 20
0.0
 30
0.0
  0
VERTEX
  5
1DA
330
83
100
AcDbEntity
  8
DEFAULT
  6
CONTINUOUS
 62
   136
100
AcDbVertex
100
AcDb2dVertex
 10
158.090218612
 20
83.1841602071
 30
0.0
  0
VERTEX
  5
1DB
330
83
100
AcDbEntity
  8
DEFAULT
  6
CONTINUOUS
 62
   136
100
AcDbVertex
100
AcDb2dVertex
 10
161.2902185311
 20
82.6508268873
 30
0.0
  0
VERTEX
  5
1DC
330
83
100
AcDbEntity
  8
DEFAULT
  6
CONTINUOUS
 62
   136
100
AcDbVertex
100
AcDb2dVertex
 10
158.090218612
 20
82.1174935674
 30
0.0
  0
SEQEND
  5
1DD
330
83
100
AcDbEntity
  8
DEFAULT
  6
CONTINUOUS
 62
   136
  0
LINE
  5
84
330
80
100
AcDbEntity
  8
DEFAULT
  6
CONTINUOUS
 62
   136
100
AcDbLine
 10
153.9502185201
 20
100.0841018903
 30
0.0
 11
153.9502185201
 21
81.0508269277
 31
0.0
  0
LINE
  5
85
330
80
100
AcDbEntity
  8
DEFAULT
  6
CONTINUOUS
 62
   136
100
AcDbLine
 10
161.2902185201
 20
104.1841018903
 30
0.0
 11
161.2902185201
 21
81.0508269277
 31
0.0
  0
LINE
  5
86
330
80
100
AcDbEntity
  8
DEFAULT
  6
CONTINUOUS
 62
   136
100
AcDbLine
 10
153.9502185201
 20
82.6508268873
 30
0.0
 11
161.2902185311
 21
82.6508268873
 31
0.0
  0
TEXT
  5
87
330
80
100
AcDbEntity
  8
DEFAULT
  6
CONTINUOUS
 62
   136
100
AcDbText
 10
154.7909502329
 20
83.4508268873
 30
0.0
 40
3.2
  1
7.3
  7
SEACAD_SEANSI_TTF
 11
154.7909502329
 21
86.6508268873
 31
0.0
100
AcDbText
 73
     3
  0
ENDBLK
  5
89
330
80
100
AcDbEntity
  8
0
100
AcDbBlockEnd
  0
BLOCK
  5
92
330
8A
100
AcDbEntity
  8
0
100
AcDbBlockBegin
  2
GDIMGGROUP4
 70
     0
 10
0.0
 20
0.0
 30
0.0
  3
GDIMGGROUP4
  1

  0
POLYLINE
  5
8C
330
8A
100
AcDbEntity
  8
DEFAULT
  6
CONTINUOUS
 62
   136
100
AcDb2dPolyline
 66
     1
 10
0.0
 20
0.0
 30
0.0
  0
VERTEX
  5
1DE
330
8C
100
AcDbEntity
  8
DEFAULT
  6
CONTINUOUS
 62
   136
100
AcDbVertex
100
AcDb2dVertex
 10
150.7502186009
 20
90.2564180165
 30
0.0
  0
VERTEX
  5
1DF
330
8C
100
AcDbEntity
  8
DEFAULT
  6
CONTINUOUS
 62
   136
100
AcDbVertex
100
AcDb2dVertex
 10
153.9502185201
 20
89.7230846966
 30
0.0
  0
VERTEX
  5
1E0
330
8C
100
AcDbEntity
  8
DEFAULT
  6
CONTINUOUS
 62
   136
100
AcDbVertex
100
AcDb2dVertex
 10
150.7502186009
 20
89.1897513768
 30
0.0
  0
SEQEND
  5
1E1
330
8C
100
AcDbEntity
  8
DEFAULT
  6
CONTINUOUS
 62
   136
  0
POLYLINE
  5
8D
330
8A
100
AcDbEntity
  8
DEFAULT
  6
CONTINUOUS
 62
   136
100
AcDb2dPolyline
 66
     1
 10
0.0
 20
0.0
 30
0.0
  0
VERTEX
  5
1E2
330
8D
100
AcDbEntity
  8
DEFAULT
  6
CONTINUOUS
 62
   136
100
AcDbVertex
100
AcDb2dVertex
 10
161.1502184393
 20
90.2564180165
 30
0.0
  0
VERTEX
  5
1E3
330
8D
100
AcDbEntity
  8
DEFAULT
  6
CONTINUOUS
 62
   136
100
AcDbVertex
100
AcDb2dVertex
 10
157.9502185201
 20
89.7230846966
 30
0.0
  0
VERTEX
  5
1E4
330
8D
100
AcDbEntity
  8
DEFAULT
  6
CONTINUOUS
 62
   136
100
AcDbVertex
100
AcDb2dVertex
 10
161.1502184393
 20
89.1897513768
 30
0.0
  0
SEQEND
  5
1E5
330
8D
100
AcDbEntity
  8
DEFAULT
  6
CONTINUOUS
 62
   136
  0
LINE
  5
8E
330
8A
100
AcDbEntity
  8
DEFAULT
  6
CONTINUOUS
 62
   136
100
AcDbLine
 10
153.9502185201
 20
100.0841018903
 30
0.0
 11
153.9502185201
 21
88.123084737
 31
0.0
  0
LINE
  5
8F
330
8A
100
AcDbEntity
  8
DEFAULT
  6
CONTINUOUS
 62
   136
100
AcDbLine
 10
157.9502185201
 20
102.5841018903
 30
0.0
 11
157.9502185201
 21
88.123084737
 31
0.0
  0
LINE
  5
90
330
8A
100
AcDbEntity
  8
DEFAULT
  6
CONTINUOUS
 62
   136
100
AcDbLine
 10
147.5502186818
 20
89.7230846966
 30
0.0
 11
164.3502185484
 21
89.7230846966
 31
0.0
  0
TEXT
  5
91
330
8A
100
AcDbEntity
  8
DEFAULT
  6
CONTINUOUS
 62
   136
100
AcDbText
 10
154.7794869078
 20
90.5230846966
 30
0.0
 40
3.2
  1
4
  7
SEACAD_SEANSI_TTF
 11
154.7794869078
 21
93.7230846966
 31
0.0
100
AcDbText
 73
     3
  0
ENDBLK
  5
93
330
8A
100
AcDbEntity
  8
0
100
AcDbBlockEnd
  0
BLOCK
  5
9E
330
94
100
AcDbEntity
  8
0
100
AcDbBlockBegin
  2
GDIMGGROUP5
 70
     0
 10
0.0
 20
0.0
 30
0.0
  3
GDIMGGROUP5
  1

  0
POLYLINE
  5
96
330
94
100
AcDbEntity
  8
DEFAULT
  6
CONTINUOUS
 62
   136
100
AcDb2dPolyline
 66
     1
 10
0.0
 20
0.0
 30
0.0
  0
VERTEX
  5
1E6
330
96
100
AcDbEntity
  8
DEFAULT
  6
CONTINUOUS
 62
   136
100
AcDbVertex
100
AcDb2dVertex
 10
105.1952460046
 20
133.211344479
 30
0.0
  0
VERTEX
  5
1E7
330
96
100
AcDbEntity
  8
DEFAULT
  6
CONTINUOUS
 62
   136
100
AcDbVertex
100
AcDb2dVertex
 10
104.6619126847
 20
136.4113443982
 30
0.0
  0
VERTEX
  5
1E8
330
96
100
AcDbEntity
  8
DEFAULT
  6
CONTINUOUS
 62
   136
100
AcDbVertex
100
AcDb2dVertex
 10
104.1285793649
 20
133.211344479
 30
0.0
  0
SEQEND
  5
1E9
330
96
100
AcDbEntity
  8
DEFAULT
  6
CONTINUOUS
 62
   136
  0
POLYLINE
  5
97
330
94
100
AcDbEntity
  8
DEFAULT
  6
CONTINUOUS
 62
   136
100
AcDb2dPolyline
 66
     1
 10
0.0
 20
0.0
 30
0.0
  0
VERTEX
  5
1EA
330
97
100
AcDbEntity
  8
DEFAULT
  6
CONTINUOUS
 62
   136
100
AcDbVertex
100
AcDb2dVertex
 10
105.1952460046
 20
99.1113441981
 30
0.0
  0
VERTEX
  5
1EB
330
97
100
AcDbEntity
  8
DEFAULT
  6
CONTINUOUS
 62
   136
100
AcDbVertex
100
AcDb2dVertex
 10
104.6619126847
 20
95.911344279
 30
0.0
  0
VERTEX
  5
1EC
330
97
100
AcDbEntity
  8
DEFAULT
  6
CONTINUOUS
 62
   136
100
AcDbVertex
100
AcDb2dVertex
 10
104.1285793649
 20
99.1113441981
 30
0.0
  0
SEQEND
  5
1ED
330
97
100
AcDbEntity
  8
DEFAULT
  6
CONTINUOUS
 62
   136
  0
LINE
  5
98
330
94
100
AcDbEntity
  8
DEFAULT
  6
CONTINUOUS
 62
   136
100
AcDbLine
 10
116.2783345482
 20
136.4113443982
 30
0.0
 11
103.0619127252
 21
136.4113443982
 31
0.0
  0
LINE
  5
99
330
94
100
AcDbEntity
  8
DEFAULT
  6
CONTINUOUS
 62
   136
100
AcDbLine
 10
116.2783345482
 20
95.9113443982
 30
0.0
 11
103.0619127252
 21
95.9113443982
 31
0.0
  0
LINE
  5
9A
330
94
100
AcDbEntity
  8
DEFAULT
  6
CONTINUOUS
 62
   136
100
AcDbLine
 10
104.6619126847
 20
136.4113443982
 30
0.0
 11
104.6619126847
 21
95.911344279
 31
0.0
  0
TEXT
  5
9B
330
94
100
AcDbEntity
  8
DEFAULT
  6
CONTINUOUS
 62
   136
100
AcDbText
 10
103.8619126847
 20
106.9940358234
 30
0.0
 40
3.2
  1
40.5
 50
90.0
  7
SEACAD_SEANSI_TTF
 11
100.6619126847
 21
106.9940358234
 31
0.0
100
AcDbText
 73
     3
  0
TEXT
  5
9C
330
94
100
AcDbEntity
  8
DEFAULT
  6
CONTINUOUS
 62
   136
100
AcDbText
 10
103.8619126847
 20
103.0249130164
 30
0.0
 40
3.2
  1
O
 50
90.0
  7
SEACAD_SEMECA1_TTF
 11
100.6619126847
 21
103.0249130164
 31
0.0
100
AcDbText
 73
     3
  0
TEXT
  5
9D
330
94
100
AcDbEntity
  8
DEFAULT
  6
CONTINUOUS
 62
   136
100
AcDbText
 10
103.8619126847
 20
115.3140358234
 30
0.0
 40
3.2
  1
　P=0.5
 50
90.0
  7
SEACAD_SEANSI_TTF
 11
100.6619126847
 21
115.3140358234
 31
0.0
100
AcDbText
 73
     3
  0
ENDBLK
  5
9F
330
94
100
AcDbEntity
  8
0
100
AcDbBlockEnd
  0
BLOCK
  5
1AB
330
A0
100
AcDbEntity
  8
0
100
AcDbBlockBegin
  2
SE
 70
     0
 10
0.0
 20
0.0
 30
0.0
  3
SE
  1

  0
LINE
  5
A3
330
A0
100
AcDbEntity
  8
DV1_デフォルト
  6
CONTINUOUS
 62
     7
100
AcDbLine
 10
160.8902185201
 20
105.0641018579
 30
0.0
 11
160.8902185201
 21
127.2641018579
 31
0.0
  0
LINE
  5
A4
330
A0
100
AcDbEntity
  8
DV1_デフォルト
  6
CONTINUOUS
 62
     7
100
AcDbLine
 10
161.2902185201
 20
126.8641018579
 30
0.0
 11
161.2902185201
 21
105.4641018579
 31
0.0
  0
LINE
  5
A5
330
A0
100
AcDbEntity
  8
DV1_デフォルト
  6
CONTINUOUS
 62
     7
100
AcDbLine
 10
160.8902185201
 20
127.2641018579
 30
0.0
 11
157.9502185201
 21
127.2641018579
 31
0.0
  0
LINE
  5
A6
330
A0
100
AcDbEntity
  8
DV1_デフォルト
  6
CONTINUOUS
 62
     7
100
AcDbLine
 10
157.9502185201
 20
105.0641018579
 30
0.0
 11
160.8902185201
 21
105.0641018579
 31
0.0
  0
LINE
  5
A7
330
A0
100
AcDbEntity
  8
DV1_デフォルト
  6
CONTINUOUS
 62
     7
100
AcDbLine
 10
160.8902185201
 20
105.0641018579
 30
0.0
 11
161.2902185201
 21
105.4641018579
 31
0.0
  0
LINE
  5
A8
330
A0
100
AcDbEntity
  8
DV1_デフォルト
  6
CONTINUOUS
 62
     7
100
AcDbLine
 10
161.2902185201
 20
126.8641018579
 30
0.0
 11
160.8902185201
 21
127.2641018579
 31
0.0
  0
LINE
  5
A9
330
A0
100
AcDbEntity
  8
DV1_デフォルト
  6
CONTINUOUS
 62
     7
100
AcDbLine
 10
136.9502185201
 20
116.3141018579
 30
0.0
 11
141.7342185201
 21
116.3141018579
 31
0.0
  0
LINE
  5
AA
330
A0
100
AcDbEntity
  8
DV1_デフォルト
  6
CONTINUOUS
 62
     7
100
AcDbLine
 10
136.9502185201
 20
100.1641018579
 30
0.0
 11
139.1170677256
 21
100.1641018579
 31
0.0
  0
LINE
  5
AB
330
A0
100
AcDbEntity
  8
DV1_デフォルト
  6
CONTINUOUS
 62
     7
100
AcDbLine
 10
140.3461649129
 20
100.1641018579
 30
0.0
 11
141.7342185201
 21
100.1641018579
 31
0.0
  0
LINE
  5
AC
330
A0
100
AcDbEntity
  8
DV1_デフォルト
  6
CONTINUOUS
 62
     7
100
AcDbLine
 10
141.7342185201
 20
132.1641018579
 30
0.0
 11
140.3513693146
 21
132.1641018579
 31
0.0
  0
LINE
  5
AD
330
A0
100
AcDbEntity
  8
DV1_デフォルト
  6
CONTINUOUS
 62
     7
100
AcDbLine
 10
139.1222721273
 20
132.1641018579
 30
0.0
 11
136.9502185201
 21
132.1641018579
 31
0.0
  0
LINE
  5
AE
330
A0
100
AcDbEntity
  8
DV1_デフォルト
  6
CONTINUOUS
 62
     7
100
AcDbLine
 10
126.7773231126
 20
131.6346999007
 30
0.0
 11
127.4579815694
 21
131.1137817754
 31
0.0
  0
LINE
  5
AF
330
A0
100
AcDbEntity
  8
DV1_デフォルト
  6
CONTINUOUS
 62
     7
100
AcDbLine
 10
127.1231139276
 20
131.0043929477
 30
0.0
 11
126.4424554708
 21
131.525311073
 31
0.0
  0
ELLIPSE
  5
B0
330
A0
100
AcDbEntity
  8
DV1_デフォルト
  6
CONTINUOUS
 62
     7
100
AcDbEllipse
 10
126.9502185201
 20
131.3195464242
 30
0.0
 11
0.653589838486221
 21
-5.204170427930421E-15
 31
0.0
210
0.0
220
0.0
230
1.0
 40
0.5
 41
2.460497025069388
 42
4.980107551826387
  0
ELLIPSE
  5
B1
330
A0
100
AcDbEntity
  8
DV1_デフォルト
  6
CONTINUOUS
 62
     7
100
AcDbEllipse
 10
126.9502185201
 20
131.3195464242
 30
0.0
 11
-0.653589838486228
 21
-1.734723475976807E-15
 31
0.0
210
0.0
220
0.0
230
1.0
 40
0.5
 41
2.460497025069369
 42
4.980107551826333
  0
LINE
  5
B2
330
A0
100
AcDbEntity
  8
DV1_デフォルト
  6
CONTINUOUS
 62
     7
100
AcDbLine
 10
127.5077697051
 20
131.0315824214
 30
0.0
 11
127.4579815694
 21
131.1137817754
 31
0.0
  0
LINE
  5
B3
330
A0
100
AcDbEntity
  8
DV1_デフォルト
  6
CONTINUOUS
 62
     7
100
AcDbLine
 10
127.1231139276
 20
131.0043929477
 30
0.0
 11
127.1673977622
 21
130.9312811
 31
0.0
  0
LINE
  5
B4
330
A0
100
AcDbEntity
  8
DV1_デフォルト
  6
CONTINUOUS
 62
     7
100
AcDbLine
 10
126.7773231126
 20
101.3238107682
 30
0.0
 11
127.4579815694
 21
100.8028926429
 31
0.0
  0
LINE
  5
B5
330
A0
100
AcDbEntity
  8
DV1_デフォルト
  6
CONTINUOUS
 62
     7
100
AcDbLine
 10
127.1231139276
 20
100.6935038152
 30
0.0
 11
126.4424554708
 21
101.2144219405
 31
0.0
  0
ELLIPSE
  5
B6
330
A0
100
AcDbEntity
  8
DV1_デフォルト
  6
CONTINUOUS
 62
     7
100
AcDbEllipse
 10
126.9502185201
 20
101.0086572917
 30
0.0
 11
0.653589838486228
 21
1.734723475976807E-15
 31
0.0
210
0.0
220
0.0
230
1.0
 40
0.5
 41
2.460497025069369
 42
4.980107551826379
  0
ELLIPSE
  5
B7
330
A0
100
AcDbEntity
  8
DV1_デフォルト
  6
CONTINUOUS
 62
     7
100
AcDbEllipse
 10
126.9502185201
 20
101.0086572917
 30
0.0
 11
-0.653589838486228
 21
-1.734723475976807E-15
 31
0.0
210
0.0
220
0.0
230
1.0
 40
0.5
 41
2.460497025069369
 42
4.980107551826379
  0
LINE
  5
B8
330
A0
100
AcDbEntity
  8
DV1_デフォルト
  6
CONTINUOUS
 62
     7
100
AcDbLine
 10
126.7773231126
 20
101.3238107682
 30
0.0
 11
126.7302252018
 21
101.4015686071
 31
0.0
  0
LINE
  5
B9
330
A0
100
AcDbEntity
  8
DV1_デフォルト
  6
CONTINUOUS
 62
     7
100
AcDbLine
 10
126.3896027404
 20
101.3016808875
 30
0.0
 11
126.4424554708
 21
101.2144219405
 31
0.0
  0
LINE
  5
BA
330
A0
100
AcDbEntity
  8
DV1_デフォルト
  6
CONTINUOUS
 62
     7
100
AcDbLine
 10
152.0564561572
 20
115.9641018579
 30
0.0
 11
150.811980883
 21
115.9641018579
 31
0.0
  0
LINE
  5
BB
330
A0
100
AcDbEntity
  8
DV1_デフォルト
  6
CONTINUOUS
 62
     7
100
AcDbLine
 10
150.811980883
 20
116.3641018579
 30
0.0
 11
152.0564561572
 21
116.3641018579
 31
0.0
  0
ARC
  5
BC
330
A0
100
AcDbEntity
  8
DV1_デフォルト
  6
CONTINUOUS
 62
     7
100
AcDbCircle
 10
151.4342185201
 20
116.1641018579
 30
0.0
 40
0.6535898384862244
100
AcDbArc
 50
17.8184754
 51
162.1815246
  0
ARC
  5
BD
330
A0
100
AcDbEntity
  8
DV1_デフォルト
  6
CONTINUOUS
 62
     7
100
AcDbCircle
 10
151.4342185201
 20
116.1641018579
 30
0.0
 40
0.6535898384862278
100
AcDbArc
 50
197.8184754
 51
342.1815246
  0
LINE
  5
BE
330
A0
100
AcDbEntity
  8
DV1_デフォルト
  6
CONTINUOUS
 62
     7
100
AcDbLine
 10
150.6853542624
 20
115.9641018579
 30
0.0
 11
150.811980883
 21
115.9641018579
 31
0.0
  0
LINE
  5
BF
330
A0
100
AcDbEntity
  8
DV1_デフォルト
  6
CONTINUOUS
 62
     7
100
AcDbLine
 10
152.0564561572
 20
115.9641018579
 30
0.0
 11
152.1871474979
 21
115.9641018579
 31
0.0
  0
LINE
  5
C0
330
A0
100
AcDbEntity
  8
DV1_デフォルト
  6
CONTINUOUS
 62
     7
100
AcDbLine
 10
152.1804781661
 20
116.3641018579
 30
0.0
 11
152.0564561572
 21
116.3641018579
 31
0.0
  0
LINE
  5
C1
330
A0
100
AcDbEntity
  8
DV1_デフォルト
  6
CONTINUOUS
 62
     7
100
AcDbLine
 10
150.811980883
 20
116.3641018579
 30
0.0
 11
150.6841120903
 21
116.3641018579
 31
0.0
  0
LINE
  5
C2
330
A0
100
AcDbEntity
  8
DV1_デフォルト
  6
CONTINUOUS
 62
     7
100
AcDbLine
 10
141.9342185201
 20
98.6641018579
 30
0.0
 11
141.9342185201
 21
133.6641018579
 31
0.0
  0
LINE
  5
C3
330
A0
100
AcDbEntity
  8
DV1_デフォルト
  6
CONTINUOUS
 62
     7
100
AcDbLine
 10
149.7342185201
 20
133.6641018579
 30
0.0
 11
149.7342185201
 21
98.6641018579
 31
0.0
  0
LINE
  5
C4
330
A0
100
AcDbEntity
  8
DV1_デフォルト
  6
CONTINUOUS
 62
     7
100
AcDbLine
 10
149.9342185201
 20
98.8641018579
 30
0.0
 11
149.9342185201
 21
133.4641018579
 31
0.0
  0
LINE
  5
C5
330
A0
100
AcDbEntity
  8
DV1_デフォルト
  6
CONTINUOUS
 62
     7
100
AcDbLine
 10
141.7342185201
 20
133.4641018579
 30
0.0
 11
141.7342185201
 21
98.8641018579
 31
0.0
  0
LINE
  5
C6
330
A0
100
AcDbEntity
  8
DV1_デフォルト
  6
CONTINUOUS
 62
     7
100
AcDbLine
 10
149.7342185201
 20
98.6641018579
 30
0.0
 11
149.9342185201
 21
98.8641018579
 31
0.0
  0
LINE
  5
C7
330
A0
100
AcDbEntity
  8
DV1_デフォルト
  6
CONTINUOUS
 62
     7
100
AcDbLine
 10
149.9342185201
 20
133.4641018579
 30
0.0
 11
149.7342185201
 21
133.6641018579
 31
0.0
  0
LINE
  5
C8
330
A0
100
AcDbEntity
  8
DV1_デフォルト
  6
CONTINUOUS
 62
     7
100
AcDbLine
 10
141.9342185201
 20
133.6641018579
 30
0.0
 11
141.7342185201
 21
133.4641018579
 31
0.0
  0
LINE
  5
C9
330
A0
100
AcDbEntity
  8
DV1_デフォルト
  6
CONTINUOUS
 62
     7
100
AcDbLine
 10
141.7342185201
 20
98.8641018579
 30
0.0
 11
141.9342185201
 21
98.6641018579
 31
0.0
  0
LINE
  5
CA
330
A0
100
AcDbEntity
  8
DV1_デフォルト
  6
CONTINUOUS
 62
     7
100
AcDbLine
 10
141.9342185201
 20
98.6641018579
 30
0.0
 11
149.7342185201
 21
98.6641018579
 31
0.0
  0
LINE
  5
CB
330
A0
100
AcDbEntity
  8
DV1_デフォルト
  6
CONTINUOUS
 62
     7
100
AcDbLine
 10
149.7342185201
 20
133.6641018579
 30
0.0
 11
141.9342185201
 21
133.6641018579
 31
0.0
  0
ELLIPSE
  5
CC
330
A0
100
AcDbEntity
  8
DV1_デフォルト
  6
CONTINUOUS
 62
     7
100
AcDbEllipse
 10
139.7342185201
 20
101.2684649128
 30
0.0
 11
-1.500000000000001
 21
-1.734723475976807E-15
 31
0.0
210
0.0
220
0.0
230
1.0
 40
0.5
 41
3.091059546049937
 42
4.712388980384689
  0
LINE
  5
CD
330
A0
100
AcDbEntity
  8
DV1_デフォルト
  6
CONTINUOUS
 62
     7
100
AcDbLine
 10
139.9342185201
 20
100.8488496706
 30
0.0
 11
139.7342185201
 21
101.2247267189
 31
0.0
  0
LINE
  5
CE
330
A0
100
AcDbEntity
  8
DV1_デフォルト
  6
CONTINUOUS
 62
     7
100
AcDbLine
 10
139.9342185201
 20
100.8488496706
 30
0.0
 11
140.8342185201
 21
100.8488496706
 31
0.0
  0
LINE
  5
CF
330
A0
100
AcDbEntity
  8
DV1_デフォルト
  6
CONTINUOUS
 62
     7
100
AcDbLine
 10
139.7342185201
 20
101.2247267189
 30
0.0
 11
139.5342185201
 21
100.8488496706
 31
0.0
  0
LINE
  5
D0
330
A0
100
AcDbEntity
  8
DV1_デフォルト
  6
CONTINUOUS
 62
     7
100
AcDbLine
 10
138.6342185201
 20
100.8488496706
 30
0.0
 11
139.5342185201
 21
100.8488496706
 31
0.0
  0
LINE
  5
D1
330
A0
100
AcDbEntity
  8
DV1_デフォルト
  6
CONTINUOUS
 62
     7
100
AcDbLine
 10
139.7342185201
 20
101.2247267189
 30
0.0
 11
139.9342185201
 21
100.6488496706
 31
0.0
  0
LINE
  5
D2
330
A0
100
AcDbEntity
  8
DV1_デフォルト
  6
CONTINUOUS
 62
     7
100
AcDbLine
 10
140.8342185201
 20
100.6488496706
 30
0.0
 11
139.9342185201
 21
100.6488496706
 31
0.0
  0
LINE
  5
D3
330
A0
100
AcDbEntity
  8
DV1_デフォルト
  6
CONTINUOUS
 62
     7
100
AcDbLine
 10
140.8342185201
 20
100.6488496706
 30
0.0
 11
140.764759249
 21
100.8488496706
 31
0.0
  0
LINE
  5
D4
330
A0
100
AcDbEntity
  8
DV1_デフォルト
  6
CONTINUOUS
 62
     7
100
AcDbLine
 10
139.5342185201
 20
100.6488496706
 30
0.0
 11
139.7342185201
 21
101.2247267189
 31
0.0
  0
LINE
  5
D5
330
A0
100
AcDbEntity
  8
DV1_デフォルト
  6
CONTINUOUS
 62
     7
100
AcDbLine
 10
138.6342185201
 20
100.6488496706
 30
0.0
 11
138.7036777912
 21
100.8488496706
 31
0.0
  0
LINE
  5
D6
330
A0
100
AcDbEntity
  8
DV1_デフォルト
  6
CONTINUOUS
 62
     7
100
AcDbLine
 10
139.5342185201
 20
100.6488496706
 30
0.0
 11
138.6342185201
 21
100.6488496706
 31
0.0
  0
LINE
  5
D7
330
A0
100
AcDbEntity
  8
DV1_デフォルト
  6
CONTINUOUS
 62
     7
100
AcDbLine
 10
140.8342185201
 20
100.8488496706
 30
0.0
 11
140.8342185201
 21
100.6488496706
 31
0.0
  0
LINE
  5
D8
330
A0
100
AcDbEntity
  8
DV1_デフォルト
  6
CONTINUOUS
 62
     7
100
AcDbLine
 10
138.6342185201
 20
100.6488496706
 30
0.0
 11
138.6342185201
 21
100.8488496706
 31
0.0
  0
LINE
  5
D9
330
A0
100
AcDbEntity
  8
DV1_デフォルト
  6
CONTINUOUS
 62
     7
100
AcDbLine
 10
139.5342185201
 20
100.1988496706
 30
0.0
 11
139.5342185201
 21
100.6488496706
 31
0.0
  0
LINE
  5
DA
330
A0
100
AcDbEntity
  8
DV1_デフォルト
  6
CONTINUOUS
 62
     7
100
AcDbLine
 10
139.5342185201
 20
100.1988496706
 30
0.0
 11
139.7342185201
 21
100.7747267189
 31
0.0
  0
LINE
  5
DB
330
A0
100
AcDbEntity
  8
DV1_デフォルト
  6
CONTINUOUS
 62
     7
100
AcDbLine
 10
139.7342185201
 20
100.7747267189
 30
0.0
 11
139.7342185201
 21
101.2247267189
 31
0.0
  0
LINE
  5
DC
330
A0
100
AcDbEntity
  8
DV1_デフォルト
  6
CONTINUOUS
 62
     7
100
AcDbLine
 10
139.9342185201
 20
100.1988496706
 30
0.0
 11
139.7342185201
 21
100.7747267189
 31
0.0
  0
LINE
  5
DD
330
A0
100
AcDbEntity
  8
DV1_デフォルト
  6
CONTINUOUS
 62
     7
100
AcDbLine
 10
139.9342185201
 20
100.6488496706
 30
0.0
 11
139.9342185201
 21
100.1988496706
 31
0.0
  0
LINE
  5
DE
330
A0
100
AcDbEntity
  8
DV1_デフォルト
  6
CONTINUOUS
 62
     7
100
AcDbLine
 10
139.9342185201
 20
101.2988496706
 30
0.0
 11
139.9342185201
 21
100.8488496706
 31
0.0
  0
LINE
  5
DF
330
A0
100
AcDbEntity
  8
DV1_デフォルト
  6
CONTINUOUS
 62
     7
100
AcDbLine
 10
139.7342185201
 20
101.2247267189
 30
0.0
 11
139.7342185201
 21
101.2988496706
 31
0.0
  0
LINE
  5
E0
330
A0
100
AcDbEntity
  8
DV1_デフォルト
  6
CONTINUOUS
 62
     7
100
AcDbLine
 10
139.9342185201
 20
100.1988496706
 30
0.0
 11
139.5342185201
 21
100.1988496706
 31
0.0
  0
LINE
  5
E1
330
A0
100
AcDbEntity
  8
DV1_デフォルト
  6
CONTINUOUS
 62
     7
100
AcDbLine
 10
139.5342185201
 20
101.2988496706
 30
0.0
 11
139.9342185201
 21
101.2988496706
 31
0.0
  0
LINE
  5
E2
330
A0
100
AcDbEntity
  8
DV1_デフォルト
  6
CONTINUOUS
 62
     7
100
AcDbLine
 10
139.5342185201
 20
100.8488496706
 30
0.0
 11
139.5342185201
 21
101.2988496706
 31
0.0
  0
ELLIPSE
  5
E3
330
A0
100
AcDbEntity
  8
DV1_デフォルト
  6
CONTINUOUS
 62
     7
100
AcDbEllipse
 10
139.7342185201
 20
101.2684649128
 30
0.0
 11
1.499999999999998
 21
-1.734723475976807E-15
 31
0.0
210
0.0
220
0.0
230
1.0
 40
0.5
 41
1.570796326794897
 42
3.192125761129974
  0
LINE
  5
E4
330
A0
100
AcDbEntity
  8
DV1_デフォルト
  6
CONTINUOUS
 62
     7
100
AcDbLine
 10
141.1958298574
 20
100.8699975856
 30
0.0
 11
141.2323037314
 21
101.2305812103
 31
0.0
  0
SPLINE
  5
E5
330
A0
100
AcDbEntity
  8
DV1_デフォルト
  6
CONTINUOUS
 62
     7
100
AcDbSpline
210
0.0
220
0.0
230
1.0
 70
     8
 71
     3
 72
    31
 73
    27
 74
     0
 42
0.0000000027779416
 43
0.0000000001
 40
0.0
 40
0.0
 40
0.0
 40
0.0
 40
0.0110256262076095
 40
0.0502340311700191
 40
0.089777251560513
 40
0.1307702581508376
 40
0.1738127361747467
 40
0.2187195956544961
 40
0.2646767012174613
 40
0.3107945435627402
 40
0.3566692548142837
 40
0.402261822530728
 40
0.4476332526991246
 40
0.4928718225478907
 40
0.5380699916369095
 40
0.5833113387201062
 40
0.6286713669817816
 40
0.6742538455201459
 40
0.7201711690595848
 40
0.7665338288499105
 40
0.8134023710842614
 40
0.8606181034986923
 40
0.9023388708645999
 40
0.9420692073122197
 40
0.980226638367407
 40
1.0
 40
1.0
 40
1.0
 40
1.0
 10
138.2733698219592
 20
100.8769749872367
 30
0.0
 10
138.2740250257481
 20
100.8650908720763
 30
0.0
 10
138.2768138370683
 20
100.8188275077086
 30
0.0
 10
138.3023530157803
 20
100.730588067225
 30
0.0
 10
138.3550929829173
 20
100.624798881894
 30
0.0
 10
138.4317144895227
 20
100.5245723458019
 30
0.0
 10
138.5309612845674
 20
100.4314629841043
 30
0.0
 10
138.6531046379441
 20
100.3463059751529
 30
0.0
 10
138.7960801017752
 20
100.2712051621512
 30
0.0
 10
138.956398784452
 20
100.2079307235951
 30
0.0
 10
139.130108864776
 20
100.1575798599
 30
0.0
 10
139.3137118353521
 20
100.1206432659872
 30
0.0
 10
139.5040406602973
 20
100.0973614777198
 30
0.0
 10
139.6979777358888
 20
100.0878699465956
 30
0.0
 10
139.8923838877008
 20
100.0922126231875
 30
0.0
 10
140.084104154619
 20
100.1103316653282
 30
0.0
 10
140.2700580863
 20
100.1420732155568
 30
0.0
 10
140.4473152864047
 20
100.1872313833012
 30
0.0
 10
140.6131420340708
 20
100.2456339886344
 30
0.0
 10
140.7649100041359
 20
100.31722072826
 30
0.0
 10
140.8999190164897
 20
100.402107468375
 30
0.0
 10
141.0105194500444
 20
100.4965835889382
 30
0.0
 10
141.0956138633932
 20
100.5980015666065
 30
0.0
 10
141.1537395817796
 20
100.7014112790081
 30
0.0
 10
141.1871054106302
 20
100.7953603645213
 30
0.0
 10
141.1913128126348
 20
100.8483972418254
 30
0.0
 10
141.1928355857955
 20
100.8696994439698
 30
0.0
  0
LINE
  5
E6
330
A0
100
AcDbEntity
  8
DV1_デフォルト
  6
CONTINUOUS
 62
     7
100
AcDbLine
 10
138.2361333088
 20
101.2305812103
 30
0.0
 11
138.2726071827
 21
100.8699975856
 31
0.0
  0
ELLIPSE
  5
E7
330
A0
100
AcDbEntity
  8
DV1_デフォルト
  6
CONTINUOUS
 62
     7
100
AcDbEllipse
 10
139.7342185201
 20
131.059738803
 30
0.0
 11
-1.500000000000001
 21
0.0
 31
0.0
210
0.0
220
0.0
230
1.0
 40
0.5
 41
1.570796326794897
 42
3.192125761130025
  0
LINE
  5
E8
330
A0
100
AcDbEntity
  8
DV1_デフォルト
  6
CONTINUOUS
 62
     7
100
AcDbLine
 10
139.9342185201
 20
131.6793540453
 30
0.0
 11
139.7342185201
 21
131.103476997
 31
0.0
  0
LINE
  5
E9
330
A0
100
AcDbEntity
  8
DV1_デフォルト
  6
CONTINUOUS
 62
     7
100
AcDbLine
 10
140.8342185201
 20
131.6793540453
 30
0.0
 11
140.764759249
 21
131.4793540453
 31
0.0
  0
LINE
  5
EA
330
A0
100
AcDbEntity
  8
DV1_デフォルト
  6
CONTINUOUS
 62
     7
100
AcDbLine
 10
139.9342185201
 20
131.6793540453
 30
0.0
 11
140.8342185201
 21
131.6793540453
 31
0.0
  0
LINE
  5
EB
330
A0
100
AcDbEntity
  8
DV1_デフォルト
  6
CONTINUOUS
 62
     7
100
AcDbLine
 10
139.7342185201
 20
131.103476997
 30
0.0
 11
139.5342185201
 21
131.6793540453
 31
0.0
  0
LINE
  5
EC
330
A0
100
AcDbEntity
  8
DV1_デフォルト
  6
CONTINUOUS
 62
     7
100
AcDbLine
 10
138.6342185201
 20
131.6793540453
 30
0.0
 11
139.5342185201
 21
131.6793540453
 31
0.0
  0
LINE
  5
ED
330
A0
100
AcDbEntity
  8
DV1_デフォルト
  6
CONTINUOUS
 62
     7
100
AcDbLine
 10
138.6342185201
 20
131.6793540453
 30
0.0
 11
138.7036777912
 21
131.4793540453
 31
0.0
  0
LINE
  5
EE
330
A0
100
AcDbEntity
  8
DV1_デフォルト
  6
CONTINUOUS
 62
     7
100
AcDbLine
 10
139.7342185201
 20
131.103476997
 30
0.0
 11
139.9342185201
 21
131.4793540453
 31
0.0
  0
LINE
  5
EF
330
A0
100
AcDbEntity
  8
DV1_デフォルト
  6
CONTINUOUS
 62
     7
100
AcDbLine
 10
140.8342185201
 20
131.4793540453
 30
0.0
 11
139.9342185201
 21
131.4793540453
 31
0.0
  0
LINE
  5
F0
330
A0
100
AcDbEntity
  8
DV1_デフォルト
  6
CONTINUOUS
 62
     7
100
AcDbLine
 10
139.5342185201
 20
131.4793540453
 30
0.0
 11
139.7342185201
 21
131.103476997
 31
0.0
  0
LINE
  5
F1
330
A0
100
AcDbEntity
  8
DV1_デフォルト
  6
CONTINUOUS
 62
     7
100
AcDbLine
 10
139.5342185201
 20
131.4793540453
 30
0.0
 11
138.6342185201
 21
131.4793540453
 31
0.0
  0
LINE
  5
F2
330
A0
100
AcDbEntity
  8
DV1_デフォルト
  6
CONTINUOUS
 62
     7
100
AcDbLine
 10
140.8342185201
 20
131.6793540453
 30
0.0
 11
140.8342185201
 21
131.4793540453
 31
0.0
  0
LINE
  5
F3
330
A0
100
AcDbEntity
  8
DV1_デフォルト
  6
CONTINUOUS
 62
     7
100
AcDbLine
 10
138.6342185201
 20
131.4793540453
 30
0.0
 11
138.6342185201
 21
131.6793540453
 31
0.0
  0
LINE
  5
F4
330
A0
100
AcDbEntity
  8
DV1_デフォルト
  6
CONTINUOUS
 62
     7
100
AcDbLine
 10
139.5342185201
 20
131.0293540453
 30
0.0
 11
139.5342185201
 21
131.4793540453
 31
0.0
  0
LINE
  5
F5
330
A0
100
AcDbEntity
  8
DV1_デフォルト
  6
CONTINUOUS
 62
     7
100
AcDbLine
 10
139.7342185201
 20
131.0293540453
 30
0.0
 11
139.7342185201
 21
131.103476997
 31
0.0
  0
LINE
  5
F6
330
A0
100
AcDbEntity
  8
DV1_デフォルト
  6
CONTINUOUS
 62
     7
100
AcDbLine
 10
139.9342185201
 20
131.4793540453
 30
0.0
 11
139.9342185201
 21
131.0293540453
 31
0.0
  0
LINE
  5
F7
330
A0
100
AcDbEntity
  8
DV1_デフォルト
  6
CONTINUOUS
 62
     7
100
AcDbLine
 10
139.9342185201
 20
132.1293540453
 30
0.0
 11
139.9342185201
 21
131.6793540453
 31
0.0
  0
LINE
  5
F8
330
A0
100
AcDbEntity
  8
DV1_デフォルト
  6
CONTINUOUS
 62
     7
100
AcDbLine
 10
139.9342185201
 20
132.1293540453
 30
0.0
 11
139.7342185201
 21
131.553476997
 31
0.0
  0
LINE
  5
F9
330
A0
100
AcDbEntity
  8
DV1_デフォルト
  6
CONTINUOUS
 62
     7
100
AcDbLine
 10
139.7342185201
 20
131.103476997
 30
0.0
 11
139.7342185201
 21
131.553476997
 31
0.0
  0
LINE
  5
FA
330
A0
100
AcDbEntity
  8
DV1_デフォルト
  6
CONTINUOUS
 62
     7
100
AcDbLine
 10
139.9342185201
 20
131.0293540453
 30
0.0
 11
139.5342185201
 21
131.0293540453
 31
0.0
  0
LINE
  5
FB
330
A0
100
AcDbEntity
  8
DV1_デフォルト
  6
CONTINUOUS
 62
     7
100
AcDbLine
 10
139.5342185201
 20
132.1293540453
 30
0.0
 11
139.9342185201
 21
132.1293540453
 31
0.0
  0
LINE
  5
FC
330
A0
100
AcDbEntity
  8
DV1_デフォルト
  6
CONTINUOUS
 62
     7
100
AcDbLine
 10
139.5342185201
 20
132.1293540453
 30
0.0
 11
139.7342185201
 21
131.553476997
 31
0.0
  0
LINE
  5
FD
330
A0
100
AcDbEntity
  8
DV1_デフォルト
  6
CONTINUOUS
 62
     7
100
AcDbLine
 10
139.5342185201
 20
131.6793540453
 30
0.0
 11
139.5342185201
 21
132.1293540453
 31
0.0
  0
ELLIPSE
  5
FE
330
A0
100
AcDbEntity
  8
DV1_デフォルト
  6
CONTINUOUS
 62
     7
100
AcDbEllipse
 10
139.7342185201
 20
131.059738803
 30
0.0
 11
1.500000000000001
 21
0.0
 31
0.0
210
0.0
220
0.0
230
1.0
 40
0.5
 41
3.091059546049937
 42
4.71238898038467
  0
LINE
  5
FF
330
A0
100
AcDbEntity
  8
DV1_デフォルト
  6
CONTINUOUS
 62
     7
100
AcDbLine
 10
141.2323037314
 20
131.0976225056
 30
0.0
 11
141.1958298574
 21
131.4582061302
 31
0.0
  0
SPLINE
  5
100
330
A0
100
AcDbEntity
  8
DV1_デフォルト
  6
CONTINUOUS
 62
     7
100
AcDbSpline
210
0.0
220
0.0
230
1.0
 70
     8
 71
     3
 72
    31
 73
    27
 74
     0
 42
0.0000000027779416
 43
0.0000000001
 40
0.0
 40
0.0
 40
0.0
 40
0.0
 40
0.0110256262076092
 40
0.0502340311700188
 40
0.0897772515605133
 40
0.1307702581508383
 40
0.1738127361747468
 40
0.2187195956544966
 40
0.2646767012174609
 40
0.3107945435627409
 40
0.3566692548142838
 40
0.402261822530728
 40
0.4476332526991247
 40
0.4928718225478909
 40
0.5380699916369096
 40
0.5833113387201064
 40
0.6286713669817816
 40
0.6742538455201463
 40
0.7201711690595851
 40
0.766533828849911
 40
0.8134023710842618
 40
0.8606181034986929
 40
0.9023388708646006
 40
0.94206920731222
 40
0.9802266383674078
 40
1.0
 40
1.0
 40
1.0
 40
1.0
 10
141.1950672182255
 20
131.4512287286419
 30
0.0
 10
141.1944120144367
 20
131.4631128438023
 30
0.0
 10
141.1916232031164
 20
131.5093762081699
 30
0.0
 10
141.1660840244044
 20
131.5976156486536
 30
0.0
 10
141.1133440572674
 20
131.7034048339845
 30
0.0
 10
141.036722550662
 20
131.8036313700767
 30
0.0
 10
140.9374757556173
 20
131.8967407317743
 30
0.0
 10
140.8153324022406
 20
131.9818977407256
 30
0.0
 10
140.6723569384095
 20
132.0569985537273
 30
0.0
 10
140.5120382557327
 20
132.1202729922834
 30
0.0
 10
140.3383281754087
 20
132.1706238559786
 30
0.0
 10
140.1547252048326
 20
132.2075604498913
 30
0.0
 10
139.9643963798874
 20
132.2308422381587
 30
0.0
 10
139.770459304296
 20
132.2403337692829
 30
0.0
 10
139.576053152484
 20
132.235991092691
 30
0.0
 10
139.3843328855658
 20
132.2178720505504
 30
0.0
 10
139.1983789538847
 20
132.1861305003218
 30
0.0
 10
139.02112175378
 20
132.1409723325773
 30
0.0
 10
138.8552950061138
 20
132.0825697272442
 30
0.0
 10
138.7035270360488
 20
132.0109829876185
 30
0.0
 10
138.568518023695
 20
131.9260962475036
 30
0.0
 10
138.4579175901403
 20
131.8316201269403
 30
0.0
 10
138.3728231767915
 20
131.7302021492721
 30
0.0
 10
138.3146974584052
 20
131.6267924368705
 30
0.0
 10
138.2813316295546
 20
131.5328433513573
 30
0.0
 10
138.2771242275499
 20
131.4798064740532
 30
0.0
 10
138.2756014543893
 20
131.4585042719087
 30
0.0
  0
LINE
  5
101
330
A0
100
AcDbEntity
  8
DV1_デフォルト
  6
CONTINUOUS
 62
     7
100
AcDbLine
 10
138.2726071827
 20
131.4582061302
 30
0.0
 11
138.2361333088
 21
131.0976225056
 31
0.0
  0
LINE
  5
102
330
A0
100
AcDbEntity
  8
DV1_デフォルト
  6
CONTINUOUS
 62
     7
100
AcDbLine
 10
153.9502185201
 20
101.3641018579
 30
0.0
 11
153.9502185201
 21
130.9641018579
 31
0.0
  0
LINE
  5
103
330
A0
100
AcDbEntity
  8
DV1_デフォルト
  6
CONTINUOUS
 62
     7
100
AcDbLine
 10
153.7502185201
 20
131.1641018579
 30
0.0
 11
153.7502185201
 21
101.1641018579
 31
0.0
  0
LINE
  5
104
330
A0
100
AcDbEntity
  8
DV1_デフォルト
  6
CONTINUOUS
 62
     7
100
AcDbLine
 10
157.9502185201
 20
103.8641018579
 30
0.0
 11
157.9502185201
 21
128.4641018579
 31
0.0
  0
LINE
  5
105
330
A0
100
AcDbEntity
  8
DV1_デフォルト
  6
CONTINUOUS
 62
     7
100
AcDbLine
 10
157.5502185201
 20
128.8641018579
 30
0.0
 11
157.5502185201
 21
103.4641018579
 31
0.0
  0
LINE
  5
106
330
A0
100
AcDbEntity
  8
DV1_デフォルト
  6
CONTINUOUS
 62
     7
100
AcDbLine
 10
155.1502185201
 20
128.8641018579
 30
0.0
 11
155.1502185201
 21
103.4641018579
 31
0.0
  0
LINE
  5
107
330
A0
100
AcDbEntity
  8
DV1_デフォルト
  6
CONTINUOUS
 62
     7
100
AcDbLine
 10
153.1502185201
 20
131.9641018579
 30
0.0
 11
153.1502185201
 21
100.3641018579
 31
0.0
  0
LINE
  5
108
330
A0
100
AcDbEntity
  8
DV1_デフォルト
  6
CONTINUOUS
 62
     7
100
AcDbLine
 10
153.4502185201
 20
131.6641018579
 30
0.0
 11
153.4502185201
 21
100.6641018579
 31
0.0
  0
CIRCLE
  5
109
330
A0
100
AcDbEntity
  8
DV1_デフォルト
  6
CONTINUOUS
 62
     7
100
AcDbCircle
 10
151.4342185201
 20
116.1641018579
 30
0.0
 40
0.7835000000000027
  0
LINE
  5
10A
330
A0
100
AcDbEntity
  8
DV1_デフォルト
  6
CONTINUOUS
 62
     7
100
AcDbLine
 10
157.5502185201
 20
128.8641018579
 30
0.0
 11
155.1502185201
 21
128.8641018579
 31
0.0
  0
LINE
  5
10B
330
A0
100
AcDbEntity
  8
DV1_デフォルト
  6
CONTINUOUS
 62
     7
100
AcDbLine
 10
155.1502185201
 20
103.4641018579
 30
0.0
 11
157.5502185201
 21
103.4641018579
 31
0.0
  0
LINE
  5
10C
330
A0
100
AcDbEntity
  8
DV1_デフォルト
  6
CONTINUOUS
 62
     7
100
AcDbLine
 10
153.7502185201
 20
131.1641018579
 30
0.0
 11
153.4502185201
 21
131.1641018579
 31
0.0
  0
LINE
  5
10D
330
A0
100
AcDbEntity
  8
DV1_デフォルト
  6
CONTINUOUS
 62
     7
100
AcDbLine
 10
153.4502185201
 20
101.1641018579
 30
0.0
 11
153.7502185201
 21
101.1641018579
 31
0.0
  0
LINE
  5
10E
330
A0
100
AcDbEntity
  8
DV1_デフォルト
  6
CONTINUOUS
 62
     7
100
AcDbLine
 10
153.7502185201
 20
101.1641018579
 30
0.0
 11
153.9502185201
 21
101.3641018579
 31
0.0
  0
LINE
  5
10F
330
A0
100
AcDbEntity
  8
DV1_デフォルト
  6
CONTINUOUS
 62
     7
100
AcDbLine
 10
153.9502185201
 20
130.9641018579
 30
0.0
 11
153.7502185201
 21
131.1641018579
 31
0.0
  0
LINE
  5
110
330
A0
100
AcDbEntity
  8
DV1_デフォルト
  6
CONTINUOUS
 62
     7
100
AcDbLine
 10
157.5502185201
 20
103.4641018579
 30
0.0
 11
157.9502185201
 21
103.8641018579
 31
0.0
  0
LINE
  5
111
330
A0
100
AcDbEntity
  8
DV1_デフォルト
  6
CONTINUOUS
 62
     7
100
AcDbLine
 10
157.9502185201
 20
128.4641018579
 30
0.0
 11
157.5502185201
 21
128.8641018579
 31
0.0
  0
LINE
  5
112
330
A0
100
AcDbEntity
  8
DV1_デフォルト
  6
CONTINUOUS
 62
     7
100
AcDbLine
 10
149.9342185201
 20
100.3641018579
 30
0.0
 11
153.1502185201
 21
100.3641018579
 31
0.0
  0
LINE
  5
113
330
A0
100
AcDbEntity
  8
DV1_デフォルト
  6
CONTINUOUS
 62
     7
100
AcDbLine
 10
153.1502185201
 20
131.9641018579
 30
0.0
 11
149.9342185201
 21
131.9641018579
 31
0.0
  0
LINE
  5
114
330
A0
100
AcDbEntity
  8
DV1_デフォルト
  6
CONTINUOUS
 62
     7
100
AcDbLine
 10
153.1502185201
 20
100.3641018579
 30
0.0
 11
153.4502185201
 21
100.6641018579
 31
0.0
  0
LINE
  5
115
330
A0
100
AcDbEntity
  8
DV1_デフォルト
  6
CONTINUOUS
 62
     7
100
AcDbLine
 10
153.4502185201
 20
131.6641018579
 30
0.0
 11
153.1502185201
 21
131.9641018579
 31
0.0
  0
LINE
  5
116
330
A0
100
AcDbEntity
  8
DV1_デフォルト
  6
CONTINUOUS
 62
     7
100
AcDbLine
 10
153.9502185201
 20
103.9641018579
 30
0.0
 11
155.1502185201
 21
103.9641018579
 31
0.0
  0
LINE
  5
117
330
A0
100
AcDbEntity
  8
DV1_デフォルト
  6
CONTINUOUS
 62
     7
100
AcDbLine
 10
155.1502185201
 20
128.3641018579
 30
0.0
 11
153.9502185201
 21
128.3641018579
 31
0.0
  0
ARC
  5
118
330
A0
100
AcDbEntity
  8
DV1_デフォルト
  6
CONTINUOUS
 62
     7
100
AcDbCircle
 10
131.4342185201
 20
116.164101136
 30
0.0
 40
19.49999999999989
100
AcDbArc
 50
359.4117483684
 51
0.5883002105
  0
ARC
  5
119
330
A0
100
AcDbEntity
  8
DV1_デフォルト
  6
CONTINUOUS
 62
     7
100
AcDbCircle
 10
131.4342185201
 20
116.164101136
 30
0.0
 40
19.34999999999992
100
AcDbArc
 50
359.4071380143
 51
0.5928075348
  0
ELLIPSE
  5
11A
330
A0
100
AcDbEntity
  8
DV1_デフォルト
  6
CONTINUOUS
 62
     7
100
AcDbEllipse
 10
143.9342185201
 20
98.6325481108
 30
0.0
 11
1.500000000000001
 21
0.0
 31
0.0
210
0.0
220
0.0
230
1.0
 40
0.2588190451
 41
0.0
 42
0.0813659611765668
  0
ELLIPSE
  5
11B
330
A0
100
AcDbEntity
  8
DV1_デフォルト
  6
CONTINUOUS
 62
     7
100
AcDbEllipse
 10
143.9342185201
 20
98.6325481108
 30
0.0
 11
1.500000000000001
 21
0.0
 31
0.0
210
0.0
220
0.0
230
1.0
 40
0.2588190451
 41
3.060226692412993
 42
3.141592653589793
  0
ELLIPSE
  5
11C
330
A0
100
AcDbEntity
  8
DV1_デフォルト
  6
CONTINUOUS
 62
     7
100
AcDbEllipse
 10
143.9342185201
 20
98.6325481108
 30
0.0
 11
-1.500000000000001
 21
3.469446951953614E-15
 31
0.0
210
0.0
220
0.0
230
1.0
 40
0.2588190451
 41
0.0
 42
3.141592653589793
  0
SPLINE
  5
11D
330
A0
100
AcDbEntity
  8
DV1_デフォルト
  6
CONTINUOUS
 62
     7
100
AcDbSpline
210
0.0
220
0.0
230
1.0
 70
     8
 71
     3
 72
    20
 73
    16
 74
     0
 42
0.000000006050308
 43
0.0000000001
 40
0.0
 40
0.0
 40
0.0
 40
0.0
 40
0.0465960515404563
 40
0.1352648540256567
 40
0.2241293631253129
 40
0.3133496369647847
 40
0.4032108921581887
 40
0.4941495634682661
 40
0.5869087952832028
 40
0.6828543447804637
 40
0.7843733152813265
 40
0.8568109691045097
 40
0.9196780526493699
 40
0.9783852805288136
 40
1.0
 40
1.0
 40
1.0
 40
1.0
 10
143.9342185200924
 20
97.71896824392682
 30
0.0
 10
143.9705544608484
 20
97.71914527908731
 30
0.0
 10
144.060196114196
 20
97.71974246406884
 30
0.0
 10
144.2220455493817
 20
97.72600431949375
 30
0.0
 10
144.4031391439922
 20
97.7400416921107
 30
0.0
 10
144.5777907859894
 20
97.7609662397814
 30
0.0
 10
144.7412572304976
 20
97.7885649430597
 30
0.0
 10
144.8920044852295
 20
97.82294397477007
 30
0.0
 10
145.0286233530143
 20
97.86466852273047
 30
0.0
 10
145.1511884392177
 20
97.91576828478361
 30
0.0
 10
145.2474893173328
 20
97.97358018147176
 30
0.0
 10
145.320291202668
 20
98.03996578841779
 30
0.0
 10
145.3673255858854
 20
98.109273115009
 30
0.0
 10
145.3935499651862
 20
98.17372829943558
 30
0.0
 10
145.394366670139
 20
98.2095014705086
 30
0.0
 10
145.3945665615549
 20
98.22080879058014
 30
0.0
  0
SPLINE
  5
11E
330
A0
100
AcDbEntity
  8
DV1_デフォルト
  6
CONTINUOUS
 62
     7
100
AcDbSpline
210
0.0
220
0.0
230
1.0
 70
     8
 71
     3
 72
    20
 73
    16
 74
     0
 42
0.0000000060555955
 43
0.0000000001
 40
0.0
 40
0.0
 40
0.0
 40
0.0
 40
0.0594157664040457
 40
0.1184405170622387
 40
0.1815335605154635
 40
0.2546353756857954
 40
0.3433695806464704
 40
0.4433011084413038
 40
0.5396960089749953
 40
0.6326150807619313
 40
0.7235428420809206
 40
0.8133490085569393
 40
0.9025232808075113
 40
0.9866203445822134
 40
1.0
 40
1.0
 40
1.0
 40
1.0
 10
142.4713193625746
 20
98.2197994168895
 30
0.0
 10
142.4766412271214
 20
98.18929746616914
 30
0.0
 10
142.4861528653995
 20
98.13827601239014
 30
0.0
 10
142.5279568199239
 20
98.06600801104508
 30
0.0
 10
142.5830002488293
 20
98.00569360771921
 30
0.0
 10
142.6571377666839
 20
97.95014608972558
 30
0.0
 10
142.7560081594439
 20
97.89786316745024
 30
0.0
 10
142.8820056240469
 20
97.85020876206619
 30
0.0
 10
143.02975269642
 20
97.80948620368942
 30
0.0
 10
143.1903481436232
 20
97.77680430461339
 30
0.0
 10
143.3612527542144
 20
97.75150757832176
 30
0.0
 10
143.5413527135891
 20
97.73326074044283
 30
0.0
 10
143.7221640132798
 20
97.72225244570141
 30
0.0
 10
143.858585782912
 20
97.71911628259267
 30
0.0
 10
143.9237890265604
 20
97.71898282679788
 30
0.0
 10
143.9342185200924
 20
97.71896824392682
 30
0.0
  0
LINE
  5
11F
330
A0
100
AcDbEntity
  8
DV1_デフォルト
  6
CONTINUOUS
 62
     7
100
AcDbLine
 10
142.4346307404
 20
98.6234470561
 30
0.0
 11
142.4711411974
 21
98.2204611124
 31
0.0
  0
LINE
  5
120
330
A0
100
AcDbEntity
  8
DV1_デフォルト
  6
CONTINUOUS
 62
     7
100
AcDbLine
 10
145.3972958428
 20
98.2204611124
 30
0.0
 11
145.4338062998
 21
98.6234470561
 31
0.0
  0
ELLIPSE
  5
121
330
A0
100
AcDbEntity
  8
DV1_デフォルト
  6
CONTINUOUS
 62
     7
100
AcDbEllipse
 10
143.9342185201
 20
120.8616675265
 30
0.0
 11
1.499999999999998
 21
2.428612866367530E-14
 31
0.0
210
0.0
220
0.0
230
1.0
 40
0.9659258263
 41
3.141592653589796
 42
6.283185307179579
  0
ELLIPSE
  5
122
330
A0
100
AcDbEntity
  8
DV1_デフォルト
  6
CONTINUOUS
 62
     7
100
AcDbEllipse
 10
143.9342185201
 20
120.9697066578
 30
0.0
 11
1.463479506699308
 21
1.734723475976807E-15
 31
0.0
210
0.0
220
0.0
230
1.0
 40
0.9659258263
 41
0.0
 42
1.093457237259917
  0
LINE
  5
123
330
A0
100
AcDbEntity
  8
DV1_デフォルト
  6
CONTINUOUS
 62
     7
100
AcDbLine
 10
144.1342185201
 20
120.8237737883
 30
0.0
 11
143.9342185201
 21
120.8747390572
 31
0.0
  0
LINE
  5
124
330
A0
100
AcDbEntity
  8
DV1_デフォルト
  6
CONTINUOUS
 62
     7
100
AcDbLine
 10
143.9342185201
 20
120.0054058135
 30
0.0
 11
143.9342185201
 21
120.8747390572
 31
0.0
  0
LINE
  5
125
330
A0
100
AcDbEntity
  8
DV1_デフォルト
  6
CONTINUOUS
 62
     7
100
AcDbLine
 10
144.1342185201
 20
119.9544405447
 30
0.0
 11
143.9342185201
 21
120.0054058135
 31
0.0
  0
LINE
  5
126
330
A0
100
AcDbEntity
  8
DV1_デフォルト
  6
CONTINUOUS
 62
     7
100
AcDbLine
 10
144.1342185201
 20
120.8237737883
 30
0.0
 11
144.1342185201
 21
119.9544405447
 31
0.0
  0
LINE
  5
127
330
A0
100
AcDbEntity
  8
DV1_デフォルト
  6
CONTINUOUS
 62
     7
100
AcDbLine
 10
143.9342185201
 20
120.8747390572
 30
0.0
 11
144.1342185201
 21
121.2101441189
 31
0.0
  0
LINE
  5
128
330
A0
100
AcDbEntity
  8
DV1_デフォルト
  6
CONTINUOUS
 62
     7
100
AcDbLine
 10
144.1342185201
 20
122.0794773625
 30
0.0
 11
144.1342185201
 21
121.2101441189
 31
0.0
  0
LINE
  5
129
330
A0
100
AcDbEntity
  8
DV1_デフォルト
  6
CONTINUOUS
 62
     7
100
AcDbLine
 10
144.1342185201
 20
122.0794773625
 30
0.0
 11
143.9342185201
 21
121.7440723008
 31
0.0
  0
LINE
  5
12A
330
A0
100
AcDbEntity
  8
DV1_デフォルト
  6
CONTINUOUS
 62
     7
100
AcDbLine
 10
143.9342185201
 20
120.8747390572
 30
0.0
 11
143.9342185201
 21
121.7440723008
 31
0.0
  0
LINE
  5
12B
330
A0
100
AcDbEntity
  8
DV1_デフォルト
  6
CONTINUOUS
 62
     7
100
AcDbLine
 10
143.9342185201
 20
120.8747390572
 30
0.0
 11
143.7342185201
 21
120.8237737883
 31
0.0
  0
LINE
  5
12C
330
A0
100
AcDbEntity
  8
DV1_デフォルト
  6
CONTINUOUS
 62
     7
100
AcDbLine
 10
143.7342185201
 20
119.9544405447
 30
0.0
 11
143.7342185201
 21
120.8237737883
 31
0.0
  0
LINE
  5
12D
330
A0
100
AcDbEntity
  8
DV1_デフォルト
  6
CONTINUOUS
 62
     7
100
AcDbLine
 10
143.7342185201
 20
119.9544405447
 30
0.0
 11
143.9342185201
 21
120.0054058135
 31
0.0
  0
LINE
  5
12E
330
A0
100
AcDbEntity
  8
DV1_デフォルト
  6
CONTINUOUS
 62
     7
100
AcDbLine
 10
143.7342185201
 20
121.2101441189
 30
0.0
 11
143.9342185201
 21
120.8747390572
 31
0.0
  0
LINE
  5
12F
330
A0
100
AcDbEntity
  8
DV1_デフォルト
  6
CONTINUOUS
 62
     7
100
AcDbLine
 10
143.7342185201
 20
122.0794773625
 30
0.0
 11
143.9342185201
 21
121.7440723008
 31
0.0
  0
LINE
  5
130
330
A0
100
AcDbEntity
  8
DV1_デフォルト
  6
CONTINUOUS
 62
     7
100
AcDbLine
 10
143.7342185201
 20
121.2101441189
 30
0.0
 11
143.7342185201
 21
122.0794773625
 31
0.0
  0
LINE
  5
131
330
A0
100
AcDbEntity
  8
DV1_デフォルト
  6
CONTINUOUS
 62
     7
100
AcDbLine
 10
144.1342185201
 20
119.9544405447
 30
0.0
 11
143.7342185201
 21
119.9544405447
 31
0.0
  0
LINE
  5
132
330
A0
100
AcDbEntity
  8
DV1_デフォルト
  6
CONTINUOUS
 62
     7
100
AcDbLine
 10
143.7342185201
 20
122.0794773625
 30
0.0
 11
144.1342185201
 21
122.0794773625
 31
0.0
  0
LINE
  5
133
330
A0
100
AcDbEntity
  8
DV1_デフォルト
  6
CONTINUOUS
 62
     7
100
AcDbLine
 10
142.8342185201
 20
121.2101441189
 30
0.0
 11
143.7342185201
 21
121.2101441189
 31
0.0
  0
LINE
  5
134
330
A0
100
AcDbEntity
  8
DV1_デフォルト
  6
CONTINUOUS
 62
     7
100
AcDbLine
 10
142.8342185201
 20
121.2101441189
 30
0.0
 11
143.0342185201
 21
120.8747390572
 31
0.0
  0
LINE
  5
135
330
A0
100
AcDbEntity
  8
DV1_デフォルト
  6
CONTINUOUS
 62
     7
100
AcDbLine
 10
143.0342185201
 20
120.8747390572
 30
0.0
 11
143.9342185201
 21
120.8747390572
 31
0.0
  0
LINE
  5
136
330
A0
100
AcDbEntity
  8
DV1_デフォルト
  6
CONTINUOUS
 62
     7
100
AcDbLine
 10
142.8342185201
 20
120.8237737883
 30
0.0
 11
143.0342185201
 21
120.8747390572
 31
0.0
  0
LINE
  5
137
330
A0
100
AcDbEntity
  8
DV1_デフォルト
  6
CONTINUOUS
 62
     7
100
AcDbLine
 10
143.7342185201
 20
120.8237737883
 30
0.0
 11
142.8342185201
 21
120.8237737883
 31
0.0
  0
LINE
  5
138
330
A0
100
AcDbEntity
  8
DV1_デフォルト
  6
CONTINUOUS
 62
     7
100
AcDbLine
 10
145.0342185201
 20
120.8237737883
 30
0.0
 11
144.1342185201
 21
120.8237737883
 31
0.0
  0
LINE
  5
139
330
A0
100
AcDbEntity
  8
DV1_デフォルト
  6
CONTINUOUS
 62
     7
100
AcDbLine
 10
145.0342185201
 20
120.8237737883
 30
0.0
 11
144.8342185201
 21
120.8747390572
 31
0.0
  0
LINE
  5
13A
330
A0
100
AcDbEntity
  8
DV1_デフォルト
  6
CONTINUOUS
 62
     7
100
AcDbLine
 10
143.9342185201
 20
120.8747390572
 30
0.0
 11
144.8342185201
 21
120.8747390572
 31
0.0
  0
LINE
  5
13B
330
A0
100
AcDbEntity
  8
DV1_デフォルト
  6
CONTINUOUS
 62
     7
100
AcDbLine
 10
142.8342185201
 20
120.8237737883
 30
0.0
 11
142.8342185201
 21
121.2101441189
 31
0.0
  0
LINE
  5
13C
330
A0
100
AcDbEntity
  8
DV1_デフォルト
  6
CONTINUOUS
 62
     7
100
AcDbLine
 10
145.0342185201
 20
121.2101441189
 30
0.0
 11
145.0342185201
 21
120.8237737883
 31
0.0
  0
LINE
  5
13D
330
A0
100
AcDbEntity
  8
DV1_デフォルト
  6
CONTINUOUS
 62
     7
100
AcDbLine
 10
145.0342185201
 20
121.2101441189
 30
0.0
 11
144.8342185201
 21
120.8747390572
 31
0.0
  0
LINE
  5
13E
330
A0
100
AcDbEntity
  8
DV1_デフォルト
  6
CONTINUOUS
 62
     7
100
AcDbLine
 10
144.1342185201
 20
121.2101441189
 30
0.0
 11
145.0342185201
 21
121.2101441189
 31
0.0
  0
ELLIPSE
  5
13F
330
A0
100
AcDbEntity
  8
DV1_デフォルト
  6
CONTINUOUS
 62
     7
100
AcDbEllipse
 10
143.9342185201
 20
120.8616675265
 30
0.0
 11
-1.499999999999998
 21
-2.428612866367530E-14
 31
0.0
210
0.0
220
0.0
230
1.0
 40
0.9659258263
 41
5.950574201624537
 42
6.283185307179586
  0
ELLIPSE
  5
140
330
A0
100
AcDbEntity
  8
DV1_デフォルト
  6
CONTINUOUS
 62
     7
100
AcDbEllipse
 10
143.9342185201
 20
120.8616675265
 30
0.0
 11
-1.499999999999998
 21
-2.428612866367530E-14
 31
0.0
210
0.0
220
0.0
230
1.0
 40
0.9659258263
 41
3.141592653589786
 42
3.474203759144753
  0
ELLIPSE
  5
141
330
A0
100
AcDbEntity
  8
DV1_デフォルト
  6
CONTINUOUS
 62
     7
100
AcDbEllipse
 10
143.9342185201
 20
120.9697066578
 30
0.0
 11
1.463479506699315
 21
-6.071532165918825E-14
 31
0.0
210
0.0
220
0.0
230
1.0
 40
0.9659258263
 41
2.06392703969624
 42
3.141592653589796
  0
ARC
  5
142
330
A0
100
AcDbEntity
  8
DV1_デフォルト
  6
CONTINUOUS
 62
     7
100
AcDbCircle
 10
143.9432952056
 20
120.9490260379
 30
0.0
 40
1.437360380242843
100
AcDbArc
 50
62.7059556785
 51
90.3618154726
  0
ARC
  5
143
330
A0
100
AcDbEntity
  8
DV1_デフォルト
  6
CONTINUOUS
 62
     7
100
AcDbCircle
 10
143.9325357296
 20
120.9009831938
 30
0.0
 40
1.4853755184227
100
AcDbArc
 50
89.9350892683
 51
117.6129049325
  0
LINE
  5
144
330
A0
100
AcDbEntity
  8
DV1_デフォルト
  6
CONTINUOUS
 62
     7
100
AcDbLine
 10
145.3520080335
 20
121.3347472857
 30
0.0
 11
145.3174891186
 21
121.4312683461
 31
0.0
  0
LINE
  5
145
330
A0
100
AcDbEntity
  8
DV1_デフォルト
  6
CONTINUOUS
 62
     7
100
AcDbLine
 10
142.5509479216
 20
121.4312683461
 30
0.0
 11
142.5164290067
 21
121.3347472857
 31
0.0
  0
LINE
  5
146
330
A0
100
AcDbEntity
  8
DV1_デフォルト
  6
CONTINUOUS
 62
     7
100
AcDbLine
 10
117.4502185201
 20
137.1641018579
 30
0.0
 11
117.4502185201
 21
95.1641018579
 31
0.0
  0
LINE
  5
147
330
A0
100
AcDbEntity
  8
DV1_デフォルト
  6
CONTINUOUS
 62
     7
100
AcDbLine
 10
117.2502185201
 20
95.3641018579
 30
0.0
 11
117.2502185201
 21
136.9641018579
 31
0.0
  0
ELLIPSE
  5
148
330
A0
100
AcDbEntity
  8
DV1_デフォルト
  6
CONTINUOUS
 62
     7
100
AcDbEllipse
 10
123.5502185201
 20
100.3591382389
 30
0.0
 11
-1.099999999999997
 21
-3.469446951953614E-15
 31
0.0
210
0.0
220
0.0
230
1.0
 40
0.5
 41
-3.621825427281102
 42
-3.460955405539859
  0
ELLIPSE
  5
149
330
A0
100
AcDbEntity
  8
DV1_デフォルト
  6
CONTINUOUS
 62
     7
100
AcDbEllipse
 10
123.5502185201
 20
100.3591382389
 30
0.0
 11
-1.099999999999997
 21
-3.469446951953614E-15
 31
0.0
210
0.0
220
0.0
230
1.0
 40
0.5
 41
0.3228676044357799
 42
0.4802327736915573
  0
ELLIPSE
  5
14A
330
A0
100
AcDbEntity
  8
DV1_デフォルト
  6
CONTINUOUS
 62
     7
100
AcDbEllipse
 10
123.5502185201
 20
131.969065477
 30
0.0
 11
-1.099999999999997
 21
-3.469446951953614E-15
 31
0.0
210
0.0
220
0.0
230
1.0
 40
0.5
 41
-0.4802327736915322
 42
-0.3165166884510979
  0
ELLIPSE
  5
14B
330
A0
100
AcDbEntity
  8
DV1_デフォルト
  6
CONTINUOUS
 62
     7
100
AcDbEllipse
 10
123.5502185201
 20
131.969065477
 30
0.0
 11
-1.099999999999997
 21
-3.469446951953614E-15
 31
0.0
210
0.0
220
0.0
230
1.0
 40
0.5
 41
3.468589749269388
 42
3.621825427281126
  0
LINE
  5
14C
330
A0
100
AcDbEntity
  8
DV1_デフォルト
  6
CONTINUOUS
 62
     7
100
AcDbLine
 10
124.9502185201
 20
134.9141018579
 30
0.0
 11
124.9502185201
 21
97.4141018579
 31
0.0
  0
LINE
  5
14D
330
A0
100
AcDbEntity
  8
DV1_デフォルト
  6
CONTINUOUS
 62
     7
100
AcDbLine
 10
125.0502185201
 20
97.5141018579
 30
0.0
 11
125.0502185201
 21
134.8141018579
 31
0.0
  0
SPLINE
  5
14E
330
A0
100
AcDbEntity
  8
DV1_デフォルト
  6
CONTINUOUS
 62
     7
100
AcDbSpline
210
0.0
220
0.0
230
1.0
 70
     8
 71
     3
 72
    13
 73
     9
 74
     0
 42
0.0000000026168072
 43
0.0000000001
 40
0.0
 40
0.0
 40
0.0
 40
0.0
 40
0.1496079083342814
 40
0.3246779596680668
 40
0.5001924335385995
 40
0.6752600633733549
 40
0.8504551919712183
 40
1.0
 40
1.0
 40
1.0
 40
1.0
 10
124.4116756909845
 20
131.9656998721382
 30
0.0
 10
124.5635057204618
 20
132.0691126812476
 30
0.0
 10
124.7517537642953
 20
132.348465648229
 30
0.0
 10
124.412168800259
 20
132.734962093512
 30
0.0
 10
123.5496137603277
 20
132.8885532035806
 30
0.0
 10
122.6877861749123
 20
132.7345687924765
 30
0.0
 10
122.3486017172087
 20
132.3482447907811
 30
0.0
 10
122.5371655695169
 20
132.068888483991
 30
0.0
 10
122.6889977509911
 20
131.965542078035
 30
0.0
  0
SPLINE
  5
14F
330
A0
100
AcDbEntity
  8
DV1_デフォルト
  6
CONTINUOUS
 62
     7
100
AcDbSpline
210
0.0
220
0.0
230
1.0
 70
    11
 71
     3
 72
    15
 73
    11
 74
     0
 42
0.0000000015993359
 43
0.0000000001
 40
0.0
 40
0.0
 40
0.0
 40
0.0
 40
0.12468226985093
 40
0.2499316922550963
 40
0.3751531563460548
 40
0.4998384880087446
 40
0.6248416034922881
 40
0.7499735135058861
 40
0.875225669074704
 40
1.0
 40
1.0
 40
1.0
 40
1.0
 10
123.5502185200924
 20
99.35926732398848
 30
0.0
 10
123.2383745198416
 20
99.3592640664171
 30
0.0
 10
122.6132888282353
 20
99.4730187974437
 30
0.0
 10
122.2271909966841
 20
99.91748865724169
 30
0.0
 10
122.6123506677954
 20
100.4118730904358
 30
0.0
 10
123.5495597899516
 20
100.6332390031492
 30
0.0
 10
124.4875664801523
 20
100.4123762036867
 30
0.0
 10
124.8731212597971
 20
99.917796160753
 30
0.0
 10
124.4876572197928
 20
99.47316555406563
 30
0.0
 10
123.8622927751639
 20
99.35927058396514
 30
0.0
 10
123.5502185200924
 20
99.35926732398848
 30
0.0
  0
SPLINE
  5
150
330
A0
100
AcDbEntity
  8
DV1_デフォルト
  6
CONTINUOUS
 62
     7
100
AcDbSpline
210
0.0
220
0.0
230
1.0
 70
    11
 71
     3
 72
    15
 73
    11
 74
     0
 42
0.00000000160109
 43
0.0000000001
 40
0.0
 40
0.0
 40
0.0
 40
0.0
 40
0.1246822698509296
 40
0.2499316922550955
 40
0.3751531563460545
 40
0.4998384880087445
 40
0.6248416034922886
 40
0.7499735135058851
 40
0.8752256690747034
 40
1.0
 40
1.0
 40
1.0
 40
1.0
 10
123.5502185200924
 20
131.7686040463038
 30
0.0
 10
123.2383745198416
 20
131.7685993999847
 30
0.0
 10
122.6132888282353
 20
131.9157734626651
 30
0.0
 10
122.2271909966842
 20
132.4100505842581
 30
0.0
 10
122.6123506677954
 20
132.8547327879529
 30
0.0
 10
123.5495597899516
 20
133.025854458896
 30
0.0
 10
124.4875664801523
 20
132.8551642304841
 30
0.0
 10
124.8731212597971
 20
132.4103481307477
 30
0.0
 10
124.4876572197928
 20
131.9159659299422
 30
0.0
 10
123.862292775164
 20
131.7686086960536
 30
0.0
 10
123.5502185200924
 20
131.7686040463038
 30
0.0
  0
SPLINE
  5
151
330
A0
100
AcDbEntity
  8
DV1_デフォルト
  6
CONTINUOUS
 62
     7
100
AcDbSpline
210
0.0
220
0.0
230
1.0
 70
     8
 71
     3
 72
    10
 73
     6
 74
     0
 42
0.0000000052474984
 43
0.0000000001
 40
0.0
 40
0.0
 40
0.0
 40
0.0
 40
0.3504677185735939
 40
0.7010259714854145
 40
1.0
 40
1.0
 40
1.0
 40
1.0
 10
123.5502185200924
 20
99.49092849936896
 30
0.0
 10
123.8375320962402
 20
99.49093141370875
 30
0.0
 10
124.4122533763822
 20
99.59335738629758
 30
0.0
 10
124.7517557776844
 20
99.97968944158126
 30
0.0
 10
124.5635672085797
 20
100.259002818112
 30
0.0
 10
124.4119527659091
 20
100.36232768131
 30
0.0
  0
SPLINE
  5
152
330
A0
100
AcDbEntity
  8
DV1_デフォルト
  6
CONTINUOUS
 62
     7
100
AcDbSpline
210
0.0
220
0.0
230
1.0
 70
     8
 71
     3
 72
    10
 73
     6
 74
     0
 42
0.0000000052457236
 43
0.0000000001
 40
0.0
 40
0.0
 40
0.0
 40
0.0
 40
0.2994174310076793
 40
0.6498796228019594
 40
1.0
 40
1.0
 40
1.0
 40
1.0
 10
122.6888822861804
 20
100.3625853462488
 30
0.0
 10
122.5369109612903
 20
100.259114803697
 30
0.0
 10
122.3485034276076
 20
99.97951726897158
 30
0.0
 10
122.6886524355129
 20
99.5932257466927
 30
0.0
 10
123.2631166270681
 20
99.49092558717639
 30
0.0
 10
123.5502185200924
 20
99.49092849936896
 30
0.0
  0
LINE
  5
153
330
A0
100
AcDbEntity
  8
DV1_デフォルト
  6
CONTINUOUS
 62
     7
100
AcDbLine
 10
121.8502185201
 20
137.1641018579
 30
0.0
 11
121.8502185201
 21
95.1641018579
 31
0.0
  0
LINE
  5
154
330
A0
100
AcDbEntity
  8
DV1_デフォルト
  6
CONTINUOUS
 62
     7
100
AcDbLine
 10
122.0502185201
 20
95.3641018579
 30
0.0
 11
122.0502185201
 21
136.9641018579
 31
0.0
  0
LINE
  5
155
330
A0
100
AcDbEntity
  8
DV1_デフォルト
  6
CONTINUOUS
 62
     7
100
AcDbLine
 10
121.8502185201
 20
137.1641018579
 30
0.0
 11
117.4502185201
 21
137.1641018579
 31
0.0
  0
LINE
  5
156
330
A0
100
AcDbEntity
  8
DV1_デフォルト
  6
CONTINUOUS
 62
     7
100
AcDbLine
 10
117.4502185201
 20
95.1641018579
 30
0.0
 11
121.8502185201
 21
95.1641018579
 31
0.0
  0
LINE
  5
157
330
A0
100
AcDbEntity
  8
DV1_デフォルト
  6
CONTINUOUS
 62
     7
100
AcDbLine
 10
117.4502185201
 20
137.1641018579
 30
0.0
 11
117.2502185201
 21
136.9641018579
 31
0.0
  0
LINE
  5
158
330
A0
100
AcDbEntity
  8
DV1_デフォルト
  6
CONTINUOUS
 62
     7
100
AcDbLine
 10
117.2502185201
 20
95.3641018579
 30
0.0
 11
117.4502185201
 21
95.1641018579
 31
0.0
  0
LINE
  5
159
330
A0
100
AcDbEntity
  8
DV1_デフォルト
  6
CONTINUOUS
 62
     7
100
AcDbLine
 10
122.0502185201
 20
97.4141018579
 30
0.0
 11
124.9502185201
 21
97.4141018579
 31
0.0
  0
LINE
  5
15A
330
A0
100
AcDbEntity
  8
DV1_デフォルト
  6
CONTINUOUS
 62
     7
100
AcDbLine
 10
124.9502185201
 20
134.9141018579
 30
0.0
 11
122.0502185201
 21
134.9141018579
 31
0.0
  0
LINE
  5
15B
330
A0
100
AcDbEntity
  8
DV1_デフォルト
  6
CONTINUOUS
 62
     7
100
AcDbLine
 10
124.9502185201
 20
97.4141018579
 30
0.0
 11
125.0502185201
 21
97.5141018579
 31
0.0
  0
LINE
  5
15C
330
A0
100
AcDbEntity
  8
DV1_デフォルト
  6
CONTINUOUS
 62
     7
100
AcDbLine
 10
125.0502185201
 20
134.8141018579
 30
0.0
 11
124.9502185201
 21
134.9141018579
 31
0.0
  0
LINE
  5
15D
330
A0
100
AcDbEntity
  8
DV1_デフォルト
  6
CONTINUOUS
 62
     7
100
AcDbLine
 10
121.8502185201
 20
95.1641018579
 30
0.0
 11
122.0502185201
 21
95.3641018579
 31
0.0
  0
LINE
  5
15E
330
A0
100
AcDbEntity
  8
DV1_デフォルト
  6
CONTINUOUS
 62
     7
100
AcDbLine
 10
122.0502185201
 20
136.9641018579
 30
0.0
 11
121.8502185201
 21
137.1641018579
 31
0.0
  0
LINE
  5
15F
330
A0
100
AcDbEntity
  8
DV1_デフォルト
  6
CONTINUOUS
 62
     7
100
AcDbLine
 10
125.2841931163
 20
98.6641018579
 30
0.0
 11
125.2841931163
 21
133.6641018579
 31
0.0
  0
LINE
  5
160
330
A0
100
AcDbEntity
  8
DV1_デフォルト
  6
CONTINUOUS
 62
     7
100
AcDbLine
 10
136.7502185201
 20
133.6641018579
 30
0.0
 11
136.7502185201
 21
98.6641018579
 31
0.0
  0
LINE
  5
161
330
A0
100
AcDbEntity
  8
DV1_デフォルト
  6
CONTINUOUS
 62
     7
100
AcDbLine
 10
136.9502185201
 20
98.8641018579
 30
0.0
 11
136.9502185201
 21
133.4641018579
 31
0.0
  0
SPLINE
  5
162
330
A0
100
AcDbEntity
  8
DV1_デフォルト
  6
CONTINUOUS
 62
     7
100
AcDbSpline
210
0.0
220
0.0
230
1.0
 70
    11
 71
     3
 72
    62
 73
    58
 74
     0
 42
0.0000000025681334
 43
0.0000000001
 40
0.0
 40
0.0
 40
0.0
 40
0.0
 40
0.0536662611359205
 40
0.0536662611359205
 40
0.0536662611359205
 40
0.10733013166752
 40
0.10733013166752
 40
0.10733013166752
 40
0.1610298474405194
 40
0.1610298474405194
 40
0.1610298474405194
 40
0.2147540298938022
 40
0.2147540298938022
 40
0.2147540298938022
 40
0.2684396018122276
 40
0.2684396018122276
 40
0.2684396018122276
 40
0.3220838145766592
 40
0.3220838145766592
 40
0.3220838145766592
 40
0.3757483379590449
 40
0.3757483379590449
 40
0.3757483379590449
 40
0.429463199418929
 40
0.429463199418929
 40
0.429463199418929
 40
0.4831799558085558
 40
0.4831799558085558
 40
0.4831799558085558
 40
0.5368470588024953
 40
0.5368470588024953
 40
0.5368470588024953
 40
0.5904905066556307
 40
0.5904905066556307
 40
0.5904905066556307
 40
0.6441731706951248
 40
0.6441731706951248
 40
0.6441731706951248
 40
0.6978967379246079
 40
0.6978967379246079
 40
0.6978967379246079
 40
0.751599083019388
 40
0.751599083019388
 40
0.751599083019388
 40
0.8052512635920145
 40
0.8052512635920145
 40
0.8052512635920145
 40
0.8589025616269695
 40
0.8589025616269695
 40
0.8589025616269695
 40
0.9126035797992728
 40
0.9126035797992728
 40
0.9126035797992728
 40
0.9663274887266496
 40
0.9663274887266496
 40
0.9663274887266496
 40
1.0
 40
1.0
 40
1.0
 40
1.0
 10
126.9502185200924
 20
100.6245014669118
 30
0.0
 10
126.8607315849716
 20
100.6245014669118
 30
0.0
 10
126.7700107931261
 20
100.6315946011376
 30
0.0
 10
126.6855708101041
 20
100.6452877488295
 30
0.0
 10
126.6011329652635
 20
100.6589805497848
 30
0.0
 10
126.5206472570634
 20
100.6796583376305
 30
0.0
 10
126.4507620637709
 20
100.7058565161664
 30
0.0
 10
126.3808309525121
 20
100.7320719081781
 30
0.0
 10
126.3195853711096
 20
100.7645514633685
 30
0.0
 10
126.2720892622471
 20
100.800900341848
 30
0.0
 10
126.2245728118554
 20
100.8372647877453
 30
0.0
 10
126.1895074921134
 20
100.8785190345979
 30
0.0
 10
126.169806473699
 20
100.9214502381079
 30
0.0
 10
126.150119495536
 20
100.9643508459972
 30
0.0
 10
126.1452326190392
 20
101.0101162208324
 30
0.0
 10
126.1555526118955
 20
101.0549820093754
 30
0.0
 10
126.1658649628534
 20
101.0998145750468
 30
0.0
 10
126.1916443191556
 20
101.1449814477551
 30
0.0
 10
126.2307520098195
 20
101.1865910619363
 30
0.0
 10
126.2698747885063
 20
101.2282167294001
 30
0.0
 10
126.3234126698599
 20
101.2674188640062
 30
0.0
 10
126.3869405027078
 20
101.3006859082583
 30
0.0
 10
126.4505262279957
 20
101.3339832685196
 30
0.0
 10
126.5258750233711
 20
101.3622391226337
 30
0.0
 10
126.6067552358154
 20
101.3828390134979
 30
0.0
 10
126.68763675953
 20
101.4034392383379
 30
0.0
 10
126.7762840979359
 20
101.4169400905426
 30
0.0
 10
126.8653467785311
 20
101.4220656745681
 30
0.0
 10
126.9543287779384
 20
101.4271866153671
 30
0.0
 10
127.0461801993497
 20
101.424085700431
 30
0.0
 10
127.1332891160651
 20
101.413057129065
 30
0.0
 10
127.2203619988491
 20
101.4020331198356
 30
0.0
 10
127.3050961232545
 20
101.382791628771
 30
0.0
 10
127.3804912738458
 20
101.35713500623
 30
0.0
 10
127.455941050391
 20
101.3314597947284
 30
0.0
 10
127.524118670251
 20
101.2986655573958
 30
0.0
 10
127.5793928137471
 20
101.2617518655867
 30
0.0
 10
127.6347074161467
 20
101.2248111541369
 30
0.0
 10
127.6786251427028
 20
101.1827384140585
 30
0.0
 10
127.7075028652872
 20
101.1392610995551
 30
0.0
 10
127.7363689881648
 20
101.0958012491748
 30
0.0
 10
127.7510024545946
 20
101.0497464020617
 30
0.0
 10
127.7501852007336
 20
101.0050079305828
 30
0.0
 10
127.7493686882124
 20
100.9603100418604
 30
0.0
 10
127.733107818166
 20
100.9156933022211
 30
0.0
 10
127.702753509235
 20
100.874750268652
 30
0.0
 10
127.6723991377743
 20
100.8338071507406
 30
0.0
 10
127.6271169172656
 20
100.7954003272455
 30
0.0
 10
127.5706526643438
 20
100.7624516859116
 30
0.0
 10
127.5141371443009
 20
100.7294731286239
 30
0.0
 10
127.4448607872992
 20
100.7010395232332
 30
0.0
 10
127.3685492769665
 20
100.6792130988639
 30
0.0
 10
127.2922072918026
 20
100.6573779581609
 30
0.0
 10
127.206715649265
 20
100.6415407289889
 30
0.0
 10
127.1191584333556
 20
100.6328152281804
 30
0.0
 10
127.0638039407242
 20
100.6272988847792
 30
0.0
 10
127.0068526788939
 20
100.6245014669118
 30
0.0
 10
126.9502185200924
 20
100.6245014669118
 30
0.0
  0
SPLINE
  5
163
330
A0
100
AcDbEntity
  8
DV1_デフォルト
  6
CONTINUOUS
 62
     7
100
AcDbSpline
210
0.0
220
0.0
230
1.0
 70
    11
 71
     3
 72
    62
 73
    58
 74
     0
 42
0.0000000025681579
 43
0.0000000001
 40
0.0
 40
0.0
 40
0.0
 40
0.0
 40
0.0536662611359204
 40
0.0536662611359204
 40
0.0536662611359204
 40
0.1073301316675197
 40
0.1073301316675197
 40
0.1073301316675197
 40
0.1610298474405192
 40
0.1610298474405192
 40
0.1610298474405192
 40
0.2147540298938019
 40
0.2147540298938019
 40
0.2147540298938019
 40
0.2684396018122273
 40
0.2684396018122273
 40
0.2684396018122273
 40
0.322083814576659
 40
0.322083814576659
 40
0.322083814576659
 40
0.3757483379590448
 40
0.3757483379590448
 40
0.3757483379590448
 40
0.4294631994189287
 40
0.4294631994189287
 40
0.4294631994189287
 40
0.4831799558085557
 40
0.4831799558085557
 40
0.4831799558085557
 40
0.5368470588024953
 40
0.5368470588024953
 40
0.5368470588024953
 40
0.5904905066556309
 40
0.5904905066556309
 40
0.5904905066556309
 40
0.644173170695125
 40
0.644173170695125
 40
0.644173170695125
 40
0.6978967379246082
 40
0.6978967379246082
 40
0.6978967379246082
 40
0.7515990830193883
 40
0.7515990830193883
 40
0.7515990830193883
 40
0.8052512635920146
 40
0.8052512635920146
 40
0.8052512635920146
 40
0.8589025616269698
 40
0.8589025616269698
 40
0.8589025616269698
 40
0.9126035797992728
 40
0.9126035797992728
 40
0.9126035797992728
 40
0.9663274887266496
 40
0.9663274887266496
 40
0.9663274887266496
 40
1.0
 40
1.0
 40
1.0
 40
1.0
 10
126.9502185200924
 20
130.9037022489668
 30
0.0
 10
126.8607315849716
 20
130.9037022489668
 30
0.0
 10
126.7700107931261
 20
130.9120509887715
 30
0.0
 10
126.6855708101041
 20
130.9279579618607
 30
0.0
 10
126.6011329652635
 20
130.943864532155
 30
0.0
 10
126.5206472570635
 20
130.9677575605803
 30
0.0
 10
126.4507620637709
 20
130.9974126045433
 30
0.0
 10
126.3808309525121
 20
131.0270871333105
 30
0.0
 10
126.3195853711096
 20
131.0633358784711
 30
0.0
 10
126.2720892622471
 20
131.1028735097959
 30
0.0
 10
126.2245728118554
 20
131.1424280742107
 30
0.0
 10
126.1895074921134
 20
131.1863543536991
 30
0.0
 10
126.1698064736991
 20
131.2308073557782
 30
0.0
 10
126.150119495536
 20
131.275228677702
 30
0.0
 10
126.1452326190392
 20
131.3213961023348
 30
0.0
 10
126.1555526118955
 20
131.3654501964053
 30
0.0
 10
126.1658649628534
 20
131.4094716686594
 30
0.0
 10
126.1916443191556
 20
131.4525996976083
 30
0.0
 10
126.2307520098195
 20
131.4914239467785
 30
0.0
 10
126.2698747885063
 20
131.5302631746179
 30
0.0
 10
126.3234126698599
 20
131.5658769422938
 30
0.0
 10
126.3869405027078
 20
131.5956004381692
 30
0.0
 10
126.4505262279957
 20
131.6253510208445
 30
0.0
 10
126.5258750233711
 20
131.6500350965189
 30
0.0
 10
126.6067552358154
 20
131.6678831951223
 30
0.0
 10
126.68763675953
 20
131.685731583088
 30
0.0
 10
126.7762840979359
 20
131.697246621806
 30
0.0
 10
126.8653467785311
 20
131.7016232941495
 30
0.0
 10
126.9543287779384
 20
131.7059960016996
 30
0.0
 10
127.0461801993497
 20
131.7033668104191
 30
0.0
 10
127.1332891160651
 20
131.6939181559468
 30
0.0
 10
127.2203619988491
 20
131.6844734100544
 30
0.0
 10
127.3050961232546
 20
131.6679492373734
 30
0.0
 10
127.3804912738458
 20
131.6455057766737
 30
0.0
 10
127.455941050391
 20
131.6230460550415
 30
0.0
 10
127.524118670251
 20
131.5940270886816
 30
0.0
 10
127.5793928137471
 20
131.56055680696
 30
0.0
 10
127.6347074161467
 20
131.5270620260637
 30
0.0
 10
127.6786251427028
 20
131.4881707907926
 30
0.0
 10
127.7075028652872
 20
131.4468581461444
 30
0.0
 10
127.7363689881648
 20
131.4055620961071
 30
0.0
 10
127.7510024545946
 20
131.3606976033973
 30
0.0
 10
127.7501852007336
 20
131.3158944248839
 30
0.0
 10
127.7493686882125
 20
131.2711318878236
 30
0.0
 10
127.733107818166
 20
131.2251965630719
 30
0.0
 10
127.702753509235
 20
131.1819924185021
 30
0.0
 10
127.6723991377743
 20
131.1387881849321
 30
0.0
 10
127.6271169172656
 20
131.0971333093197
 30
0.0
 10
127.5706526643438
 20
131.0607159197263
 30
0.0
 10
127.5141371443009
 20
131.0242654647044
 30
0.0
 10
127.4448607872993
 20
130.9920704164854
 30
0.0
 10
127.3685492769665
 20
130.9670819883457
 30
0.0
 10
127.2922072918026
 20
130.9420835811331
 30
0.0
 10
127.206715649265
 20
130.9236208372193
 30
0.0
 10
127.1191584333556
 20
130.91342985343
 30
0.0
 10
127.0638039407242
 20
130.9069870179513
 30
0.0
 10
127.0068526788939
 20
130.9037022489668
 30
0.0
 10
126.9502185200924
 20
130.9037022489668
 30
0.0
  0
LINE
  5
164
330
A0
100
AcDbEntity
  8
DV1_デフォルト
  6
CONTINUOUS
 62
     7
100
AcDbLine
 10
125.2841931163
 20
98.6641018579
 30
0.0
 11
136.7502185201
 21
98.6641018579
 31
0.0
  0
LINE
  5
165
330
A0
100
AcDbEntity
  8
DV1_デフォルト
  6
CONTINUOUS
 62
     7
100
AcDbLine
 10
136.7502185201
 20
133.6641018579
 30
0.0
 11
125.2841931163
 21
133.6641018579
 31
0.0
  0
LINE
  5
166
330
A0
100
AcDbEntity
  8
DV1_デフォルト
  6
CONTINUOUS
 62
     7
100
AcDbLine
 10
136.7502185201
 20
98.6641018579
 30
0.0
 11
136.9502185201
 21
98.8641018579
 31
0.0
  0
LINE
  5
167
330
A0
100
AcDbEntity
  8
DV1_デフォルト
  6
CONTINUOUS
 62
     7
100
AcDbLine
 10
136.9502185201
 20
133.4641018579
 30
0.0
 11
136.7502185201
 21
133.6641018579
 31
0.0
  0
LINE
  5
168
330
A0
100
AcDbEntity
  8
DV1_デフォルト
  6
CONTINUOUS
 62
     7
100
AcDbLine
 10
125.0502185201
 20
98.9141018579
 30
0.0
 11
125.2841931163
 21
98.9141018579
 31
0.0
  0
LINE
  5
169
330
A0
100
AcDbEntity
  8
DV1_デフォルト
  6
CONTINUOUS
 62
     7
100
AcDbLine
 10
125.2841931163
 20
133.4141018579
 30
0.0
 11
125.0502185201
 21
133.4141018579
 31
0.0
  0
LINE
  5
16A
330
A0
100
AcDbEntity
  8
DV1_デフォルト
  6
CONTINUOUS
 62
     7
100
AcDbLine
 10
124.2537234438
 20
100.1181563422
 30
0.0
 11
124.2334204428
 21
100.1069208612
 31
0.0
  0
LINE
  5
16B
330
A0
100
AcDbEntity
  8
DV1_デフォルト
  6
CONTINUOUS
 62
     7
100
AcDbLine
 10
123.9819489834
 20
100.2644627266
 30
0.0
 11
124.2537234438
 21
100.1181563422
 31
0.0
  0
LINE
  5
16C
330
A0
100
AcDbEntity
  8
DV1_デフォルト
  6
CONTINUOUS
 62
     7
100
AcDbLine
 10
123.9612063331
 20
100.2534639253
 30
0.0
 11
123.9819489834
 21
100.2644627266
 31
0.0
  0
LINE
  5
16D
330
A0
100
AcDbEntity
  8
DV1_デフォルト
  6
CONTINUOUS
 62
     7
100
AcDbLine
 10
123.1693298916
 20
100.2794644898
 30
0.0
 11
123.1886278716
 21
100.2677264983
 31
0.0
  0
LINE
  5
16E
330
A0
100
AcDbEntity
  8
DV1_デフォルト
  6
CONTINUOUS
 62
     7
100
AcDbLine
 10
122.8767171229
 20
100.1435772597
 30
0.0
 11
123.1693298916
 21
100.2794644898
 31
0.0
  0
LINE
  5
16F
330
A0
100
AcDbEntity
  8
DV1_デフォルト
  6
CONTINUOUS
 62
     7
100
AcDbLine
 10
122.8955417435
 20
100.1316194435
 30
0.0
 11
122.8767171229
 21
100.1435772597
 31
0.0
  0
LINE
  5
170
330
A0
100
AcDbEntity
  8
DV1_デフォルト
  6
CONTINUOUS
 62
     7
100
AcDbLine
 10
122.8467135964
 20
99.7372677137
 30
0.0
 11
122.8670165974
 21
99.7453302128
 31
0.0
  0
LINE
  5
171
330
A0
100
AcDbEntity
  8
DV1_デフォルト
  6
CONTINUOUS
 62
     7
100
AcDbLine
 10
123.1184880568
 20
99.5909613294
 30
0.0
 11
122.8467135964
 21
99.7372677137
 31
0.0
  0
LINE
  5
172
330
A0
100
AcDbEntity
  8
DV1_デフォルト
  6
CONTINUOUS
 62
     7
100
AcDbLine
 10
123.1392307071
 20
99.5987871487
 30
0.0
 11
123.1184880568
 21
99.5909613294
 31
0.0
  0
LINE
  5
173
330
A0
100
AcDbEntity
  8
DV1_デフォルト
  6
CONTINUOUS
 62
     7
100
AcDbLine
 10
123.9311071486
 20
99.5759595661
 30
0.0
 11
123.9118091685
 21
99.5845245756
 31
0.0
  0
LINE
  5
174
330
A0
100
AcDbEntity
  8
DV1_デフォルト
  6
CONTINUOUS
 62
     7
100
AcDbLine
 10
124.2237199173
 20
99.7118467963
 30
0.0
 11
123.9311071486
 21
99.5759595661
 31
0.0
  0
LINE
  5
175
330
A0
100
AcDbEntity
  8
DV1_デフォルト
  6
CONTINUOUS
 62
     7
100
AcDbLine
 10
124.2048952966
 20
99.7206316305
 30
0.0
 11
124.2237199173
 21
99.7118467963
 31
0.0
  0
LINE
  5
176
330
A0
100
AcDbEntity
  8
DV1_デフォルト
  6
CONTINUOUS
 62
     7
100
AcDbLine
 10
123.9118091685
 20
99.5845245756
 30
0.0
 11
123.5397825109
 21
99.7848004775
 31
0.0
  0
LINE
  5
177
330
A0
100
AcDbEntity
  8
DV1_デフォルト
  6
CONTINUOUS
 62
     7
100
AcDbLine
 10
122.8670165974
 20
99.7453302128
 30
0.0
 11
123.2675684012
 21
99.9313435416
 31
0.0
  0
LINE
  5
178
330
A0
100
AcDbEntity
  8
DV1_デフォルト
  6
CONTINUOUS
 62
     7
100
AcDbLine
 10
123.1886278716
 20
100.2677264983
 30
0.0
 11
123.5606545293
 21
100.0674505964
 31
0.0
  0
LINE
  5
179
330
A0
100
AcDbEntity
  8
DV1_デフォルト
  6
CONTINUOUS
 62
     7
100
AcDbLine
 10
124.2334204428
 20
100.1069208612
 30
0.0
 11
123.832868639
 21
99.9209075324
 31
0.0
  0
LINE
  5
17A
330
A0
100
AcDbEntity
  8
DV1_デフォルト
  6
CONTINUOUS
 62
     7
100
AcDbLine
 10
123.832868639
 20
99.9209075324
 30
0.0
 11
124.2048952966
 21
99.7206316305
 31
0.0
  0
LINE
  5
17B
330
A0
100
AcDbEntity
  8
DV1_デフォルト
  6
CONTINUOUS
 62
     7
100
AcDbLine
 10
123.7639079275
 20
100.1618399884
 30
0.0
 11
123.832868639
 21
99.9209075324
 31
0.0
  0
LINE
  5
17C
330
A0
100
AcDbEntity
  8
DV1_デフォルト
  6
CONTINUOUS
 62
     7
100
AcDbLine
 10
123.9338062846
 20
99.8665690123
 30
0.0
 11
123.9311071486
 21
99.5759595661
 31
0.0
  0
LINE
  5
17D
330
A0
100
AcDbEntity
  8
DV1_デフォルト
  6
CONTINUOUS
 62
     7
100
AcDbLine
 10
123.5397825109
 20
99.7848004775
 30
0.0
 11
123.1392307071
 21
99.5987871487
 31
0.0
  0
LINE
  5
17E
330
A0
100
AcDbEntity
  8
DV1_デフォルト
  6
CONTINUOUS
 62
     7
100
AcDbLine
 10
123.5424985019
 20
100.0772246669
 30
0.0
 11
123.5397825109
 21
99.7848004775
 31
0.0
  0
LINE
  5
17F
330
A0
100
AcDbEntity
  8
DV1_デフォルト
  6
CONTINUOUS
 62
     7
100
AcDbLine
 10
123.1210173695
 20
99.863286314
 30
0.0
 11
123.1184880568
 21
99.5909613294
 31
0.0
  0
LINE
  5
180
330
A0
100
AcDbEntity
  8
DV1_デフォルト
  6
CONTINUOUS
 62
     7
100
AcDbLine
 10
123.2675684012
 20
99.9313435416
 30
0.0
 11
122.8955417435
 21
100.1316194435
 31
0.0
  0
LINE
  5
181
330
A0
100
AcDbEntity
  8
DV1_デフォルト
  6
CONTINUOUS
 62
     7
100
AcDbLine
 10
123.3411286265
 20
100.1856296228
 30
0.0
 11
123.2675684012
 21
99.9313435416
 31
0.0
  0
LINE
  5
182
330
A0
100
AcDbEntity
  8
DV1_デフォルト
  6
CONTINUOUS
 62
     7
100
AcDbLine
 10
123.5606545293
 20
100.0674505964
 30
0.0
 11
123.9612063331
 21
100.2534639253
 31
0.0
  0
LINE
  5
183
330
A0
100
AcDbEntity
  8
DV1_デフォルト
  6
CONTINUOUS
 62
     7
100
AcDbLine
 10
122.5602626301
 20
100.2472054012
 30
0.0
 11
122.5792312216
 21
100.0596803933
 31
0.0
  0
LINE
  5
184
330
A0
100
AcDbEntity
  8
DV1_デフォルト
  6
CONTINUOUS
 62
     7
100
AcDbLine
 10
124.5212058185
 20
100.0596803933
 30
0.0
 11
124.5401742711
 21
100.2472040271
 31
0.0
  0
SPLINE
  5
185
330
A0
100
AcDbEntity
  8
DV1_デフォルト
  6
CONTINUOUS
 62
     7
100
AcDbSpline
210
0.0
220
0.0
230
1.0
 70
     8
 71
     3
 72
    26
 73
    22
 74
     0
 42
0.0000000040909706
 43
0.0000000001
 40
0.0
 40
0.0
 40
0.0
 40
0.0
 40
0.0098759171526579
 40
0.0603298582133929
 40
0.1106247573768174
 40
0.1633733313208252
 40
0.2201727115882749
 40
0.2805815416814005
 40
0.3422711894956539
 40
0.4034877332540096
 40
0.4641426737038873
 40
0.5245126663313376
 40
0.5849457192398018
 40
0.6457113187781969
 40
0.7072171772622674
 40
0.7699318928245239
 40
0.8341745321674061
 40
0.889285898038194
 40
0.9405122134463356
 40
0.9894034968358391
 40
1.0
 40
1.0
 40
1.0
 40
1.0
 10
122.5808682361288
 20
100.0689857338024
 30
0.0
 10
122.5805999859511
 20
100.0612193080726
 30
0.0
 10
122.5793263075899
 20
100.0205174077758
 30
0.0
 10
122.606288424672
 20
99.94123351085199
 30
0.0
 10
122.6590389717922
 20
99.84631062913755
 30
0.0
 10
122.7380644777277
 20
99.76021307433764
 30
0.0
 10
122.8407371650357
 20
99.68380121141912
 30
0.0
 10
122.9678969494802
 20
99.61843372437629
 30
0.0
 10
123.1153278207669
 20
99.56710779359825
 30
0.0
 10
123.27653083645
 20
99.53180390042876
 30
0.0
 10
123.4452581988115
 20
99.51319041039508
 30
0.0
 10
123.6166132656439
 20
99.511312236425
 30
0.0
 10
123.7859458702503
 20
99.52611209168496
 30
0.0
 10
123.9488343095978
 20
99.55750884188937
 30
0.0
 10
124.1011740021763
 20
99.60556738246062
 30
0.0
 10
124.239279291254
 20
99.67092685787496
 30
0.0
 10
124.3523073184364
 20
99.75048240043901
 30
0.0
 10
124.4380397039653
 20
99.84135728567267
 30
0.0
 10
124.4922560892971
 20
99.93693858982776
 30
0.0
 10
124.5198693952257
 20
100.0158331547392
 30
0.0
 10
124.5192128727522
 20
100.0559633973408
 30
0.0
 10
124.5190471624745
 20
100.0643006452045
 30
0.0
  0
LINE
  5
186
330
A0
100
AcDbEntity
  8
DV1_デフォルト
  6
CONTINUOUS
 62
     7
100
AcDbLine
 10
124.2537234438
 20
132.5909360021
 30
0.0
 11
124.2334204428
 21
132.5828735031
 31
0.0
  0
LINE
  5
187
330
A0
100
AcDbEntity
  8
DV1_デフォルト
  6
CONTINUOUS
 62
     7
100
AcDbLine
 10
123.9819489834
 20
132.7372423865
 30
0.0
 11
124.2537234438
 21
132.5909360021
 31
0.0
  0
LINE
  5
188
330
A0
100
AcDbEntity
  8
DV1_デフォルト
  6
CONTINUOUS
 62
     7
100
AcDbLine
 10
123.9612063331
 20
132.7294165672
 30
0.0
 11
123.9819489834
 21
132.7372423865
 31
0.0
  0
LINE
  5
189
330
A0
100
AcDbEntity
  8
DV1_デフォルト
  6
CONTINUOUS
 62
     7
100
AcDbLine
 10
123.1693298916
 20
132.7522441497
 30
0.0
 11
123.1886278716
 21
132.7436791402
 31
0.0
  0
LINE
  5
18A
330
A0
100
AcDbEntity
  8
DV1_デフォルト
  6
CONTINUOUS
 62
     7
100
AcDbLine
 10
122.8767171229
 20
132.6163569195
 30
0.0
 11
123.1693298916
 21
132.7522441497
 31
0.0
  0
LINE
  5
18B
330
A0
100
AcDbEntity
  8
DV1_デフォルト
  6
CONTINUOUS
 62
     7
100
AcDbLine
 10
122.8955417435
 20
132.6075720854
 30
0.0
 11
122.8767171229
 21
132.6163569195
 31
0.0
  0
LINE
  5
18C
330
A0
100
AcDbEntity
  8
DV1_デフォルト
  6
CONTINUOUS
 62
     7
100
AcDbLine
 10
122.8467135964
 20
132.2100473736
 30
0.0
 11
122.8670165974
 21
132.2212828547
 31
0.0
  0
LINE
  5
18D
330
A0
100
AcDbEntity
  8
DV1_デフォルト
  6
CONTINUOUS
 62
     7
100
AcDbLine
 10
123.1184880568
 20
132.0637409893
 30
0.0
 11
122.8467135964
 21
132.2100473736
 31
0.0
  0
LINE
  5
18E
330
A0
100
AcDbEntity
  8
DV1_デフォルト
  6
CONTINUOUS
 62
     7
100
AcDbLine
 10
123.1392307071
 20
132.0747397906
 30
0.0
 11
123.1184880568
 21
132.0637409893
 31
0.0
  0
LINE
  5
18F
330
A0
100
AcDbEntity
  8
DV1_デフォルト
  6
CONTINUOUS
 62
     7
100
AcDbLine
 10
123.9311071486
 20
132.048739226
 30
0.0
 11
123.9118091685
 21
132.0604772176
 31
0.0
  0
LINE
  5
190
330
A0
100
AcDbEntity
  8
DV1_デフォルト
  6
CONTINUOUS
 62
     7
100
AcDbLine
 10
124.2237199173
 20
132.1846264562
 30
0.0
 11
123.9311071486
 21
132.048739226
 31
0.0
  0
LINE
  5
191
330
A0
100
AcDbEntity
  8
DV1_デフォルト
  6
CONTINUOUS
 62
     7
100
AcDbLine
 10
124.2048952966
 20
132.1965842724
 30
0.0
 11
124.2237199173
 21
132.1846264562
 31
0.0
  0
LINE
  5
192
330
A0
100
AcDbEntity
  8
DV1_デフォルト
  6
CONTINUOUS
 62
     7
100
AcDbLine
 10
123.9118091685
 20
132.0604772176
 30
0.0
 11
123.5397825109
 21
132.2607531194
 31
0.0
  0
LINE
  5
193
330
A0
100
AcDbEntity
  8
DV1_デフォルト
  6
CONTINUOUS
 62
     7
100
AcDbLine
 10
122.8670165974
 20
132.2212828547
 30
0.0
 11
123.2675684012
 21
132.4072961835
 31
0.0
  0
LINE
  5
194
330
A0
100
AcDbEntity
  8
DV1_デフォルト
  6
CONTINUOUS
 62
     7
100
AcDbLine
 10
123.1886278716
 20
132.7436791402
 30
0.0
 11
123.5606545293
 21
132.5434032383
 31
0.0
  0
LINE
  5
195
330
A0
100
AcDbEntity
  8
DV1_デフォルト
  6
CONTINUOUS
 62
     7
100
AcDbLine
 10
124.2334204428
 20
132.5828735031
 30
0.0
 11
123.832868639
 21
132.3968601743
 31
0.0
  0
LINE
  5
196
330
A0
100
AcDbEntity
  8
DV1_デフォルト
  6
CONTINUOUS
 62
     7
100
AcDbLine
 10
123.832868639
 20
132.3968601743
 30
0.0
 11
124.2048952966
 21
132.1965842724
 31
0.0
  0
LINE
  5
197
330
A0
100
AcDbEntity
  8
DV1_デフォルト
  6
CONTINUOUS
 62
     7
100
AcDbLine
 10
123.7593084137
 20
132.1425740931
 30
0.0
 11
123.832868639
 21
132.3968601743
 31
0.0
  0
LINE
  5
198
330
A0
100
AcDbEntity
  8
DV1_デフォルト
  6
CONTINUOUS
 62
     7
100
AcDbLine
 10
123.5397825109
 20
132.2607531194
 30
0.0
 11
123.1392307071
 21
132.0747397906
 31
0.0
  0
LINE
  5
199
330
A0
100
AcDbEntity
  8
DV1_デフォルト
  6
CONTINUOUS
 62
     7
100
AcDbLine
 10
123.2675684012
 20
132.4072961835
 30
0.0
 11
122.8955417435
 21
132.6075720854
 31
0.0
  0
LINE
  5
19A
330
A0
100
AcDbEntity
  8
DV1_デフォルト
  6
CONTINUOUS
 62
     7
100
AcDbLine
 10
123.3365291126
 20
132.1663637275
 30
0.0
 11
123.2675684012
 21
132.4072961835
 31
0.0
  0
LINE
  5
19B
330
A0
100
AcDbEntity
  8
DV1_デフォルト
  6
CONTINUOUS
 62
     7
100
AcDbLine
 10
123.1666307556
 20
132.4616347036
 30
0.0
 11
123.1693298916
 21
132.7522441497
 31
0.0
  0
LINE
  5
19C
330
A0
100
AcDbEntity
  8
DV1_デフォルト
  6
CONTINUOUS
 62
     7
100
AcDbLine
 10
123.5606545293
 20
132.5434032383
 30
0.0
 11
123.9612063331
 21
132.7294165672
 31
0.0
  0
LINE
  5
19D
330
A0
100
AcDbEntity
  8
DV1_デフォルト
  6
CONTINUOUS
 62
     7
100
AcDbLine
 10
123.5579385383
 20
132.250979049
 30
0.0
 11
123.5606545293
 21
132.5434032383
 31
0.0
  0
LINE
  5
19E
330
A0
100
AcDbEntity
  8
DV1_デフォルト
  6
CONTINUOUS
 62
     7
100
AcDbLine
 10
123.9794196707
 20
132.4649174018
 30
0.0
 11
123.9819489834
 21
132.7372423865
 31
0.0
  0
LINE
  5
19F
330
A0
100
AcDbEntity
  8
DV1_デフォルト
  6
CONTINUOUS
 62
     7
100
AcDbLine
 10
124.540174918
 20
132.0809932932
 30
0.0
 11
124.5212058185
 21
132.2685233226
 31
0.0
  0
LINE
  5
1A0
330
A0
100
AcDbEntity
  8
DV1_デフォルト
  6
CONTINUOUS
 62
     7
100
AcDbLine
 10
122.5792312216
 20
132.2685233226
 30
0.0
 11
122.5602629072
 21
132.0810010539
 31
0.0
  0
SPLINE
  5
1A1
330
A0
100
AcDbEntity
  8
DV1_デフォルト
  6
CONTINUOUS
 62
     7
100
AcDbSpline
210
0.0
220
0.0
230
1.0
 70
     8
 71
     3
 72
    21
 73
    17
 74
     0
 42
0.0000000054350968
 43
0.0000000001
 40
0.0
 40
0.0
 40
0.0
 40
0.0
 40
0.0075300497299329
 40
0.076691189470072
 40
0.1457152456400992
 40
0.2181923427847756
 40
0.2962524081460617
 40
0.3791983037261608
 40
0.4637942978243536
 40
0.5477230297093341
 40
0.6308886969249335
 40
0.7136764574543062
 40
0.796564720137385
 40
0.8799197302645823
 40
0.9643074807777455
 40
1.0
 40
1.0
 40
1.0
 40
1.0
 10
124.5193625476902
 20
132.2716771116013
 30
0.0
 10
124.5194378228746
 20
132.2759942454286
 30
0.0
 10
124.5200341612402
 20
132.3138152045138
 30
0.0
 10
124.4926475912384
 20
132.3898409230418
 30
0.0
 10
124.4395795369589
 20
132.4844533877936
 30
0.0
 10
124.3597736384489
 20
132.5702933057619
 30
0.0
 10
124.2564268742443
 20
132.6464222709277
 30
0.0
 10
124.128612489899
 20
132.7114303246817
 30
0.0
 10
123.9807003042243
 20
132.7623213390443
 30
0.0
 10
123.8192154707091
 20
132.7971579286037
 30
0.0
 10
123.6503276556952
 20
132.8152915961404
 30
0.0
 10
123.4790451687879
 20
132.8167193196828
 30
0.0
 10
123.3095357701175
 20
132.8013644658829
 30
0.0
 10
123.1480147878254
 20
132.7698152695851
 30
0.0
 10
123.0227601633093
 20
132.7299437451704
 30
0.0
 10
122.9612712895197
 20
132.7029624793852
 30
0.0
 10
122.9399337197469
 20
132.6934580795795
 30
0.0
  0
SPLINE
  5
1A2
330
A0
100
AcDbEntity
  8
DV1_デフォルト
  6
CONTINUOUS
 62
     7
100
AcDbSpline
210
0.0
220
0.0
230
1.0
 70
     8
 71
     3
 72
    13
 73
     9
 74
     0
 42
0.0000000170835661
 43
0.0000000001
 40
0.0
 40
0.0
 40
0.0
 40
0.0
 40
0.1271248052730812
 40
0.3715263505019787
 40
0.5822398239515545
 40
0.7780157292465467
 40
0.9646671103331619
 40
1.0
 40
1.0
 40
1.0
 40
1.0
 10
122.9399337197469
 20
132.6934580795795
 30
0.0
 10
122.9134725943893
 20
132.6805447318779
 30
0.0
 10
122.8481430645202
 20
132.6479313125533
 30
0.0
 10
122.7505502606108
 20
132.579788727178
 30
0.0
 10
122.6647120614915
 20
132.489876269907
 30
0.0
 10
122.6096255567507
 20
132.3944114040687
 30
0.0
 10
122.5814266220983
 20
132.316603813231
 30
0.0
 10
122.5816696409551
 20
132.2773115524271
 30
0.0
 10
122.5817368907565
 20
132.2700230811513
 30
0.0
  0
LINE
  5
1A5
330
A0
100
AcDbEntity
  8
DV1_ﾃ_ﾌｫﾙﾄ
  6
CENTER2
 62
     7
100
AcDbLine
 10
115.5362249095
 20
116.1613443982
 30
0.0
 11
163.3434806345
 21
116.1613443982
 31
0.0
  0
LINE
  5
1A6
330
A0
100
AcDbEntity
  8
DV1_ﾃ_ﾌｫﾙﾄ
  6
CENTER2
 62
     7
100
AcDbLine
 10
157.9502185201
 20
128.4641018579
 30
0.0
 11
155.1502185201
 21
128.4641018579
 31
0.0
  0
LINE
  5
1A7
330
A0
100
AcDbEntity
  8
DV1_ﾃ_ﾌｫﾙﾄ
  6
CENTER2
 62
     7
100
AcDbLine
 10
157.9502185201
 20
103.8641018579
 30
0.0
 11
155.1502185201
 21
103.8641018579
 31
0.0
  0
LINE
  5
1A8
330
A0
100
AcDbEntity
  8
DV1_ﾃ_ﾌｫﾙﾄ
  6
CONTINUOUS
 62
     7
100
AcDbLine
 10
117.9417325458
 20
136.4113443982
 30
0.0
 11
117.5583345287
 21
136.4113443982
 31
0.0
  0
LINE
  5
1A9
330
A0
100
AcDbEntity
  8
DV1_ﾃ_ﾌｫﾙﾄ
  6
CONTINUOUS
 62
     7
100
AcDbLine
 10
117.9417325458
 20
95.9113443982
 30
0.0
 11
117.5583345287
 21
95.9113443982
 31
0.0
  0
LINE
  5
1AA
330
A0
100
AcDbEntity
  8
DV1_デフォルト
  6
CONTINUOUS
 62
     7
100
AcDbLine
 10
136.9502185201
 20
116.0141018579
 30
0.0
 11
141.7342185201
 21
116.0141018579
 31
0.0
  0
ENDBLK
  5
1AC
330
A0
100
AcDbEntity
  8
0
100
AcDbBlockEnd
  0
BLOCK
  5
1B6
330
1AD
100
AcDbEntity
  8
0
100
AcDbBlockBegin
  2
GDIMGGROUP6
 70
     0
 10
0.0
 20
0.0
 30
0.0
  3
GDIMGGROUP6
  1

  0
POLYLINE
  5
1AF
330
1AD
100
AcDbEntity
  8
DEFAULT
  6
CONTINUOUS
 62
   136
100
AcDb2dPolyline
 66
     1
 10
0.0
 20
0.0
 30
0.0
  0
VERTEX
  5
1EE
330
1AF
100
AcDbEntity
  8
DEFAULT
  6
CONTINUOUS
 62
   136
100
AcDbVertex
100
AcDb2dVertex
 10
181.5728271541
 20
101.8641017771
 30
0.0
  0
VERTEX
  5
1EF
330
1AF
100
AcDbEntity
  8
DEFAULT
  6
CONTINUOUS
 62
   136
100
AcDbVertex
100
AcDb2dVertex
 10
182.106160474
 20
98.6641018579
 30
0.0
  0
VERTEX
  5
1F0
330
1AF
100
AcDbEntity
  8
DEFAULT
  6
CONTINUOUS
 62
   136
100
AcDbVertex
100
AcDb2dVertex
 10
182.6394937939
 20
101.8641017771
 30
0.0
  0
SEQEND
  5
1F1
330
1AF
100
AcDbEntity
  8
DEFAULT
  6
CONTINUOUS
 62
   136
  0
POLYLINE
  5
1B0
330
1AD
100
AcDbEntity
  8
DEFAULT
  6
CONTINUOUS
 62
   136
100
AcDb2dPolyline
 66
     1
 10
0.0
 20
0.0
 30
0.0
  0
VERTEX
  5
1F2
330
1B0
100
AcDbEntity
  8
DEFAULT
  6
CONTINUOUS
 62
   136
100
AcDbVertex
100
AcDb2dVertex
 10
181.5728271541
 20
130.4641020878
 30
0.0
  0
VERTEX
  5
1F3
330
1B0
100
AcDbEntity
  8
DEFAULT
  6
CONTINUOUS
 62
   136
100
AcDbVertex
100
AcDb2dVertex
 10
182.106160474
 20
133.664102007
 30
0.0
  0
VERTEX
  5
1F4
330
1B0
100
AcDbEntity
  8
DEFAULT
  6
CONTINUOUS
 62
   136
100
AcDbVertex
100
AcDb2dVertex
 10
182.6394937939
 20
130.4641020878
 30
0.0
  0
SEQEND
  5
1F5
330
1B0
100
AcDbEntity
  8
DEFAULT
  6
CONTINUOUS
 62
   136
  0
LINE
  5
1B1
330
1AD
100
AcDbEntity
  8
DEFAULT
  6
CONTINUOUS
 62
   136
100
AcDbLine
 10
151.0142184878
 20
98.6641018579
 30
0.0
 11
183.7061604336
 21
98.6641018579
 31
0.0
  0
LINE
  5
1B2
330
1AD
100
AcDbEntity
  8
DEFAULT
  6
CONTINUOUS
 62
   136
100
AcDbLine
 10
151.0142184878
 20
133.6641018579
 30
0.0
 11
183.7061604336
 21
133.6641018579
 31
0.0
  0
LINE
  5
1B3
330
1AD
100
AcDbEntity
  8
DEFAULT
  6
CONTINUOUS
 62
   136
100
AcDbLine
 10
182.106160474
 20
98.6641018579
 30
0.0
 11
182.106160474
 21
133.664102007
 31
0.0
  0
TEXT
  5
1B4
330
1AD
100
AcDbEntity
  8
DEFAULT
  6
CONTINUOUS
 62
   136
100
AcDbText
 10
181.306160474
 20
115.8071999213
 30
0.0
 40
3.2
  1
35
 50
90.0
  7
SEACAD_SEANSI_TTF
 11
178.106160474
 21
115.8071999213
 31
0.0
100
AcDbText
 73
     3
  0
TEXT
  5
1B5
330
1AD
100
AcDbEntity
  8
DEFAULT
  6
CONTINUOUS
 62
   136
100
AcDbText
 10
181.306160474
 20
111.8380771143
 30
0.0
 40
3.2
  1
O
 50
90.0
  7
SEACAD_SEMECA1_TTF
 11
178.106160474
 21
111.8380771143
 31
0.0
100
AcDbText
 73
     3
  0
ENDBLK
  5
1B7
330
1AD
100
AcDbEntity
  8
0
100
AcDbBlockEnd
  0
ENDSEC
  0
SECTION
  2
ENTITIES
  0
INSERT
  5
3D
330
1F
100
AcDbEntity
  8
DEFAULT
100
AcDbBlockReference
  2
GDIMGGROUP
 10
0.0
 20
0.0
 30
0.0
  0
INSERT
  5
6C
330
1F
100
AcDbEntity
  8
DEFAULT
100
AcDbBlockReference
  2
GDIMGGROUP1
 10
0.0
 20
0.0
 30
0.0
  0
INSERT
  5
77
330
1F
100
AcDbEntity
  8
DEFAULT
100
AcDbBlockReference
  2
GDIMGGROUP2
 10
0.0
 20
0.0
 30
0.0
  0
INSERT
  5
81
330
1F
100
AcDbEntity
  8
DEFAULT
100
AcDbBlockReference
  2
GDIMGGROUP3
 10
0.0
 20
0.0
 30
0.0
  0
INSERT
  5
8B
330
1F
100
AcDbEntity
  8
DEFAULT
100
AcDbBlockReference
  2
GDIMGGROUP4
 10
0.0
 20
0.0
 30
0.0
  0
INSERT
  5
95
330
1F
100
AcDbEntity
  8
DEFAULT
100
AcDbBlockReference
  2
GDIMGGROUP5
 10
0.0
 20
0.0
 30
0.0
  0
INSERT
  5
A1
330
1F
100
AcDbEntity
  8
DEFAULT
100
AcDbBlockReference
  2
SE
 10
0.0
 20
0.0
 30
0.0
  0
INSERT
  5
1AE
330
1F
100
AcDbEntity
  8
DEFAULT
100
AcDbBlockReference
  2
GDIMGGROUP6
 10
0.0
 20
0.0
 30
0.0
  0
ENDSEC
  0
SECTION
  2
OBJECTS
  0
DICTIONARY
  5
C
330
0
100
AcDbDictionary
  3
ACAD_GROUP
350
D
  3
ACAD_LAYOUT
350
1A
  3
ACAD_MLEADERSTYLE
350
1BA
  3
ACAD_MLINESTYLE
350
17
  3
ACAD_PLOTSETTINGS
350
19
  3
ACAD_SCALELIST
350
43
  3
ACAD_VISUALSTYLE
350
2A
  3
ACDBVARIABLEDICTIONARY
350
1B8
1001
ACAD
1000
TREAT_AS_HARD
1070
     0
  0
DICTIONARY
  5
D
102
{ACAD_REACTORS
330
C
102
}
330
C
100
AcDbDictionary
1001
ACAD
1000
TREAT_AS_HARD
1070
     0
  0
DICTIONARY
  5
1A
102
{ACAD_REACTORS
330
C
102
}
330
C
100
AcDbDictionary
1001
ACAD
1000
TREAT_AS_HARD
1070
     0
  0
DICTIONARY
  5
1BA
102
{ACAD_REACTORS
330
C
102
}
330
C
100
AcDbDictionary
1001
ACAD
1000
TREAT_AS_HARD
1070
     0
  0
DICTIONARY
  5
17
102
{ACAD_REACTORS
330
C
102
}
330
C
100
AcDbDictionary
  3
STANDARD
350
18
1001
ACAD
1000
TREAT_AS_HARD
1070
     0
  0
DICTIONARY
  5
19
102
{ACAD_REACTORS
330
C
102
}
330
C
100
AcDbDictionary
1001
ACAD
1000
TREAT_AS_HARD
1070
     0
  0
DICTIONARY
  5
43
102
{ACAD_REACTORS
330
C
102
}
330
C
100
AcDbDictionary
  3
A0
350
44
  3
A1
350
45
  3
A2
350
46
  3
A3
350
47
  3
A4
350
48
  3
A5
350
49
  3
A6
350
4A
  3
A7
350
4B
  3
A8
350
4C
  3
A9
350
4D
  3
B0
350
4E
  3
B1
350
4F
  3
B2
350
50
  3
B3
350
51
  3
B4
350
52
  3
B5
350
53
  3
B6
350
54
  3
B7
350
55
  3
B8
350
56
  3
B9
350
57
  3
C0
350
58
  3
C1
350
59
  3
C2
350
5A
  3
C3
350
5B
  3
C4
350
5C
  3
C5
350
5D
  3
C6
350
5E
  3
C7
350
5F
  3
C8
350
60
  3
C9
350
61
  3
D0
350
62
  3
D1
350
63
  3
D2
350
64
1001
ACAD
1000
TREAT_AS_HARD
1070
     0
  0
DICTIONARY
  5
2A
102
{ACAD_REACTORS
330
C
102
}
330
C
100
AcDbDictionary
  3
2DWIREFRAME
350
2F
  3
3D_HIDDEN
350
31
  3
3DWIREFRAME
350
30
  3
BASIC
350
32
  3
BRIGHTEN
350
36
  3
COLORCHANGE
350
3A
  3
CONCEPTUAL
350
34
  3
DIM
350
35
  3
FACEPATTERN
350
39
  3
FLAT
350
2B
  3
FLATWITHEDGES
350
2C
  3
GOURAUD
350
2D
  3
GOURAUDWITHEDGES
350
2E
  3
LINEPATTERN
350
38
  3
REALISTIC
350
33
  3
THICKEN
350
37
1001
ACAD
1000
TREAT_AS_HARD
1070
     0
  0
DICTIONARY
  5
1B8
102
{ACAD_REACTORS
330
C
102
}
330
C
100
AcDbDictionary
  3
CANNOSCALE
350
1BD
  3
PSOLHEIGHT
350
1BC
  3
PSOLWIDTH
350
1BB
1001
ACAD
1000
TREAT_AS_HARD
1070
     0
  0
MLINESTYLE
  5
18
102
{ACAD_REACTORS
330
17
102
}
330
17
100
AcDbMlineStyle
  2
Standard
 70
     0
  3

 62
   256
 51
90.0
 52
90.0
 71
     2
 49
0.5
 62
   256
  6
BYLAYER
 49
-0.5
 62
   256
  6
BYLAYER
  0
ACAD_PROXY_OBJECT
  5
44
102
{ACAD_REACTORS
330
43
102
}
330
43
100
AcDbZombieObject
 90
      499
 91
      502
 93
       41
310
903313A31580
  0
ACAD_PROXY_OBJECT
  5
45
102
{ACAD_REACTORS
330
43
102
}
330
43
100
AcDbZombieObject
 90
      499
 91
      502
 93
      105
310
903313A324000000000000004000
  0
ACAD_PROXY_OBJECT
  5
46
102
{ACAD_REACTORS
330
43
102
}
330
43
100
AcDbZombieObject
 90
      499
 91
      502
 93
      105
310
903313A344000000000000104000
  0
ACAD_PROXY_OBJECT
  5
47
102
{ACAD_REACTORS
330
43
102
}
330
43
100
AcDbZombieObject
 90
      499
 91
      502
 93
      105
310
903313A354000000000000144000
  0
ACAD_PROXY_OBJECT
  5
48
102
{ACAD_REACTORS
330
43
102
}
330
43
100
AcDbZombieObject
 90
      499
 91
      502
 93
      105
310
903313A384000000000000204000
  0
ACAD_PROXY_OBJECT
  5
49
102
{ACAD_REACTORS
330
43
102
}
330
43
100
AcDbZombieObject
 90
      499
 91
      502
 93
      113
310
904313A31304000000000000244000
  0
ACAD_PROXY_OBJECT
  5
4A
102
{ACAD_REACTORS
330
43
102
}
330
43
100
AcDbZombieObject
 90
      499
 91
      502
 93
      113
310
904313A31364000000000000304000
  0
ACAD_PROXY_OBJECT
  5
4B
102
{ACAD_REACTORS
330
43
102
}
330
43
100
AcDbZombieObject
 90
      499
 91
      502
 93
      113
310
904313A32304000000000000344000
  0
ACAD_PROXY_OBJECT
  5
4C
102
{ACAD_REACTORS
330
43
102
}
330
43
100
AcDbZombieObject
 90
      499
 91
      502
 93
      113
310
904313A333040000000000003E4000
  0
ACAD_PROXY_OBJECT
  5
4D
102
{ACAD_REACTORS
330
43
102
}
330
43
100
AcDbZombieObject
 90
      499
 91
      502
 93
      113
310
904313A34304000000000000444000
  0
ACAD_PROXY_OBJECT
  5
4E
102
{ACAD_REACTORS
330
43
102
}
330
43
100
AcDbZombieObject
 90
      499
 91
      502
 93
      113
310
904313A35304000000000000494000
  0
ACAD_PROXY_OBJECT
  5
4F
102
{ACAD_REACTORS
330
43
102
}
330
43
100
AcDbZombieObject
 90
      499
 91
      502
 93
      121
310
905313A3130304000000000000594000
  0
ACAD_PROXY_OBJECT
  5
50
102
{ACAD_REACTORS
330
43
102
}
330
43
100
AcDbZombieObject
 90
      499
 91
      502
 93
      105
310
903323A310000000000000010100
  0
ACAD_PROXY_OBJECT
  5
51
102
{ACAD_REACTORS
330
43
102
}
330
43
100
AcDbZombieObject
 90
      499
 91
      502
 93
      105
310
903343A310000000000000410100
  0
ACAD_PROXY_OBJECT
  5
52
102
{ACAD_REACTORS
330
43
102
}
330
43
100
AcDbZombieObject
 90
      499
 91
      502
 93
      105
310
903383A310000000000000810100
  0
ACAD_PROXY_OBJECT
  5
53
102
{ACAD_REACTORS
330
43
102
}
330
43
100
AcDbZombieObject
 90
      499
 91
      502
 93
      113
310
90431303A310000000000000910100
  0
ACAD_PROXY_OBJECT
  5
54
102
{ACAD_REACTORS
330
43
102
}
330
43
100
AcDbZombieObject
 90
      499
 91
      502
 93
      121
310
9053130303A310000000000001650100
  0
ACAD_PROXY_OBJECT
  5
55
102
{ACAD_REACTORS
330
43
102
}
330
43
100
AcDbZombieObject
 90
      499
 91
      502
 93
      257
310
90E312F31323822203D2031272D3022000000000000200FC000000000000284000
  0
ACAD_PROXY_OBJECT
  5
56
102
{ACAD_REACTORS
330
43
102
}
330
43
100
AcDbZombieObject
 90
      499
 91
      502
 93
      249
310
90D312F363422203D2031272D3022000000000000240FC000000000000284000
  0
ACAD_PROXY_OBJECT
  5
57
102
{ACAD_REACTORS
330
43
102
}
330
43
100
AcDbZombieObject
 90
      499
 91
      502
 93
      249
310
90D312F333222203D2031272D3022000000000000280FC000000000000284000
  0
ACAD_PROXY_OBJECT
  5
58
102
{ACAD_REACTORS
330
43
102
}
330
43
100
AcDbZombieObject
 90
      499
 91
      502
 93
      249
310
90D312F313622203D2031272D30220000000000002C0FC000000000000284000
  0
ACAD_PROXY_OBJECT
  5
59
102
{ACAD_REACTORS
330
43
102
}
330
43
100
AcDbZombieObject
 90
      499
 91
      502
 93
      249
310
90D332F333222203D2031272D30220000000000002E0FC000000000000284000
  0
ACAD_PROXY_OBJECT
  5
5A
102
{ACAD_REACTORS
330
43
102
}
330
43
100
AcDbZombieObject
 90
      499
 91
      502
 93
      241
310
90C312F3822203D2031272D3022000000000000300FC000000000000284000
  0
ACAD_PROXY_OBJECT
  5
5B
102
{ACAD_REACTORS
330
43
102
}
330
43
100
AcDbZombieObject
 90
      499
 91
      502
 93
      249
310
90D332F313622203D2031272D3022000000000000320FC000000000000284000
  0
ACAD_PROXY_OBJECT
  5
5C
102
{ACAD_REACTORS
330
43
102
}
330
43
100
AcDbZombieObject
 90
      499
 91
      502
 93
      241
310
90C312F3422203D2031272D3022000000000000340FC000000000000284000
  0
ACAD_PROXY_OBJECT
  5
5D
102
{ACAD_REACTORS
330
43
102
}
330
43
100
AcDbZombieObject
 90
      499
 91
      502
 93
      241
310
90C332F3822203D2031272D3022000000000000360FC000000000000284000
  0
ACAD_PROXY_OBJECT
  5
5E
102
{ACAD_REACTORS
330
43
102
}
330
43
100
AcDbZombieObject
 90
      499
 91
      502
 93
      241
310
90C312F3222203D2031272D3022000000000000380FC000000000000284000
  0
ACAD_PROXY_OBJECT
  5
5F
102
{ACAD_REACTORS
330
43
102
}
330
43
100
AcDbZombieObject
 90
      499
 91
      502
 93
      241
310
90C332F3422203D2031272D30220000000000003A0FC000000000000284000
  0
ACAD_PROXY_OBJECT
  5
60
102
{ACAD_REACTORS
330
43
102
}
330
43
100
AcDbZombieObject
 90
      499
 91
      502
 93
      161
310
90A3122203D2031272D30224000000000000284000
  0
ACAD_PROXY_OBJECT
  5
61
102
{ACAD_REACTORS
330
43
102
}
330
43
100
AcDbZombieObject
 90
      499
 91
      502
 93
      257
310
90E312D312F3222203D2031272D30220000000000003E0FC000000000000284000
  0
ACAD_PROXY_OBJECT
  5
62
102
{ACAD_REACTORS
330
43
102
}
330
43
100
AcDbZombieObject
 90
      499
 91
      502
 93
      225
310
90A3322203D2031272D302200000000000002100000000000000284000
  0
ACAD_PROXY_OBJECT
  5
63
102
{ACAD_REACTORS
330
43
102
}
330
43
100
AcDbZombieObject
 90
      499
 91
      502
 93
      225
310
90A3622203D2031272D302200000000000006100000000000000284000
  0
ACAD_PROXY_OBJECT
  5
64
102
{ACAD_REACTORS
330
43
102
}
330
43
100
AcDbZombieObject
 90
      499
 91
      502
 93
      249
310
90D31272D3022203D2031272D30220000000000000A100000000000000284000
  0
ACAD_PROXY_OBJECT
  5
2F
102
{ACAD_REACTORS
330
2A
102
}
330
2A
100
AcDbZombieObject
 90
      499
 91
      501
 93
      436
310
42CC9915DA5C99599C985B595049028333333333333E3BF0000000000000FB0107901411070040501600405405064090741402480A0340
1001
ACAD
1000
AcDbSavedByObjectVersion
1070
     0
  0
ACAD_PROXY_OBJECT
  5
31
102
{ACAD_REACTORS
330
2A
102
}
330
2A
100
AcDbZombieObject
 90
      499
 91
      501
 93
      500
310
424CD108121A5919195B90640502408333333333333E3BF0000000000000FB01079024090700405020000000000001110200405405064090740C02480A0340
1001
ACAD
1000
AcDbSavedByObjectVersion
1070
     0
  0
ACAD_PROXY_OBJECT
  5
30
102
{ACAD_REACTORS
330
2A
102
}
330
2A
100
AcDbZombieObject
 90
      499
 91
      501
 93
      436
310
42CCD915DA5C99599C985B595059028333333333333E3BF0000000000000FB0107901411070040501600405405064090741402480A0340
1001
ACAD
1000
AcDbSavedByObjectVersion
1070
     0
  0
ACAD_PROXY_OBJECT
  5
32
102
{ACAD_REACTORS
330
2A
102
}
330
2A
100
AcDbZombieObject
 90
      499
 91
      501
 93
      388
310
4150985CDA58D07406404333333333333E3BF0000000000000FB0107A41107004050150841D405064090741402480A0350
1001
ACAD
1000
AcDbSavedByObjectVersion
1070
     0
  0
ACAD_PROXY_OBJECT
  5
36
102
{ACAD_REACTORS
330
2A
102
}
330
2A
100
AcDbZombieObject
 90
      499
 91
      501
 93
      428
310
42109C9A59DA1D195B90C409028333333333333E3BF0000000000000FB010790141107004050150841D405064090741402480A029950
1001
ACAD
1000
AcDbSavedByObjectVersion
1070
     0
  0
ACAD_PROXY_OBJECT
  5
3A
102
{ACAD_REACTORS
330
2A
102
}
330
2A
100
AcDbZombieObject
 90
      499
 91
      501
 93
      452
310
42D0DBDB1BDC90DA185B99D95104090240C333333333333E3BF0000000000000FB0108901411070040501508421405064090741402480A0350
1001
ACAD
1000
AcDbSavedByObjectVersion
1070
     0
  0
ACAD_PROXY_OBJECT
  5
34
102
{ACAD_REACTORS
330
2A
102
}
330
2A
100
AcDbZombieObject
 90
      499
 91
      501
 93
      500
310
4290DBDB98D95C1D1D585B10940D028333333333333E3BF0000000000000FB0107902409070040501000000000000111010841D405064090740C02480A0340
1001
ACAD
1000
AcDbSavedByObjectVersion
1070
     0
  0
ACAD_PROXY_OBJECT
  5
35
102
{ACAD_REACTORS
330
2A
102
}
330
2A
100
AcDbZombieObject
 90
      499
 91
      501
 93
      412
310
40D11A5B50B409028333333333333E3BF0000000000000FB010790141107004050150841D405064090741402480A02677FFFFFD0
1001
ACAD
1000
AcDbSavedByObjectVersion
1070
     0
  0
ACAD_PROXY_OBJECT
  5
39
102
{ACAD_REACTORS
330
2A
102
}
330
2A
100
AcDbZombieObject
 90
      499
 91
      501
 93
      444
310
42D19858D95C185D1D195C9B90F409028333333333333E3BF0000000000000FB010790141107004050150841D405064090741402480A0350
1001
ACAD
1000
AcDbSavedByObjectVersion
1070
     0
  0
ACAD_PROXY_OBJECT
  5
2B
102
{ACAD_REACTORS
330
2A
102
}
330
2A
100
AcDbZombieObject
 90
      499
 91
      501
 93
      388
310
41119B185D240901404333333333333E3BF0000000000000F9010740A41107004050150841D405064090741402480A1B50
1001
ACAD
1000
AcDbSavedByObjectVersion
1070
     0
  0
ACAD_PROXY_OBJECT
  5
2C
102
{ACAD_REACTORS
330
2A
102
}
330
2A
100
AcDbZombieObject
 90
      499
 91
      501
 93
      476
310
43519B185D15DA5D1A115919D95CD0140901404333333333333E3BF0000000000000F9010740901411070040501600405405064090741402480A1B50
1001
ACAD
1000
AcDbSavedByObjectVersion
1070
     0
  0
ACAD_PROXY_OBJECT
  5
2D
102
{ACAD_REACTORS
330
2A
102
}
330
2A
100
AcDbZombieObject
 90
      499
 91
      501
 93
      412
310
41D1DBDD5C985D5910240902404333333333333E3BF0000000000000F9010740A411070040501641D405064090741402480A1B50
1001
ACAD
1000
AcDbSavedByObjectVersion
1070
     0
  0
ACAD_PROXY_OBJECT
  5
2E
102
{ACAD_REACTORS
330
2A
102
}
330
2A
100
AcDbZombieObject
 90
      499
 91
      501
 93
      500
310
4411DBDD5C985D5915DA5D1A115919D95CD0340902404333333333333E3BF0000000000000F9010740901411070040501600405405064090741402480A1B50
1001
ACAD
1000
AcDbSavedByObjectVersion
1070
     0
  0
ACAD_PROXY_OBJECT
  5
38
102
{ACAD_REACTORS
330
2A
102
}
330
2A
100
AcDbZombieObject
 90
      499
 91
      501
 93
      444
310
42D31A5B995C185D1D195C9B90E409028333333333333E3BF0000000000000FB010790141107004050750841D405064090741402483A0350
1001
ACAD
1000
AcDbSavedByObjectVersion
1070
     0
  0
ACAD_PROXY_OBJECT
  5
33
102
{ACAD_REACTORS
330
2A
102
}
330
2A
100
AcDbZombieObject
 90
      499
 91
      501
 93
      420
310
425499585B1A5CDD1A58D08409028333333333333E3BF0000000000000FB01079019070040501508421405064090741402480A1B40
1001
ACAD
1000
AcDbSavedByObjectVersion
1070
     0
  0
ACAD_PROXY_OBJECT
  5
37
102
{ACAD_REACTORS
330
2A
102
}
330
2A
100
AcDbZombieObject
 90
      499
 91
      501
 93
      412
310
41D51A1A58DAD95B90D409028333333333333E3BF0000000000000FB010790141107004050150C41D405064090741402480A0350
1001
ACAD
1000
AcDbSavedByObjectVersion
1070
     0
  0
DICTIONARYVAR
  5
1BD
102
{ACAD_REACTORS
330
1B8
102
}
330
1B8
100
DictionaryVariables
280
     0
  1
1:1
  0
DICTIONARYVAR
  5
1BC
102
{ACAD_REACTORS
330
1B8
102
}
330
1B8
100
DictionaryVariables
280
     0
  1
80.000000
  0
DICTIONARYVAR
  5
1BB
102
{ACAD_REACTORS
330
1B8
102
}
330
1B8
100
DictionaryVariables
280
     0
  1
5.000000
  0
ENDSEC
  0
EOF
